  0
SECTION
  2
HEADER
  9
$ACADVER
  1
AC1015
  9
$ACADMAINTVER
 70
     6
  9
$DWGCODEPAGE
  3
ANSI_1252
  9
$INSBASE
 10
0.0
 20
0.0
 30
0.0
  9
$EXTMIN
 10
69.395417
 20
287.976483
 30
-1.0
  9
$EXTMAX
 10
1026.514554
 20
492.804657
 30
0.7
  9
$LIMMIN
 10
0.0
 20
0.0
  9
$LIMMAX
 10
12.0
 20
9.0
  9
$ORTHOMODE
 70
     0
  9
$REGENMODE
 70
     1
  9
$FILLMODE
 70
     1
  9
$QTEXTMODE
 70
     0
  9
$MIRRTEXT
 70
     0
  9
$LTSCALE
 40
10.0
  9
$ATTMODE
 70
     1
  9
$TEXTSIZE
 40
0.2
  9
$TRACEWID
 40
0.05
  9
$TEXTSTYLE
  7
STANDARD
  9
$CLAYER
  8
0
  9
$CELTYPE
  6
ByLayer
  9
$CECOLOR
 62
   256
  9
$CELTSCALE
 40
1.0
  9
$DISPSILH
 70
     0
  9
$DIMSCALE
 40
1.0
  9
$DIMASZ
 40
0.18
  9
$DIMEXO
 40
0.0625
  9
$DIMDLI
 40
0.38
  9
$DIMRND
 40
0.0
  9
$DIMDLE
 40
0.0
  9
$DIMEXE
 40
0.18
  9
$DIMTP
 40
0.0
  9
$DIMTM
 40
0.0
  9
$DIMTXT
 40
0.18
  9
$DIMCEN
 40
0.09
  9
$DIMTSZ
 40
0.0
  9
$DIMTOL
 70
     0
  9
$DIMLIM
 70
     0
  9
$DIMTIH
 70
     1
  9
$DIMTOH
 70
     1
  9
$DIMSE1
 70
     0
  9
$DIMSE2
 70
     0
  9
$DIMTAD
 70
     0
  9
$DIMZIN
 70
     0
  9
$DIMBLK
  1

  9
$DIMASO
 70
     1
  9
$DIMSHO
 70
     1
  9
$DIMPOST
  1

  9
$DIMAPOST
  1

  9
$DIMALT
 70
     0
  9
$DIMALTD
 70
     2
  9
$DIMALTF
 40
25.4
  9
$DIMLFAC
 40
1.0
  9
$DIMTOFL
 70
     0
  9
$DIMTVP
 40
0.0
  9
$DIMTIX
 70
     0
  9
$DIMSOXD
 70
     0
  9
$DIMSAH
 70
     0
  9
$DIMBLK1
  1

  9
$DIMBLK2
  1

  9
$DIMSTYLE
  2
STANDARD
  9
$DIMCLRD
 70
     0
  9
$DIMCLRE
 70
     0
  9
$DIMCLRT
 70
     0
  9
$DIMTFAC
 40
1.0
  9
$DIMGAP
 40
0.09
  9
$DIMJUST
 70
     0
  9
$DIMSD1
 70
     0
  9
$DIMSD2
 70
     0
  9
$DIMTOLJ
 70
     1
  9
$DIMTZIN
 70
     0
  9
$DIMALTZ
 70
     0
  9
$DIMALTTZ
 70
     0
  9
$DIMUPT
 70
     0
  9
$DIMDEC
 70
     4
  9
$DIMTDEC
 70
     4
  9
$DIMALTU
 70
     2
  9
$DIMALTTD
 70
     2
  9
$DIMTXSTY
  7
STANDARD
  9
$DIMAUNIT
 70
     0
  9
$DIMADEC
 70
     0
  9
$DIMALTRND
 40
0.0
  9
$DIMAZIN
 70
     0
  9
$DIMDSEP
 70
     0
  9
$DIMATFIT
 70
     3
  9
$DIMFRAC
 70
     0
  9
$DIMLDRBLK
  1

  9
$DIMLUNIT
 70
     2
  9
$DIMLWD
 70
     0
  9
$DIMLWE
 70
     0
  9
$DIMTMOVE
 70
     0
  9
$LUNITS
 70
     2
  9
$LUPREC
 70
     4
  9
$SKETCHINC
 40
0.1
  9
$FILLETRAD
 40
0.0
  9
$AUNITS
 70
     0
  9
$AUPREC
 70
     0
  9
$MENU
  1
.
  9
$ELEVATION
 40
0.0
  9
$PELEVATION
 40
0.0
  9
$THICKNESS
 40
0.0
  9
$LIMCHECK
 70
     0
  9
$CHAMFERA
 40
0.0
  9
$CHAMFERB
 40
0.0
  9
$CHAMFERC
 40
0.0
  9
$CHAMFERD
 40
0.0
  9
$SKPOLY
 70
     0
  9
$TDCREATE
 40
2453353.758792454
  9
$TDUCREATE
 40
0.000000000
  9
$TDUPDATE
 40
0.000000000
  9
$TDUUPDATE
 40
2447892.958333334
  9
$TDINDWG
 40
19583144.0627810880
  9
$TDUSRTIMER
 40
0.0000000000
  9
$USRTIMER
 70
     1
  9
$ANGBASE
 50
0.0
  9
$ANGDIR
 70
     0
  9
$PDMODE
 70
     0
  9
$PDSIZE
 40
0.0
  9
$PLINEWID
 40
0.0
  9
$SPLFRAME
 70
     0
  9
$SPLINETYPE
 70
     6
  9
$SPLINESEGS
 70
     8
  9
$HANDSEED
  5
1205
  9
$SURFTAB1
 70
     6
  9
$SURFTAB2
 70
     6
  9
$SURFTYPE
 70
     6
  9
$SURFU
 70
     6
  9
$SURFV
 70
     6
  9
$UCSBASE
  2

  9
$UCSNAME
  2

  9
$UCSORG
 10
0.0
 20
0.0
 30
0.0
  9
$UCSXDIR
 10
1.0
 20
0.0
 30
0.0
  9
$UCSYDIR
 10
0.0
 20
1.0
 30
0.0
  9
$UCSORTHOREF
  2

  9
$UCSORTHOVIEW
 70
     0
  9
$UCSORGTOP
 10
0.0
 20
0.0
 30
0.0
  9
$UCSORGBOTTOM
 10
0.0
 20
0.0
 30
0.0
  9
$UCSORGLEFT
 10
0.0
 20
0.0
 30
0.0
  9
$UCSORGRIGHT
 10
0.0
 20
0.0
 30
0.0
  9
$UCSORGFRONT
 10
0.0
 20
0.0
 30
0.0
  9
$UCSORGBACK
 10
0.0
 20
0.0
 30
0.0
  9
$PUCSBASE
  2

  9
$PUCSNAME
  2

  9
$PUCSORG
 10
0.0
 20
0.0
 30
0.0
  9
$PUCSXDIR
 10
1.0
 20
0.0
 30
0.0
  9
$PUCSYDIR
 10
0.0
 20
1.0
 30
0.0
  9
$PUCSORTHOREF
  2

  9
$PUCSORTHOVIEW
 70
     0
  9
$PUCSORGTOP
 10
0.0
 20
0.0
 30
0.0
  9
$PUCSORGBOTTOM
 10
0.0
 20
0.0
 30
0.0
  9
$PUCSORGLEFT
 10
0.0
 20
0.0
 30
0.0
  9
$PUCSORGRIGHT
 10
0.0
 20
0.0
 30
0.0
  9
$PUCSORGFRONT
 10
0.0
 20
0.0
 30
0.0
  9
$PUCSORGBACK
 10
0.0
 20
0.0
 30
0.0
  9
$USERI1
 70
     0
  9
$USERI2
 70
     0
  9
$USERI3
 70
     0
  9
$USERI4
 70
     0
  9
$USERI5
 70
     0
  9
$USERR1
 40
0.0
  9
$USERR2
 40
0.0
  9
$USERR3
 40
0.0
  9
$USERR4
 40
0.0
  9
$USERR5
 40
0.0
  9
$WORLDVIEW
 70
     1
  9
$SHADEDGE
 70
     3
  9
$SHADEDIF
 70
    70
  9
$TILEMODE
 70
     1
  9
$MAXACTVP
 70
    64
  9
$PINSBASE
 10
0.0
 20
0.0
 30
0.0
  9
$PLIMCHECK
 70
     0
  9
$PEXTMIN
 10
0.0
 20
0.0
 30
0.0
  9
$PEXTMAX
 10
0.0
 20
0.0
 30
0.0
  9
$PLIMMIN
 10
0.0
 20
0.0
  9
$PLIMMAX
 10
0.0
 20
0.0
  9
$UNITMODE
 70
     0
  9
$VISRETAIN
 70
     1
  9
$PLINEGEN
 70
     0
  9
$PSLTSCALE
 70
     1
  9
$TREEDEPTH
 70
  3020
  9
$CMLSTYLE
  2
Standard
  9
$CMLJUST
 70
     0
  9
$CMLSCALE
 40
1.0
  9
$PROXYGRAPHICS
 70
     0
  9
$MEASUREMENT
 70
     0
  9
$CELWEIGHT
370
     0
  9
$ENDCAPS
280
     0
  9
$JOINSTYLE
280
     0
  9
$LWDISPLAY
290
     0
  9
$INSUNITS
 70
     0
  9
$HYPERLINKBASE
  1

  9
$STYLESHEET
  1

  9
$XEDIT
290
     1
  9
$CEPSNTYPE
380
     0
  9
$PSTYLEMODE
290
     1
  9
$FINGERPRINTGUID
  2

  9
$VERSIONGUID
  2

  9
$EXTNAMES
290
     1
  9
$PSVPSCALE
 40
0.0
  0
ENDSEC
  0
SECTION
  2
CLASSES
  0
CLASS
  1
LWPOLYLINE
  2
AcDbPolyline
  3
AutoCAD 2000
 90
        0
280
     0
281
     1
  0
CLASS
  1
IMAGE
  2
AcDbRasterImage
  3
ISM
 90
      127
280
     0
281
     1
  0
CLASS
  1
OLE2FRAME
  2
AcDbOle2Frame
  3
AutoCAD 2000
 90
        0
280
     0
281
     1
  0
CLASS
  1
HATCH
  2
AcDbHatch
  3
AutoCAD 2000
 90
        0
280
     0
281
     1
  0
CLASS
  1
DICTIONARYVAR
  2
AcDbDictionaryVar
  3
AutoCAD 2000
 90
        0
280
     0
281
     0
  0
CLASS
  1
RASTERVARIABLES
  2
AcDbRasterVariables
  3
ISM
 90
        0
280
     0
281
     0
  0
CLASS
  1
IMAGEDEF
  2
AcDbRasterImageDef
  3
ISM
 90
        0
280
     0
281
     0
  0
CLASS
  1
IMAGEDEF_REACTOR
  2
AcDbRasterImageDefReactor
  3
ISM
 90
        1
280
     0
281
     0
  0
CLASS
  1
IDBUFFER
  2
AcDbIdBuffer
  3
AutoCAD 2000
 90
        0
280
     0
281
     0
  0
CLASS
  1
SPATIAL_FILTER
  2
AcDbSpatialFilter
  3
AutoCAD 2000
 90
        0
280
     0
281
     0
  0
CLASS
  1
XRECORD
  2
AcDbXrecord
  3
AutoCAD 2000
 90
        0
280
     0
281
     0
  0
CLASS
  1
SORTENTSTABLE
  2
AcDbSortentsTable
  3
AutoCAD 2000
 90
        0
280
     0
281
     0
  0
CLASS
  1
LAYER_INDEX
  2
AcDbLayerIndex
  3
AutoCAD 2000
 90
        0
280
     0
281
     0
  0
CLASS
  1
SPATIAL_INDEX
  2
AcDbSpatialIndex
  3
AutoCAD 2000
 90
        0
280
     0
281
     0
  0
CLASS
  1
OBJECT_PTR
  2
CAseDLPNTableRecord
  3
"ASE-LPNTableRecord"
 90
        1
280
     0
281
     0
  0
CLASS
  1
LAYOUT
  2
AcDbLayout
  3
AutoCAD 2000
 90
        0
280
     0
281
     0
  0
CLASS
  1
PLOTSETTINGS
  2
AcDbPlotSettings
  3
AutoCAD 2000
 90
        0
280
     0
281
     0
  0
CLASS
  1
ACDBDICTIONARYWDFLT
  2
AcDbDictionaryWithDefault
  3
AutoCAD 2000
 90
        0
280
     0
281
     0
  0
CLASS
  1
ACDBPLACEHOLDER
  2
AcDbPlaceHolder
  3
AutoCAD 2000
 90
        0
280
     0
281
     0
  0
CLASS
  1
VBA_PROJECT
  2
AcDbVbaProject
  3
acadvba
 90
        0
280
     0
281
     0
  0
CLASS
  1
WIPEOUT
  2
AcDbWipeout
  3
WipeOut|AutoCAD Express Tool|expresstools@autodesk.com
 90
      127
280
     0
281
     1
  0
CLASS
  1
WIPEOUTVARIABLES
  2
AcDbWipeoutVariables
  3
WipeOut|AutoCAD Express Tool|expresstools@autodesk.com
 90
        0
280
     0
281
     0
  0
CLASS
  1
RTEXT
  2
RText
  3
RText|AutoCAD Express Tool|expresstools@autodesk.com
 90
        0
280
     0
281
     1
  0
CLASS
  1
ARCALIGNEDTEXT
  2
AcDbArcAlignedText
  3
ATEXT|AutoCAD Express Tool|expresstools@autodesk.com
 90
        0
280
     0
281
     1
  0
ENDSEC
  0
SECTION
  2
TABLES
  0
TABLE
  2
VPORT
  5
FB2
100
AcDbSymbolTable
 70
     1
  0
VPORT
  5
FD1
100
AcDbSymbolTableRecord
100
AcDbViewportTableRecord
  2
*ACTIVE
 70
     0
 10
0.0
 20
0.0
 11
1.0
 21
1.0
 12
450.328833
 22
266.374849
 13
0.0
 23
0.0
 14
0.5
 24
0.5
 15
0.5
 25
0.5
 16
0.0
 26
0.0
 36
1.0
 17
0.0
 27
0.0
 37
0.0
 40
620.078606
 41
1.701534
 42
50.0
 43
0.0
 44
0.0
 50
0.0
 51
0.0
 71
    16
 72
  1000
 73
     1
 74
     3
 75
     0
 76
     0
 77
     0
 78
     0
281
     0
 65
     0
110
0.0
120
0.0
130
0.0
111
1.0
121
0.0
131
0.0
112
0.0
122
1.0
132
0.0
345
0
346
0
 79
     0
146
0.0
  0
ENDTAB
  0
TABLE
  2
LTYPE
  5
FAF
100
AcDbSymbolTable
 70
     6
  0
LTYPE
  5
FB8
100
AcDbSymbolTableRecord
100
AcDbLinetypeTableRecord
  2
ByBlock
 70
    64
  3

 72
    65
 73
     0
 40
0.0
  0
LTYPE
  5
FB9
100
AcDbSymbolTableRecord
100
AcDbLinetypeTableRecord
  2
ByLayer
 70
    64
  3

 72
    65
 73
     0
 40
0.0
  0
LTYPE
  5
FBA
100
AcDbSymbolTableRecord
100
AcDbLinetypeTableRecord
  2
CONTINUOUS
 70
     0
  3
Solid line
 72
    65
 73
     0
 40
0.0
  0
LTYPE
  5
FBB
100
AcDbSymbolTableRecord
100
AcDbLinetypeTableRecord
  2
CENTER
 70
     0
  3
____ _ ____ _ ____ _ ____ _ ____ _ ____ _ ____
 72
    65
 73
     4
 40
0.6
 49
0.375
 74
     0
 49
-0.075
 74
     0
 49
0.075
 74
     0
 49
-0.075
 74
     0
  0
LTYPE
  5
FBC
100
AcDbSymbolTableRecord
100
AcDbLinetypeTableRecord
  2
ACAD_ISO02W100
 70
     0
  3
ISO Strichlinie __ __ __ __ __ __ __ __ __ __ _
 72
    65
 73
     2
 40
15.0
 49
12.0
 74
     0
 49
-3.0
 74
     0
  0
LTYPE
  5
FBD
100
AcDbSymbolTableRecord
100
AcDbLinetypeTableRecord
  2
DASHED
 70
     0
  3
_ _ _ _ _ _ _ _ _ _ _ _ _ _ _ _ _ _ _ _ _ _ _ _
 72
    65
 73
     2
 40
0.375
 49
0.25
 74
     0
 49
-0.125
 74
     0
  0
ENDTAB
  0
TABLE
  2
LAYER
  5
FAD
100
AcDbSymbolTable
 70
     8
  0
LAYER
  5
FBE
100
AcDbSymbolTableRecord
100
AcDbLayerTableRecord
  2
0
 70
     0
 62
     7
  6
CONTINUOUS
290
     1
370
    -3
390
0
  0
LAYER
  5
FBF
100
AcDbSymbolTableRecord
100
AcDbLayerTableRecord
  2
90000_FRAME
 70
     0
 62
     7
  6
CONTINUOUS
290
     1
370
    -3
390
0
  0
LAYER
  5
FC0
100
AcDbSymbolTableRecord
100
AcDbLayerTableRecord
  2
91000_TIP
 70
     0
 62
     7
  6
CONTINUOUS
290
     1
370
    -3
390
0
  0
LAYER
  5
FC1
100
AcDbSymbolTableRecord
100
AcDbLayerTableRecord
  2
10000_FRONT
 70
     0
 62
     7
  6
CONTINUOUS
290
     1
370
    -3
390
0
  0
LAYER
  5
FC2
100
AcDbSymbolTableRecord
100
AcDbLayerTableRecord
  2
11000_LEFT
 70
     0
 62
     7
  6
CONTINUOUS
290
     1
370
    -3
390
0
  0
LAYER
  5
FC5
100
AcDbSymbolTableRecord
100
AcDbLayerTableRecord
  2
DEFPOINTS
 70
     0
 62
     7
  6
CONTINUOUS
290
     0
370
    -3
390
0
  0
LAYER
  5
FC6
100
AcDbSymbolTableRecord
100
AcDbLayerTableRecord
  2
10100_FRONT_DIM
 70
     0
 62
     7
  6
CONTINUOUS
290
     1
370
    -3
390
0
  0
LAYER
  5
FC7
100
AcDbSymbolTableRecord
100
AcDbLayerTableRecord
  2
11100_LEFT_DIM
 70
     0
 62
     7
  6
CONTINUOUS
290
     1
370
    -3
390
0
  0
ENDTAB
  0
TABLE
  2
STYLE
  5
FAE
100
AcDbSymbolTable
 70
     1
  0
STYLE
  5
FD5
100
AcDbSymbolTableRecord
100
AcDbTextStyleTableRecord
  2
STANDARD
 70
     0
 40
0.0
 41
1.0
 50
0.0
 71
     0
 42
0.2
  3
txt.shx
  4

  0
ENDTAB
  0
TABLE
  2
VIEW
  5
FB0
100
AcDbSymbolTable
 70
     0
  0
ENDTAB
  0
TABLE
  2
UCS
  5
FB1
100
AcDbSymbolTable
 70
     0
  0
ENDTAB
  0
TABLE
  2
APPID
  5
FB3
100
AcDbSymbolTable
 70
     3
  0
APPID
  5
FD2
100
AcDbSymbolTableRecord
100
AcDbRegAppTableRecord
  2
ACAD
 70
     0
  0
APPID
  5
FD3
100
AcDbSymbolTableRecord
100
AcDbRegAppTableRecord
  2
AUSTER_ANSICHT
 70
     0
  0
APPID
  5
FD4
100
AcDbSymbolTableRecord
100
AcDbRegAppTableRecord
  2
AUSTER_FOLIE
 70
     0
  0
ENDTAB
  0
TABLE
  2
DIMSTYLE
  5
FB4
100
AcDbSymbolTable
 70
     3
100
AcDbDimStyleTable
 71
     0
  0
DIMSTYLE
105
FDF
100
AcDbSymbolTableRecord
100
AcDbDimStyleTableRecord
  2
STANDARD
 70
     0
  3

  4

 40
1.0
 41
0.18
 42
0.0625
 43
0.38
 44
0.18
 45
0.0
 46
0.0
 47
0.0
 48
0.0
 71
     0
 72
     0
 73
     1
 74
     1
 75
     0
 76
     0
 77
     0
 78
     0
 79
     0
140
0.18
141
0.09
142
0.0
143
25.4
144
1.0
145
0.0
146
1.0
147
0.09
148
0.0
170
     0
171
     2
172
     0
173
     0
174
     0
175
     0
176
     0
177
     0
178
     0
179
     0
271
     4
272
     4
273
     2
274
     2
275
     0
276
     0
277
     2
278
    46
279
     0
280
     0
281
     0
282
     0
283
     1
284
     0
285
     0
286
     0
288
     0
289
     3
340
FD5
341
0
342
0
343
0
344
0
371
    -2
372
    -2
  0
DIMSTYLE
105
FE0
100
AcDbSymbolTableRecord
100
AcDbDimStyleTableRecord
  2
DSTYLE1
 70
     0
  3

  4

 40
1.0
 41
3.0
 42
0.0
 43
0.38
 44
1.0
 45
0.0
 46
0.0
 47
0.0
 48
0.0
 71
     0
 72
     0
 73
     0
 74
     0
 75
     0
 76
     0
 77
     1
 78
     3
 79
     0
140
2.5
141
0.09
142
0.0
143
0.03937
144
1.0
145
0.0
146
1.0
147
1.0
148
0.0
170
     0
171
     2
172
     0
173
     0
174
     0
175
     0
176
     0
177
     0
178
     0
179
     0
271
     4
272
     4
273
     2
274
     2
275
     0
276
     0
277
     2
278
    46
279
     0
280
     0
281
     0
282
     0
283
     1
284
     0
285
     0
286
     0
288
     0
289
     3
340
FD5
341
0
342
0
343
0
344
0
371
    -2
372
    -2
  0
DIMSTYLE
105
FE1
100
AcDbSymbolTableRecord
100
AcDbDimStyleTableRecord
  2
H035
 70
     0
  3

  4

 40
0.0
 41
3.5
 42
0.0
 43
3.75
 44
2.0
 45
0.0
 46
0.0
 47
0.0
 48
0.0
 71
     0
 72
     0
 73
     0
 74
     0
 75
     0
 76
     0
 77
     1
 78
     8
 79
     0
140
3.5
141
2.5
142
0.0
143
0.039
144
1.0
145
0.0
146
1.0
147
0.5
148
0.0
170
     0
171
     4
172
     1
173
     0
174
     0
175
     0
176
   256
177
     7
178
     7
179
     0
271
     4
272
     4
273
     2
274
     2
275
     0
276
     0
277
     2
278
    46
279
     0
280
     0
281
     0
282
     0
283
     1
284
     0
285
     0
286
     0
288
     0
289
     3
340
FD5
341
0
342
0
343
0
344
0
371
    -2
372
    -2
  0
ENDTAB
  0
TABLE
  2
BLOCK_RECORD
  5
FDA
100
AcDbSymbolTable
 70
     2
  0
BLOCK_RECORD
  5
FD8
100
AcDbSymbolTableRecord
100
AcDbBlockTableRecord
  2
*Model_Space
340
0
  0
BLOCK_RECORD
  5
FD9
100
AcDbSymbolTableRecord
100
AcDbBlockTableRecord
  2
*Paper_Space
340
0
  0
BLOCK_RECORD
  5
FD6
100
AcDbSymbolTableRecord
100
AcDbBlockTableRecord
  2
$MODEL_SPACE
340
0
  0
BLOCK_RECORD
  5
FD7
100
AcDbSymbolTableRecord
100
AcDbBlockTableRecord
  2
$PAPER_SPACE
340
0
  0
ENDTAB
  0
ENDSEC
  0
SECTION
  2
BLOCKS
  0
BLOCK
  5
FDB
100
AcDbEntity
  8
0
390
0
100
AcDbBlockBegin
  2
*Model_Space
 70
     0
 10
0.0
 20
0.0
 30
0.0
  3
*Model_Space
  1

  0
ENDBLK
  5
FDC
100
AcDbEntity
  8
0
390
0
100
AcDbBlockEnd
  0
BLOCK
  5
FDD
100
AcDbEntity
 67
     1
  8
0
390
0
100
AcDbBlockBegin
  2
*Paper_Space
 70
     0
 10
0.0
 20
0.0
 30
0.0
  3
*Paper_Space
  1

  0
ENDBLK
  5
FDE
100
AcDbEntity
 67
     1
  8
0
390
0
100
AcDbBlockEnd
  0
BLOCK
  5
FE2
100
AcDbEntity
  8
0
100
AcDbBlockBegin
  2
$MODEL_SPACE
 70
     0
 10
0.0
 20
0.0
 30
0.0
  3
$MODEL_SPACE
  1

  0
ENDBLK
  5
21
100
AcDbEntity
  8
0
100
AcDbBlockEnd
  0
BLOCK
  5
FE3
100
AcDbEntity
  8
0
100
AcDbBlockBegin
  2
$PAPER_SPACE
 70
     0
 10
0.0
 20
0.0
 30
0.0
  3
$PAPER_SPACE
  1

  0
ENDBLK
  5
76
100
AcDbEntity
  8
0
100
AcDbBlockEnd
  0
ENDSEC
  0
SECTION
  2
ENTITIES
  0
ARC
  5
FE9
100
AcDbEntity
  8
10000_FRONT
370
    25
390
0
  6
CONTINUOUS
 62
     7
100
AcDbCircle
 10
199.075
 20
423.55
 30
0.0
 40
8.0
100
AcDbArc
 50
290.258249
 51
0.0
  0
ARC
  5
FEA
100
AcDbEntity
  8
10000_FRONT
370
    25
390
0
  6
CONTINUOUS
 62
     7
100
AcDbCircle
 10
199.075
 20
423.55
 30
0.0
 40
8.0
100
AcDbArc
 50
180.0
 51
249.739229
  0
ARC
  5
FEB
100
AcDbEntity
  8
10000_FRONT
370
    25
390
0
  6
CONTINUOUS
 62
     7
100
AcDbCircle
 10
199.075
 20
423.55
 30
0.0
 40
8.0
100
AcDbArc
 50
0.0
 51
73.230918
  0
ARC
  5
FEC
100
AcDbEntity
  8
10000_FRONT
370
    25
390
0
  6
CONTINUOUS
 62
     7
100
AcDbCircle
 10
199.075
 20
423.55
 30
0.0
 40
8.0
100
AcDbArc
 50
106.771576
 51
180.0
  0
ARC
  5
FED
100
AcDbEntity
  8
10000_FRONT
370
    25
390
0
  6
CONTINUOUS
 62
     7
100
AcDbCircle
 10
199.075
 20
423.55
 30
0.0
 40
7.381703
100
AcDbArc
 50
292.486795
 51
0.0
  0
ARC
  5
FEE
100
AcDbEntity
  8
10000_FRONT
370
    25
390
0
  6
CONTINUOUS
 62
     7
100
AcDbCircle
 10
199.075
 20
423.55
 30
0.0
 40
7.381703
100
AcDbArc
 50
109.000383
 51
180.0
  0
ARC
  5
FEF
100
AcDbEntity
  8
10000_FRONT
370
    25
390
0
  6
CONTINUOUS
 62
     7
100
AcDbCircle
 10
199.075
 20
435.55
 30
0.0
 40
2.7
100
AcDbArc
 50
180.0
 51
224.950196
  0
ARC
  5
FF0
100
AcDbEntity
  8
10000_FRONT
370
    25
390
0
  6
CONTINUOUS
 62
     7
100
AcDbCircle
 10
199.075
 20
435.55
 30
0.0
 40
2.7
100
AcDbArc
 50
315.04172
 51
0.0
  0
ARC
  5
FF1
100
AcDbEntity
  8
10000_FRONT
370
    25
390
0
  6
CONTINUOUS
 62
     7
100
AcDbCircle
 10
199.075
 20
423.55
 30
0.0
 40
8.5
100
AcDbArc
 50
0.0
 51
74.809198
  0
ARC
  5
FF2
100
AcDbEntity
  8
10000_FRONT
370
    25
390
0
  6
CONTINUOUS
 62
     7
100
AcDbCircle
 10
199.075
 20
423.55
 30
0.0
 40
8.5
100
AcDbArc
 50
105.192988
 51
180.0
  0
LINE
  5
FF3
100
AcDbEntity
  8
10000_FRONT
370
    25
390
0
  6
CONTINUOUS
 62
     7
100
AcDbLine
 10
184.075
 20
488.600001
 30
0.0
 11
184.075
 21
488.650002
 31
0.0
  0
LINE
  5
FF4
100
AcDbEntity
  8
10000_FRONT
370
    25
390
0
  6
CONTINUOUS
 62
     7
100
AcDbLine
 10
184.075
 20
484.350001
 30
0.0
 11
184.075
 21
484.4
 31
0.0
  0
LINE
  5
FF5
100
AcDbEntity
  8
10000_FRONT
370
    25
390
0
  6
CONTINUOUS
 62
     7
100
AcDbLine
 10
199.275
 20
484.4
 30
0.0
 11
199.275
 21
484.350001
 31
0.0
  0
LINE
  5
FF6
100
AcDbEntity
  8
10000_FRONT
370
    25
390
0
  6
CONTINUOUS
 62
     7
100
AcDbLine
 10
199.275
 20
488.600001
 30
0.0
 11
199.275
 21
488.650002
 31
0.0
  0
LINE
  5
FF7
100
AcDbEntity
  8
10000_FRONT
370
    25
390
0
  6
CONTINUOUS
 62
     7
100
AcDbLine
 10
199.475
 20
488.050002
 30
0.0
 11
214.375
 21
488.050002
 31
0.0
  0
LINE
  5
FF8
100
AcDbEntity
  8
10000_FRONT
370
    25
390
0
  6
CONTINUOUS
 62
     7
100
AcDbLine
 10
214.375
 20
488.050002
 30
0.0
 11
214.375
 21
488.650002
 31
0.0
  0
LINE
  5
FF9
100
AcDbEntity
  8
10000_FRONT
370
    25
390
0
  6
CONTINUOUS
 62
     7
100
AcDbLine
 10
199.275
 20
488.650002
 30
0.0
 11
214.375
 21
488.650002
 31
0.0
  0
ARC
  5
FFA
100
AcDbEntity
  8
10000_FRONT
370
    25
390
0
  6
CONTINUOUS
 62
     7
100
AcDbCircle
 10
199.075
 20
423.55
 30
0.0
 40
8.5
100
AcDbArc
 50
180.0
 51
251.317835
  0
ARC
  5
FFB
100
AcDbEntity
  8
10000_FRONT
370
    25
390
0
  6
CONTINUOUS
 62
     7
100
AcDbCircle
 10
199.075
 20
423.55
 30
0.0
 40
8.5
100
AcDbArc
 50
288.67995
 51
0.0
  0
LINE
  5
FFC
100
AcDbEntity
  8
10000_FRONT
370
    25
390
0
  6
CONTINUOUS
 62
     7
100
AcDbLine
 10
199.275
 20
484.350001
 30
0.0
 11
184.075
 21
484.350001
 31
0.0
  0
LINE
  5
FFD
100
AcDbEntity
  8
10000_FRONT
370
    25
390
0
  6
CONTINUOUS
 62
     7
100
AcDbLine
 10
184.075
 20
488.650002
 30
0.0
 11
199.275
 21
488.650002
 31
0.0
  0
LINE
  5
FFE
100
AcDbEntity
  8
10000_FRONT
370
    25
390
0
  6
CONTINUOUS
 62
     7
100
AcDbLine
 10
169.375
 20
488.650002
 30
0.0
 11
184.075
 21
488.650002
 31
0.0
  0
LINE
  5
FFF
100
AcDbEntity
  8
10000_FRONT
370
    25
390
0
  6
CONTINUOUS
 62
     7
100
AcDbLine
 10
169.375
 20
488.050002
 30
0.0
 11
169.375
 21
488.650002
 31
0.0
  0
LINE
  5
1000
100
AcDbEntity
  8
10000_FRONT
370
    25
390
0
  6
CONTINUOUS
 62
     7
100
AcDbLine
 10
169.375
 20
488.050002
 30
0.0
 11
183.875
 21
488.050002
 31
0.0
  0
LINE
  5
1001
100
AcDbEntity
  8
10000_FRONT
370
    25
390
0
  6
CONTINUOUS
 62
     7
100
AcDbLine
 10
169.375
 20
488.050002
 30
0.0
 11
169.375
 21
461.950001
 31
0.0
  0
LINE
  5
1002
100
AcDbEntity
  8
10000_FRONT
370
    25
390
0
  6
CONTINUOUS
 62
     7
100
AcDbLine
 10
169.375
 20
461.950001
 30
0.0
 11
214.375
 21
461.950001
 31
0.0
  0
LINE
  5
1003
100
AcDbEntity
  8
10000_FRONT
370
    25
390
0
  6
CONTINUOUS
 62
     7
100
AcDbLine
 10
214.375
 20
461.950001
 30
0.0
 11
214.375
 21
488.050002
 31
0.0
  0
LINE
  5
1004
100
AcDbEntity
  8
10000_FRONT
370
    25
390
0
  6
CONTINUOUS
 62
     7
100
AcDbLine
 10
201.875
 20
471.45
 30
0.0
 11
181.475
 21
471.45
 31
0.0
  0
LINE
  5
1005
100
AcDbEntity
  8
10000_FRONT
370
    25
390
0
  6
CONTINUOUS
 62
     7
100
AcDbLine
 10
181.475
 20
471.45
 30
0.0
 11
181.475
 21
478.75
 31
0.0
  0
LINE
  5
1006
100
AcDbEntity
  8
10000_FRONT
370
    25
390
0
  6
CONTINUOUS
 62
     7
100
AcDbLine
 10
181.475
 20
478.75
 30
0.0
 11
201.875
 21
478.75
 31
0.0
  0
LINE
  5
1007
100
AcDbEntity
  8
10000_FRONT
370
    25
390
0
  6
CONTINUOUS
 62
     7
100
AcDbLine
 10
201.875
 20
478.75
 30
0.0
 11
201.875
 21
471.45
 31
0.0
  0
LINE
  5
1008
100
AcDbEntity
  8
10000_FRONT
370
    25
390
0
  6
CONTINUOUS
 62
     7
100
AcDbLine
 10
169.375
 20
371.999998
 30
0.0
 11
214.375
 21
371.999998
 31
0.0
  0
LINE
  5
1009
100
AcDbEntity
  8
10000_FRONT
370
    25
390
0
  6
CONTINUOUS
 62
     7
100
AcDbLine
 10
214.375
 20
371.999998
 30
0.0
 11
214.375
 21
384.250029
 31
0.0
  0
LINE
  5
100A
100
AcDbEntity
  8
10000_FRONT
370
    25
390
0
  6
CONTINUOUS
 62
     7
100
AcDbLine
 10
169.375
 20
384.250029
 30
0.0
 11
169.375
 21
371.999998
 31
0.0
  0
LINE
  5
100B
100
AcDbEntity
  8
10000_FRONT
370
    25
390
0
  6
CONTINUOUS
 62
     7
100
AcDbLine
 10
169.375
 20
384.249998
 30
0.0
 11
214.375
 21
384.249998
 31
0.0
  0
LINE
  5
100C
100
AcDbEntity
  8
10000_FRONT
370
    25
390
0
  6
CONTINUOUS
 62
     7
100
AcDbLine
 10
214.375
 20
384.249998
 30
0.0
 11
214.375
 21
408.15
 31
0.0
  0
LINE
  5
100D
100
AcDbEntity
  8
10000_FRONT
370
    25
390
0
  6
CONTINUOUS
 62
     7
100
AcDbLine
 10
169.375
 20
408.15
 30
0.0
 11
169.375
 21
384.249998
 31
0.0
  0
LINE
  5
100E
100
AcDbEntity
  8
10000_FRONT
370
    25
390
0
  6
CONTINUOUS
 62
     7
100
AcDbLine
 10
169.375
 20
408.15
 30
0.0
 11
214.375
 21
408.15
 31
0.0
  0
LINE
  5
100F
100
AcDbEntity
  8
10000_FRONT
370
    25
390
0
  6
CONTINUOUS
 62
     7
100
AcDbLine
 10
214.375
 20
408.15
 30
0.0
 11
214.375
 21
461.950001
 31
0.0
  0
LINE
  5
1010
100
AcDbEntity
  8
10000_FRONT
370
    25
390
0
  6
CONTINUOUS
 62
     7
100
AcDbLine
 10
169.375
 20
408.15
 30
0.0
 11
169.375
 21
461.950001
 31
0.0
  0
LINE
  5
1011
100
AcDbEntity
  8
10000_FRONT
370
    25
390
0
  6
CONTINUOUS
 62
     7
100
AcDbLine
 10
214.375
 20
488.650002
 30
0.0
 11
214.375
 21
497.050002
 31
0.0
  0
LINE
  5
1012
100
AcDbEntity
  8
10000_FRONT
370
    25
390
0
  6
CONTINUOUS
 62
     7
100
AcDbLine
 10
169.375
 20
497.050002
 30
0.0
 11
214.375
 21
497.050002
 31
0.0
  0
LINE
  5
1013
100
AcDbEntity
  8
10000_FRONT
370
    25
390
0
  6
CONTINUOUS
 62
     7
100
AcDbLine
 10
169.375
 20
497.050002
 30
0.0
 11
169.375
 21
488.650002
 31
0.0
  0
LINE
  5
1014
100
AcDbEntity
  8
10000_FRONT
370
    25
390
0
  6
CONTINUOUS
 62
     7
100
AcDbLine
 10
214.375
 20
497.050002
 30
0.0
 11
214.375
 21
497.65
 31
0.0
  0
LINE
  5
1015
100
AcDbEntity
  8
10000_FRONT
370
    25
390
0
  6
CONTINUOUS
 62
     7
100
AcDbLine
 10
169.375
 20
497.65
 30
0.0
 11
214.375
 21
497.65
 31
0.0
  0
LINE
  5
1016
100
AcDbEntity
  8
10000_FRONT
370
    25
390
0
  6
CONTINUOUS
 62
     7
100
AcDbLine
 10
169.375
 20
497.050002
 30
0.0
 11
169.375
 21
497.65
 31
0.0
  0
LINE
  5
1017
100
AcDbEntity
  8
10000_FRONT
370
    25
390
0
  6
CONTINUOUS
 62
     7
100
AcDbLine
 10
183.875
 20
488.4
 30
0.0
 11
183.875
 21
484.600001
 31
0.0
  0
ARC
  5
1018
100
AcDbEntity
  8
10000_FRONT
370
    25
390
0
  6
CONTINUOUS
 62
     7
100
AcDbCircle
 10
184.075
 20
484.6
 30
0.0
 40
0.2
100
AcDbArc
 50
179.999781
 51
269.999945
  0
ARC
  5
1019
100
AcDbEntity
  8
10000_FRONT
370
    25
390
0
  6
CONTINUOUS
 62
     7
100
AcDbCircle
 10
199.275
 20
484.6
 30
0.0
 40
0.2
100
AcDbArc
 50
270.000027
 51
0.000219
  0
LINE
  5
101A
100
AcDbEntity
  8
10000_FRONT
370
    25
390
0
  6
CONTINUOUS
 62
     7
100
AcDbLine
 10
199.475
 20
484.600001
 30
0.0
 11
199.475
 21
488.4
 31
0.0
  0
ARC
  5
101B
100
AcDbEntity
  8
10000_FRONT
370
    25
390
0
  6
CONTINUOUS
 62
     7
100
AcDbCircle
 10
199.275
 20
488.4
 30
0.0
 40
0.2
100
AcDbArc
 50
0.0
 51
89.999973
  0
LINE
  5
101C
100
AcDbEntity
  8
10000_FRONT
370
    25
390
0
  6
CONTINUOUS
 62
     7
100
AcDbLine
 10
199.275
 20
488.600001
 30
0.0
 11
184.075
 21
488.600001
 31
0.0
  0
ARC
  5
101D
100
AcDbEntity
  8
10000_FRONT
370
    25
390
0
  6
CONTINUOUS
 62
     7
100
AcDbCircle
 10
184.075
 20
488.4
 30
0.0
 40
0.2
100
AcDbArc
 50
90.000055
 51
180.0
  0
LINE
  5
101E
100
AcDbEntity
  8
10000_FRONT
370
    25
390
0
  6
CONTINUOUS
 62
     7
100
AcDbLine
 10
184.075
 20
484.4
 30
0.0
 11
199.275
 21
484.4
 31
0.0
  0
LINE
  5
101F
100
AcDbEntity
  8
10000_FRONT
370
    25
390
0
  6
CONTINUOUS
 62
     7
100
AcDbLine
 10
197.011
 20
485.446295
 30
0.0
 11
197.011
 21
485.884552
 31
0.0
  0
ARC
  5
1020
100
AcDbEntity
  8
10000_FRONT
370
    25
390
0
  6
CONTINUOUS
 62
     7
100
AcDbCircle
 10
197.787518
 20
487.95106
 30
0.0
 40
2.207585
100
AcDbArc
 50
249.405608
 51
266.665871
  0
ARC
  5
1021
100
AcDbEntity
  8
10000_FRONT
370
    25
390
0
  6
CONTINUOUS
 62
     7
100
AcDbCircle
 10
197.702208
 20
486.373736
 30
0.0
 40
0.628004
100
AcDbArc
 50
266.066516
 51
292.85813
  0
ARC
  5
1022
100
AcDbEntity
  8
10000_FRONT
370
    25
390
0
  6
CONTINUOUS
 62
     7
100
AcDbCircle
 10
197.884364
 20
485.939887
 30
0.0
 40
0.157468
100
AcDbArc
 50
293.10457
 51
0.080132
  0
ARC
  5
1023
100
AcDbEntity
  8
10000_FRONT
370
    25
390
0
  6
CONTINUOUS
 62
     7
100
AcDbCircle
 10
197.860711
 20
485.937793
 30
0.0
 40
0.181136
100
AcDbArc
 50
0.732212
 51
61.854176
  0
ARC
  5
1024
100
AcDbEntity
  8
10000_FRONT
370
    25
390
0
  6
CONTINUOUS
 62
     7
100
AcDbCircle
 10
193.656545
 20
477.240316
 30
0.0
 40
9.841273
100
AcDbArc
 50
64.158715
 51
67.400279
  0
ARC
  5
1025
100
AcDbEntity
  8
10000_FRONT
370
    25
390
0
  6
CONTINUOUS
 62
     7
100
AcDbCircle
 10
197.754407
 20
487.130321
 30
0.0
 40
0.864246
100
AcDbArc
 50
212.423372
 51
248.55677
  0
ARC
  5
1026
100
AcDbEntity
  8
10000_FRONT
370
    25
390
0
  6
CONTINUOUS
 62
     7
100
AcDbCircle
 10
197.540023
 20
486.939895
 30
0.0
 40
0.582983
100
AcDbArc
 50
153.406559
 51
207.918058
  0
ARC
  5
1027
100
AcDbEntity
  8
10000_FRONT
370
    25
390
0
  6
CONTINUOUS
 62
     7
100
AcDbCircle
 10
197.629163
 20
486.84688
 30
0.0
 40
0.70566
100
AcDbArc
 50
101.936992
 51
149.891067
  0
ARC
  5
1028
100
AcDbEntity
  8
10000_FRONT
370
    25
390
0
  6
CONTINUOUS
 62
     7
100
AcDbCircle
 10
197.929016
 20
485.513608
 30
0.0
 40
2.072196
100
AcDbArc
 50
74.886916
 51
102.423629
  0
LINE
  5
1029
100
AcDbEntity
  8
10000_FRONT
370
    25
390
0
  6
CONTINUOUS
 62
     7
100
AcDbLine
 10
198.469289
 20
487.514132
 30
0.0
 11
198.469289
 21
487.105194
 31
0.0
  0
ARC
  5
102A
100
AcDbEntity
  8
10000_FRONT
370
    25
390
0
  6
CONTINUOUS
 62
     7
100
AcDbCircle
 10
197.919473
 20
485.535624
 30
0.0
 40
1.663085
100
AcDbArc
 50
70.69481
 51
95.842706
  0
ARC
  5
102B
100
AcDbEntity
  8
10000_FRONT
370
    25
390
0
  6
CONTINUOUS
 62
     7
100
AcDbCircle
 10
197.772406
 20
486.940346
 30
0.0
 40
0.25071
100
AcDbArc
 50
95.087256
 51
138.888554
  0
ARC
  5
102C
100
AcDbEntity
  8
10000_FRONT
370
    25
390
0
  6
CONTINUOUS
 62
     7
100
AcDbCircle
 10
197.686525
 20
487.032693
 30
0.0
 40
0.125968
100
AcDbArc
 50
144.861438
 51
206.967375
  0
ARC
  5
102D
100
AcDbEntity
  8
10000_FRONT
370
    25
390
0
  6
CONTINUOUS
 62
     7
100
AcDbCircle
 10
197.988917
 20
487.362568
 30
0.0
 40
0.567198
100
AcDbArc
 50
223.023619
 51
247.996497
  0
LINE
  5
102E
100
AcDbEntity
  8
10000_FRONT
370
    25
390
0
  6
CONTINUOUS
 62
     7
100
AcDbLine
 10
197.776409
 20
486.836684
 30
0.0
 11
198.159113
 21
486.663849
 31
0.0
  0
ARC
  5
102F
100
AcDbEntity
  8
10000_FRONT
370
    25
390
0
  6
CONTINUOUS
 62
     7
100
AcDbCircle
 10
197.809577
 20
485.836505
 30
0.0
 40
0.898151
100
AcDbArc
 50
32.199048
 51
67.096914
  0
ARC
  5
1030
100
AcDbEntity
  8
10000_FRONT
370
    25
390
0
  6
CONTINUOUS
 62
     7
100
AcDbCircle
 10
198.016733
 20
486.0327
 30
0.0
 40
0.620808
100
AcDbArc
 50
333.897358
 51
27.057551
  0
ARC
  5
1031
100
AcDbEntity
  8
10000_FRONT
370
    25
390
0
  6
CONTINUOUS
 62
     7
100
AcDbCircle
 10
197.911498
 20
486.137626
 30
0.0
 40
0.762982
100
AcDbArc
 50
283.385325
 51
330.296209
  0
ARC
  5
1032
100
AcDbEntity
  8
10000_FRONT
370
    25
390
0
  6
CONTINUOUS
 62
     7
100
AcDbCircle
 10
197.675305
 20
488.080452
 30
0.0
 40
2.716631
100
AcDbArc
 50
255.845785
 51
278.740599
  0
LINE
  5
1033
100
AcDbEntity
  8
10000_FRONT
370
    25
390
0
  6
CONTINUOUS
 62
     7
100
AcDbLine
 10
192.803
 20
487.529564
 30
0.0
 11
194.377026
 21
487.529564
 31
0.0
  0
LINE
  5
1034
100
AcDbEntity
  8
10000_FRONT
370
    25
390
0
  6
CONTINUOUS
 62
     7
100
AcDbLine
 10
194.377026
 20
487.529564
 30
0.0
 11
194.377026
 21
487.148404
 31
0.0
  0
LINE
  5
1035
100
AcDbEntity
  8
10000_FRONT
370
    25
390
0
  6
CONTINUOUS
 62
     7
100
AcDbLine
 10
194.377026
 20
487.148404
 30
0.0
 11
193.424895
 21
487.148404
 31
0.0
  0
LINE
  5
1036
100
AcDbEntity
  8
10000_FRONT
370
    25
390
0
  6
CONTINUOUS
 62
     7
100
AcDbLine
 10
193.424895
 20
487.148404
 30
0.0
 11
193.424895
 21
486.663849
 31
0.0
  0
LINE
  5
1037
100
AcDbEntity
  8
10000_FRONT
370
    25
390
0
  6
CONTINUOUS
 62
     7
100
AcDbLine
 10
193.424895
 20
486.663849
 30
0.0
 11
194.256659
 21
486.663849
 31
0.0
  0
LINE
  5
1038
100
AcDbEntity
  8
10000_FRONT
370
    25
390
0
  6
CONTINUOUS
 62
     7
100
AcDbLine
 10
194.256659
 20
486.663849
 30
0.0
 11
194.256659
 21
486.299664
 31
0.0
  0
LINE
  5
1039
100
AcDbEntity
  8
10000_FRONT
370
    25
390
0
  6
CONTINUOUS
 62
     7
100
AcDbLine
 10
194.256659
 20
486.299664
 30
0.0
 11
193.424895
 21
486.299664
 31
0.0
  0
LINE
  5
103A
100
AcDbEntity
  8
10000_FRONT
370
    25
390
0
  6
CONTINUOUS
 62
     7
100
AcDbLine
 10
193.424895
 20
486.299664
 30
0.0
 11
193.424895
 21
485.798136
 31
0.0
  0
LINE
  5
103B
100
AcDbEntity
  8
10000_FRONT
370
    25
390
0
  6
CONTINUOUS
 62
     7
100
AcDbLine
 10
193.424895
 20
485.798136
 30
0.0
 11
194.377026
 21
485.798136
 31
0.0
  0
LINE
  5
103C
100
AcDbEntity
  8
10000_FRONT
370
    25
390
0
  6
CONTINUOUS
 62
     7
100
AcDbLine
 10
194.377026
 20
485.798136
 30
0.0
 11
194.377026
 21
485.4
 31
0.0
  0
LINE
  5
103D
100
AcDbEntity
  8
10000_FRONT
370
    25
390
0
  6
CONTINUOUS
 62
     7
100
AcDbLine
 10
194.377026
 20
485.4
 30
0.0
 11
192.803
 21
485.4
 31
0.0
  0
LINE
  5
103E
100
AcDbEntity
  8
10000_FRONT
370
    25
390
0
  6
CONTINUOUS
 62
     7
100
AcDbLine
 10
192.803
 20
485.4
 30
0.0
 11
192.803
 21
487.529564
 31
0.0
  0
LINE
  5
103F
100
AcDbEntity
  8
10000_FRONT
370
    25
390
0
  6
CONTINUOUS
 62
     7
100
AcDbLine
 10
187.739
 20
487.529564
 30
0.0
 11
189.313026
 21
487.529564
 31
0.0
  0
LINE
  5
1040
100
AcDbEntity
  8
10000_FRONT
370
    25
390
0
  6
CONTINUOUS
 62
     7
100
AcDbLine
 10
189.313026
 20
487.529564
 30
0.0
 11
189.313026
 21
487.148404
 31
0.0
  0
LINE
  5
1041
100
AcDbEntity
  8
10000_FRONT
370
    25
390
0
  6
CONTINUOUS
 62
     7
100
AcDbLine
 10
189.313026
 20
487.148404
 30
0.0
 11
188.360894
 21
487.148404
 31
0.0
  0
LINE
  5
1042
100
AcDbEntity
  8
10000_FRONT
370
    25
390
0
  6
CONTINUOUS
 62
     7
100
AcDbLine
 10
188.360894
 20
487.148404
 30
0.0
 11
188.360894
 21
486.663849
 31
0.0
  0
LINE
  5
1043
100
AcDbEntity
  8
10000_FRONT
370
    25
390
0
  6
CONTINUOUS
 62
     7
100
AcDbLine
 10
188.360894
 20
486.663849
 30
0.0
 11
189.192659
 21
486.663849
 31
0.0
  0
LINE
  5
1044
100
AcDbEntity
  8
10000_FRONT
370
    25
390
0
  6
CONTINUOUS
 62
     7
100
AcDbLine
 10
189.192659
 20
486.663849
 30
0.0
 11
189.192659
 21
486.299664
 31
0.0
  0
LINE
  5
1045
100
AcDbEntity
  8
10000_FRONT
370
    25
390
0
  6
CONTINUOUS
 62
     7
100
AcDbLine
 10
189.192659
 20
486.299664
 30
0.0
 11
188.360894
 21
486.299664
 31
0.0
  0
LINE
  5
1046
100
AcDbEntity
  8
10000_FRONT
370
    25
390
0
  6
CONTINUOUS
 62
     7
100
AcDbLine
 10
188.360894
 20
486.299664
 30
0.0
 11
188.360894
 21
485.798136
 31
0.0
  0
LINE
  5
1047
100
AcDbEntity
  8
10000_FRONT
370
    25
390
0
  6
CONTINUOUS
 62
     7
100
AcDbLine
 10
188.360894
 20
485.798136
 30
0.0
 11
189.313026
 21
485.798136
 31
0.0
  0
LINE
  5
1048
100
AcDbEntity
  8
10000_FRONT
370
    25
390
0
  6
CONTINUOUS
 62
     7
100
AcDbLine
 10
189.313026
 20
485.798136
 30
0.0
 11
189.313026
 21
485.4
 31
0.0
  0
LINE
  5
1049
100
AcDbEntity
  8
10000_FRONT
370
    25
390
0
  6
CONTINUOUS
 62
     7
100
AcDbLine
 10
189.313026
 20
485.4
 30
0.0
 11
187.739
 21
485.4
 31
0.0
  0
LINE
  5
104A
100
AcDbEntity
  8
10000_FRONT
370
    25
390
0
  6
CONTINUOUS
 62
     7
100
AcDbLine
 10
187.739
 20
485.4
 30
0.0
 11
187.739
 21
487.529564
 31
0.0
  0
LINE
  5
104B
100
AcDbEntity
  8
10000_FRONT
370
    25
390
0
  6
CONTINUOUS
 62
     7
100
AcDbLine
 10
184.675
 20
485.446295
 30
0.0
 11
184.675
 21
485.884552
 31
0.0
  0
ARC
  5
104C
100
AcDbEntity
  8
10000_FRONT
370
    25
390
0
  6
CONTINUOUS
 62
     7
100
AcDbCircle
 10
185.451518
 20
487.95106
 30
0.0
 40
2.207585
100
AcDbArc
 50
249.405609
 51
266.665871
  0
ARC
  5
104D
100
AcDbEntity
  8
10000_FRONT
370
    25
390
0
  6
CONTINUOUS
 62
     7
100
AcDbCircle
 10
185.366208
 20
486.373736
 30
0.0
 40
0.628004
100
AcDbArc
 50
266.066519
 51
292.858133
  0
ARC
  5
104E
100
AcDbEntity
  8
10000_FRONT
370
    25
390
0
  6
CONTINUOUS
 62
     7
100
AcDbCircle
 10
185.548364
 20
485.939887
 30
0.0
 40
0.157468
100
AcDbArc
 50
293.104582
 51
0.080132
  0
ARC
  5
104F
100
AcDbEntity
  8
10000_FRONT
370
    25
390
0
  6
CONTINUOUS
 62
     7
100
AcDbCircle
 10
185.524711
 20
485.937793
 30
0.0
 40
0.181136
100
AcDbArc
 50
0.732212
 51
61.854166
  0
ARC
  5
1050
100
AcDbEntity
  8
10000_FRONT
370
    25
390
0
  6
CONTINUOUS
 62
     7
100
AcDbCircle
 10
181.320545
 20
477.240316
 30
0.0
 40
9.841273
100
AcDbArc
 50
64.158715
 51
67.400279
  0
ARC
  5
1051
100
AcDbEntity
  8
10000_FRONT
370
    25
390
0
  6
CONTINUOUS
 62
     7
100
AcDbCircle
 10
185.418407
 20
487.130321
 30
0.0
 40
0.864246
100
AcDbArc
 50
212.423373
 51
248.556772
  0
ARC
  5
1052
100
AcDbEntity
  8
10000_FRONT
370
    25
390
0
  6
CONTINUOUS
 62
     7
100
AcDbCircle
 10
185.204023
 20
486.939895
 30
0.0
 40
0.582983
100
AcDbArc
 50
153.406558
 51
207.918059
  0
ARC
  5
1053
100
AcDbEntity
  8
10000_FRONT
370
    25
390
0
  6
CONTINUOUS
 62
     7
100
AcDbCircle
 10
185.293163
 20
486.84688
 30
0.0
 40
0.70566
100
AcDbArc
 50
101.936989
 51
149.891066
  0
ARC
  5
1054
100
AcDbEntity
  8
10000_FRONT
370
    25
390
0
  6
CONTINUOUS
 62
     7
100
AcDbCircle
 10
185.593016
 20
485.513608
 30
0.0
 40
2.072196
100
AcDbArc
 50
74.886916
 51
102.423628
  0
LINE
  5
1055
100
AcDbEntity
  8
10000_FRONT
370
    25
390
0
  6
CONTINUOUS
 62
     7
100
AcDbLine
 10
186.133289
 20
487.514132
 30
0.0
 11
186.133289
 21
487.105194
 31
0.0
  0
ARC
  5
1056
100
AcDbEntity
  8
10000_FRONT
370
    25
390
0
  6
CONTINUOUS
 62
     7
100
AcDbCircle
 10
185.583473
 20
485.535624
 30
0.0
 40
1.663085
100
AcDbArc
 50
70.694809
 51
95.842705
  0
ARC
  5
1057
100
AcDbEntity
  8
10000_FRONT
370
    25
390
0
  6
CONTINUOUS
 62
     7
100
AcDbCircle
 10
185.436406
 20
486.940346
 30
0.0
 40
0.25071
100
AcDbArc
 50
95.087248
 51
138.888549
  0
ARC
  5
1058
100
AcDbEntity
  8
10000_FRONT
370
    25
390
0
  6
CONTINUOUS
 62
     7
100
AcDbCircle
 10
185.350525
 20
487.032693
 30
0.0
 40
0.125968
100
AcDbArc
 50
144.861429
 51
206.967382
  0
ARC
  5
1059
100
AcDbEntity
  8
10000_FRONT
370
    25
390
0
  6
CONTINUOUS
 62
     7
100
AcDbCircle
 10
185.652917
 20
487.362568
 30
0.0
 40
0.567198
100
AcDbArc
 50
223.023622
 51
247.9965
  0
LINE
  5
105A
100
AcDbEntity
  8
10000_FRONT
370
    25
390
0
  6
CONTINUOUS
 62
     7
100
AcDbLine
 10
185.440409
 20
486.836684
 30
0.0
 11
185.823113
 21
486.663849
 31
0.0
  0
ARC
  5
105B
100
AcDbEntity
  8
10000_FRONT
370
    25
390
0
  6
CONTINUOUS
 62
     7
100
AcDbCircle
 10
185.473577
 20
485.836505
 30
0.0
 40
0.898151
100
AcDbArc
 50
32.199047
 51
67.096912
  0
ARC
  5
105C
100
AcDbEntity
  8
10000_FRONT
370
    25
390
0
  6
CONTINUOUS
 62
     7
100
AcDbCircle
 10
185.680733
 20
486.0327
 30
0.0
 40
0.620808
100
AcDbArc
 50
333.897359
 51
27.057549
  0
ARC
  5
105D
100
AcDbEntity
  8
10000_FRONT
370
    25
390
0
  6
CONTINUOUS
 62
     7
100
AcDbCircle
 10
185.575498
 20
486.137626
 30
0.0
 40
0.762982
100
AcDbArc
 50
283.385327
 51
330.29621
  0
ARC
  5
105E
100
AcDbEntity
  8
10000_FRONT
370
    25
390
0
  6
CONTINUOUS
 62
     7
100
AcDbCircle
 10
185.339305
 20
488.080452
 30
0.0
 40
2.716631
100
AcDbArc
 50
255.845786
 51
278.7406
  0
LINE
  5
105F
100
AcDbEntity
  8
10000_FRONT
370
    25
390
0
  6
CONTINUOUS
 62
     7
100
AcDbLine
 10
186.615
 20
485.4
 30
0.0
 11
186.615
 21
487.529564
 31
0.0
  0
LINE
  5
1060
100
AcDbEntity
  8
10000_FRONT
370
    25
390
0
  6
CONTINUOUS
 62
     7
100
AcDbLine
 10
186.615
 20
487.529564
 30
0.0
 11
187.236895
 21
487.529564
 31
0.0
  0
LINE
  5
1061
100
AcDbEntity
  8
10000_FRONT
370
    25
390
0
  6
CONTINUOUS
 62
     7
100
AcDbLine
 10
187.236895
 20
487.529564
 30
0.0
 11
187.236895
 21
485.4
 31
0.0
  0
LINE
  5
1062
100
AcDbEntity
  8
10000_FRONT
370
    25
390
0
  6
CONTINUOUS
 62
     7
100
AcDbLine
 10
187.236895
 20
485.4
 30
0.0
 11
186.615
 21
485.4
 31
0.0
  0
LINE
  5
1063
100
AcDbEntity
  8
10000_FRONT
370
    25
390
0
  6
CONTINUOUS
 62
     7
100
AcDbLine
 10
189.695
 20
485.4
 30
0.0
 11
189.695
 21
487.529564
 31
0.0
  0
LINE
  5
1064
100
AcDbEntity
  8
10000_FRONT
370
    25
390
0
  6
CONTINUOUS
 62
     7
100
AcDbLine
 10
189.695
 20
487.529564
 30
0.0
 11
190.465038
 21
487.529564
 31
0.0
  0
LINE
  5
1065
100
AcDbEntity
  8
10000_FRONT
370
    25
390
0
  6
CONTINUOUS
 62
     7
100
AcDbLine
 10
190.465038
 20
487.529564
 30
0.0
 11
191.011318
 21
486.231764
 31
0.0
  0
LINE
  5
1066
100
AcDbEntity
  8
10000_FRONT
370
    25
390
0
  6
CONTINUOUS
 62
     7
100
AcDbLine
 10
191.011318
 20
486.231764
 30
0.0
 11
191.562227
 21
487.529564
 31
0.0
  0
LINE
  5
1067
100
AcDbEntity
  8
10000_FRONT
370
    25
390
0
  6
CONTINUOUS
 62
     7
100
AcDbLine
 10
191.562227
 20
487.529564
 30
0.0
 11
192.326092
 21
487.529564
 31
0.0
  0
LINE
  5
1068
100
AcDbEntity
  8
10000_FRONT
370
    25
390
0
  6
CONTINUOUS
 62
     7
100
AcDbLine
 10
192.326092
 20
487.529564
 30
0.0
 11
192.326092
 21
485.4
 31
0.0
  0
LINE
  5
1069
100
AcDbEntity
  8
10000_FRONT
370
    25
390
0
  6
CONTINUOUS
 62
     7
100
AcDbLine
 10
192.326092
 20
485.4
 30
0.0
 11
191.707284
 21
485.4
 31
0.0
  0
LINE
  5
106A
100
AcDbEntity
  8
10000_FRONT
370
    25
390
0
  6
CONTINUOUS
 62
     7
100
AcDbLine
 10
191.707284
 20
485.4
 30
0.0
 11
191.707284
 21
486.807364
 31
0.0
  0
LINE
  5
106B
100
AcDbEntity
  8
10000_FRONT
370
    25
390
0
  6
CONTINUOUS
 62
     7
100
AcDbLine
 10
191.707284
 20
486.807364
 30
0.0
 11
191.108537
 21
485.4
 31
0.0
  0
LINE
  5
106C
100
AcDbEntity
  8
10000_FRONT
370
    25
390
0
  6
CONTINUOUS
 62
     7
100
AcDbLine
 10
191.108537
 20
485.4
 30
0.0
 11
190.704228
 21
485.4
 31
0.0
  0
LINE
  5
106D
100
AcDbEntity
  8
10000_FRONT
370
    25
390
0
  6
CONTINUOUS
 62
     7
100
AcDbLine
 10
190.704228
 20
485.4
 30
0.0
 11
190.110111
 21
486.802735
 31
0.0
  0
LINE
  5
106E
100
AcDbEntity
  8
10000_FRONT
370
    25
390
0
  6
CONTINUOUS
 62
     7
100
AcDbLine
 10
190.110111
 20
486.802735
 30
0.0
 11
190.110111
 21
485.4
 31
0.0
  0
LINE
  5
106F
100
AcDbEntity
  8
10000_FRONT
370
    25
390
0
  6
CONTINUOUS
 62
     7
100
AcDbLine
 10
190.110111
 20
485.4
 30
0.0
 11
189.695
 21
485.4
 31
0.0
  0
LINE
  5
1070
100
AcDbEntity
  8
10000_FRONT
370
    25
390
0
  6
CONTINUOUS
 62
     7
100
AcDbLine
 10
194.759
 20
485.4
 30
0.0
 11
194.759
 21
487.529564
 31
0.0
  0
LINE
  5
1071
100
AcDbEntity
  8
10000_FRONT
370
    25
390
0
  6
CONTINUOUS
 62
     7
100
AcDbLine
 10
194.759
 20
487.529564
 30
0.0
 11
195.450337
 21
487.529564
 31
0.0
  0
LINE
  5
1072
100
AcDbEntity
  8
10000_FRONT
370
    25
390
0
  6
CONTINUOUS
 62
     7
100
AcDbLine
 10
195.450337
 20
487.529564
 30
0.0
 11
196.215745
 21
486.196272
 31
0.0
  0
LINE
  5
1073
100
AcDbEntity
  8
10000_FRONT
370
    25
390
0
  6
CONTINUOUS
 62
     7
100
AcDbLine
 10
196.215745
 20
486.196272
 30
0.0
 11
196.215745
 21
487.529564
 31
0.0
  0
LINE
  5
1074
100
AcDbEntity
  8
10000_FRONT
370
    25
390
0
  6
CONTINUOUS
 62
     7
100
AcDbLine
 10
196.215745
 20
487.529564
 30
0.0
 11
196.626227
 21
487.529564
 31
0.0
  0
LINE
  5
1075
100
AcDbEntity
  8
10000_FRONT
370
    25
390
0
  6
CONTINUOUS
 62
     7
100
AcDbLine
 10
196.626227
 20
487.529564
 30
0.0
 11
196.626227
 21
485.4
 31
0.0
  0
LINE
  5
1076
100
AcDbEntity
  8
10000_FRONT
370
    25
390
0
  6
CONTINUOUS
 62
     7
100
AcDbLine
 10
196.626227
 20
485.4
 30
0.0
 11
195.956494
 21
485.4
 31
0.0
  0
LINE
  5
1077
100
AcDbEntity
  8
10000_FRONT
370
    25
390
0
  6
CONTINUOUS
 62
     7
100
AcDbLine
 10
195.956494
 20
485.4
 30
0.0
 11
195.192629
 21
486.750267
 31
0.0
  0
LINE
  5
1078
100
AcDbEntity
  8
10000_FRONT
370
    25
390
0
  6
CONTINUOUS
 62
     7
100
AcDbLine
 10
195.192629
 20
486.750267
 30
0.0
 11
195.192629
 21
485.4
 31
0.0
  0
LINE
  5
1079
100
AcDbEntity
  8
10000_FRONT
370
    25
390
0
  6
CONTINUOUS
 62
     7
100
AcDbLine
 10
195.192629
 20
485.4
 30
0.0
 11
194.759
 21
485.4
 31
0.0
  0
ARC
  5
107A
100
AcDbEntity
  8
10000_FRONT
370
    25
390
0
  6
CONTINUOUS
 62
     7
100
AcDbCircle
 10
199.075
 20
435.55
 30
0.0
 40
2.7
100
AcDbArc
 50
0.0
 51
180.0
  0
ARC
  5
107B
100
AcDbEntity
  8
10000_FRONT
370
    25
390
0
  6
CONTINUOUS
 62
     7
100
AcDbCircle
 10
134.919977
 20
421.595957
 30
0.0
 40
67.154863
100
AcDbArc
 50
350.643422
 51
12.251967
  0
LINE
  5
107C
100
AcDbEntity
  8
10000_FRONT
370
    25
390
0
  6
CONTINUOUS
 62
     7
100
AcDbLine
 10
197.609111
 20
435.868777
 30
0.0
 11
197.609264
 21
435.868777
 31
0.0
  0
ARC
  5
107D
100
AcDbEntity
  8
10000_FRONT
370
    25
390
0
  6
CONTINUOUS
 62
     7
100
AcDbCircle
 10
199.075
 20
435.55
 30
0.0
 40
1.5
100
AcDbArc
 50
11.418931
 51
167.73006
  0
ARC
  5
107E
100
AcDbEntity
  8
10000_FRONT
370
    25
390
0
  6
CONTINUOUS
 62
     7
100
AcDbCircle
 10
200.441367
 20
410.799971
 30
0.0
 40
0.75
100
AcDbArc
 50
269.999968
 51
350.643445
  0
ARC
  5
107F
100
AcDbEntity
  8
10000_FRONT
370
    25
390
0
  6
CONTINUOUS
 62
     7
100
AcDbCircle
 10
263.229703
 20
421.595952
 30
0.0
 40
67.154863
100
AcDbArc
 50
167.728991
 51
189.356574
  0
ARC
  5
1080
100
AcDbEntity
  8
10000_FRONT
370
    25
390
0
  6
CONTINUOUS
 62
     7
100
AcDbCircle
 10
197.708313
 20
410.799971
 30
0.0
 40
0.75
100
AcDbArc
 50
189.356548
 51
269.999992
  0
LINE
  5
1081
100
AcDbEntity
  8
10000_FRONT
370
    25
390
0
  6
CONTINUOUS
 62
     7
100
AcDbLine
 10
200.441366
 20
410.049971
 30
0.0
 11
197.708313
 21
410.049971
 31
0.0
  0
ARC
  5
1082
100
AcDbEntity
  8
10000_FRONT
370
    25
390
0
  6
CONTINUOUS
 62
     7
100
AcDbCircle
 10
199.075
 20
423.55
 30
0.0
 40
7.381703
100
AcDbArc
 50
180.0
 51
247.510428
  0
ARC
  5
1083
100
AcDbEntity
  8
10000_FRONT
370
    25
390
0
  6
CONTINUOUS
 62
     7
100
AcDbCircle
 10
199.075
 20
423.55
 30
0.0
 40
7.381703
100
AcDbArc
 50
0.0
 51
71.002375
  0
LINE
  5
1084
100
AcDbEntity
  8
10000_FRONT
370
    25
390
0
  6
CONTINUOUS
 62
     7
100
AcDbLine
 10
169.375
 20
360.499998
 30
0.0
 11
169.375
 21
376.100005
 31
0.0
  0
LINE
  5
1085
100
AcDbEntity
  8
10000_FRONT
370
    25
390
0
  6
CONTINUOUS
 62
     7
100
AcDbLine
 10
169.375
 20
376.100005
 30
0.0
 11
169.375
 21
377.100005
 31
0.0
  0
LINE
  5
1086
100
AcDbEntity
  8
10000_FRONT
370
    25
390
0
  6
CONTINUOUS
 62
     7
100
AcDbLine
 10
169.375
 20
377.100005
 30
0.0
 11
169.375
 21
397.999998
 31
0.0
  0
LINE
  5
1087
100
AcDbEntity
  8
10000_FRONT
370
    25
390
0
  6
CONTINUOUS
 62
     7
100
AcDbLine
 10
169.375
 20
397.999998
 30
0.0
 11
169.375
 21
426.48812
 31
0.0
  0
LINE
  5
1088
100
AcDbEntity
  8
10000_FRONT
370
    25
390
0
  6
CONTINUOUS
 62
     7
100
AcDbLine
 10
169.375
 20
426.48812
 30
0.0
 11
169.375
 21
426.949999
 31
0.0
  0
LINE
  5
1089
100
AcDbEntity
  8
10000_FRONT
370
    25
390
0
  6
CONTINUOUS
 62
     7
100
AcDbLine
 10
169.375
 20
426.949999
 30
0.0
 11
169.375
 21
436.950001
 31
0.0
  0
LINE
  5
108A
100
AcDbEntity
  8
10000_FRONT
370
    25
390
0
  6
CONTINUOUS
 62
     7
100
AcDbLine
 10
169.375
 20
436.950001
 30
0.0
 11
169.375
 21
437.411881
 31
0.0
  0
LINE
  5
108B
100
AcDbEntity
  8
10000_FRONT
370
    25
390
0
  6
CONTINUOUS
 62
     7
100
AcDbLine
 10
169.375
 20
437.411881
 30
0.0
 11
169.375
 21
497.65
 31
0.0
  0
LINE
  5
108C
100
AcDbEntity
  8
10000_FRONT
370
    25
390
0
  6
CONTINUOUS
 62
     7
100
AcDbLine
 10
169.375
 20
426.48812
 30
0.0
 11
169.375027
 21
426.48812
 31
0.0
  0
LINE
  5
108D
100
AcDbEntity
  8
10000_FRONT
370
    25
390
0
  6
CONTINUOUS
 62
     7
100
AcDbLine
 10
169.375
 20
426.949999
 30
0.0
 11
169.375027
 21
426.949999
 31
0.0
  0
LINE
  5
108E
100
AcDbEntity
  8
10000_FRONT
370
    25
390
0
  6
CONTINUOUS
 62
     7
100
AcDbLine
 10
169.375
 20
436.950001
 30
0.0
 11
169.375027
 21
436.950001
 31
0.0
  0
LINE
  5
108F
100
AcDbEntity
  8
10000_FRONT
370
    25
390
0
  6
CONTINUOUS
 62
     7
100
AcDbLine
 10
169.375
 20
437.411881
 30
0.0
 11
169.375027
 21
437.411881
 31
0.0
  0
LINE
  5
1090
100
AcDbEntity
  8
10000_FRONT
370
    25
390
0
  6
CONTINUOUS
 62
     7
100
AcDbLine
 10
169.375
 20
360.499998
 30
0.0
 11
214.375
 21
360.499998
 31
0.0
  0
LINE
  5
1091
100
AcDbEntity
  8
10000_FRONT
370
    25
390
0
  6
CONTINUOUS
 62
     7
100
AcDbLine
 10
214.375
 20
360.499998
 30
0.0
 11
214.375
 21
372.000021
 31
0.0
  0
LINE
  5
1092
100
AcDbEntity
  8
10000_FRONT
370
    25
390
0
  6
CONTINUOUS
 62
     7
100
AcDbLine
 10
169.375
 20
360.349997
 30
0.0
 11
169.375
 21
372.000021
 31
0.0
  0
LINE
  5
1093
100
AcDbEntity
  8
10000_FRONT
370
    25
390
0
  6
CONTINUOUS
 62
     7
100
AcDbLine
 10
169.375
 20
448.15
 30
0.0
 11
169.375034
 21
448.15
 31
0.0
  0
LINE
  5
1094
100
AcDbEntity
  8
10000_FRONT
370
    25
390
0
  6
CONTINUOUS
 62
     7
100
AcDbLine
 10
169.375
 20
376.930388
 30
0.0
 11
169.375034
 21
376.930388
 31
0.0
  0
LINE
  5
1095
100
AcDbEntity
  8
10000_FRONT
370
    25
390
0
  6
CONTINUOUS
 62
     7
100
AcDbLine
 10
169.375
 20
377.450003
 30
0.0
 11
169.375034
 21
377.450003
 31
0.0
  0
LINE
  5
1096
100
AcDbEntity
  8
10000_FRONT
370
    25
390
0
  6
CONTINUOUS
 62
     7
100
AcDbLine
 10
169.375
 20
360.349997
 30
0.0
 11
214.375
 21
360.349997
 31
0.0
  0
LINE
  5
1097
100
AcDbEntity
  8
10000_FRONT
370
    25
390
0
  6
CONTINUOUS
 62
     7
100
AcDbLine
 10
214.375
 20
360.349997
 30
0.0
 11
214.375
 21
360.500006
 31
0.0
  0
LINE
  5
1098
100
AcDbEntity
  8
10000_FRONT
370
    25
390
0
  6
CONTINUOUS
 62
     7
100
AcDbLine
 10
169.375
 20
495.949974
 30
0.0
 11
169.375046
 21
495.949974
 31
0.0
  0
LINE
  5
1099
100
AcDbEntity
  8
10100_FRONT_DIM
370
    13
390
0
  6
CONTINUOUS
 62
     7
100
AcDbLine
 10
169.375
 20
497.650011
 30
0.0
 11
169.375
 21
519.650011
 31
0.0
  0
TEXT
  5
109A
100
AcDbEntity
  8
10100_FRONT_DIM
370
    13
390
0
  6
CONTINUOUS
 62
     7
100
AcDbText
 10
188.541667
 20
517.650011
 30
0.0
 40
4.0
  1
45
 72
     1
 11
191.875
 21
517.650011
 31
0.0
100
AcDbText
  0
LINE
  5
109B
100
AcDbEntity
  8
10100_FRONT_DIM
370
    13
390
0
  6
CONTINUOUS
 62
     7
100
AcDbLine
 10
169.375
 20
515.650011
 30
0.0
 11
214.375
 21
515.650011
 31
0.0
  0
LINE
  5
109C
100
AcDbEntity
  8
10100_FRONT_DIM
370
    13
390
0
  6
CONTINUOUS
 62
     7
100
AcDbLine
 10
214.375
 20
519.650011
 30
0.0
 11
214.375
 21
497.650011
 31
0.0
  0
LINE
  5
109D
100
AcDbEntity
  8
10100_FRONT_DIM
370
    13
390
0
  6
CONTINUOUS
 62
     7
100
AcDbLine
 10
169.37499
 20
360.35
 30
0.0
 11
147.37499
 21
360.35
 31
0.0
  0
TEXT
  5
109E
100
AcDbEntity
  8
10100_FRONT_DIM
370
    13
390
0
  6
CONTINUOUS
 62
     7
100
AcDbText
 10
149.37499
 20
421.666667
 30
0.0
 40
4.0
  1
137.5
 50
90.0
 51
360.0
 72
     1
 11
149.37499
 21
429.0
 31
0.0
100
AcDbText
  0
LINE
  5
109F
100
AcDbEntity
  8
10100_FRONT_DIM
370
    13
390
0
  6
CONTINUOUS
 62
     7
100
AcDbLine
 10
151.37499
 20
360.35
 30
0.0
 11
151.37499
 21
497.65
 31
0.0
  0
LINE
  5
10A0
100
AcDbEntity
  8
10100_FRONT_DIM
370
    13
390
0
  6
CONTINUOUS
 62
     7
100
AcDbLine
 10
147.37499
 20
497.65
 30
0.0
 11
169.37499
 21
497.65
 31
0.0
  0
SOLID
  5
10A1
100
AcDbEntity
  8
10100_FRONT_DIM
370
    13
390
0
  6
CONTINUOUS
 62
     7
100
AcDbTrace
 10
177.375
 20
517.650011
 30
0.0
 11
169.375
 21
515.650011
 31
0.0
 12
177.375
 22
513.650011
 32
0.0
 13
169.375
 23
515.650011
 33
0.0
  0
SOLID
  5
10A2
100
AcDbEntity
  8
10100_FRONT_DIM
370
    13
390
0
  6
CONTINUOUS
 62
     7
100
AcDbTrace
 10
206.375
 20
513.650011
 30
0.0
 11
214.375
 21
515.650011
 31
0.0
 12
206.375
 22
517.650011
 32
0.0
 13
214.375
 23
515.650011
 33
0.0
  0
SOLID
  5
10A3
100
AcDbEntity
  8
10100_FRONT_DIM
370
    13
390
0
  6
CONTINUOUS
 62
     7
100
AcDbTrace
 10
149.37499
 20
368.35
 30
0.0
 11
151.37499
 21
360.35
 31
0.0
 12
153.37499
 22
368.35
 32
0.0
 13
151.37499
 23
360.35
 33
0.0
  0
SOLID
  5
10A4
100
AcDbEntity
  8
10100_FRONT_DIM
370
    13
390
0
  6
CONTINUOUS
 62
     7
100
AcDbTrace
 10
153.37499
 20
489.65
 30
0.0
 11
151.37499
 21
497.65
 31
0.0
 12
149.37499
 22
489.65
 32
0.0
 13
151.37499
 23
497.65
 33
0.0
  0
LINE
  5
10A5
100
AcDbEntity
  8
11000_LEFT
370
    25
390
0
  6
CONTINUOUS
 62
     7
100
AcDbLine
 10
425.125
 20
416.044989
 30
0.0
 11
425.496506
 21
416.044989
 31
0.0
  0
LINE
  5
10A6
100
AcDbEntity
  8
11000_LEFT
370
    25
390
0
  6
CONTINUOUS
 62
     7
100
AcDbLine
 10
425.496506
 20
416.044989
 30
0.0
 11
425.496506
 21
423.550002
 31
0.0
  0
LINE
  5
10A7
100
AcDbEntity
  8
11000_LEFT
370
    25
390
0
  6
CONTINUOUS
 62
     7
100
AcDbLine
 10
425.496506
 20
423.550002
 30
0.0
 11
425.496506
 21
431.209704
 31
0.0
  0
LINE
  5
10A8
100
AcDbEntity
  8
11000_LEFT
370
    25
390
0
  6
CONTINUOUS
 62
     7
100
AcDbLine
 10
425.496506
 20
431.209704
 30
0.0
 11
425.125
 21
431.209704
 31
0.0
  0
LINE
  5
10A9
100
AcDbEntity
  8
11000_LEFT
370
    25
390
0
  6
CONTINUOUS
 62
     7
100
AcDbLine
 10
426.275604
 20
423.550002
 30
0.0
 11
426.275604
 21
430.52952
 31
0.0
  0
LINE
  5
10AA
100
AcDbEntity
  8
11000_LEFT
370
    25
390
0
  6
CONTINUOUS
 62
     7
100
AcDbLine
 10
426.988846
 20
423.550002
 30
0.0
 11
426.98494
 21
424.159762
 31
0.0
  0
LINE
  5
10AB
100
AcDbEntity
  8
11000_LEFT
370
    25
390
0
  6
CONTINUOUS
 62
     7
100
AcDbLine
 10
426.98494
 20
424.159762
 30
0.0
 11
426.969696
 21
424.778002
 31
0.0
  0
LINE
  5
10AC
100
AcDbEntity
  8
11000_LEFT
370
    25
390
0
  6
CONTINUOUS
 62
     7
100
AcDbLine
 10
426.969696
 20
424.778002
 30
0.0
 11
426.94278
 21
425.403693
 31
0.0
  0
LINE
  5
10AD
100
AcDbEntity
  8
11000_LEFT
370
    25
390
0
  6
CONTINUOUS
 62
     7
100
AcDbLine
 10
426.94278
 20
425.403693
 30
0.0
 11
426.903839
 21
426.035586
 31
0.0
  0
LINE
  5
10AE
100
AcDbEntity
  8
11000_LEFT
370
    25
390
0
  6
CONTINUOUS
 62
     7
100
AcDbLine
 10
426.903839
 20
426.035586
 30
0.0
 11
426.852524
 21
426.672442
 31
0.0
  0
LINE
  5
10AF
100
AcDbEntity
  8
11000_LEFT
370
    25
390
0
  6
CONTINUOUS
 62
     7
100
AcDbLine
 10
426.852524
 20
426.672442
 30
0.0
 11
426.788513
 21
427.313013
 31
0.0
  0
LINE
  5
10B0
100
AcDbEntity
  8
11000_LEFT
370
    25
390
0
  6
CONTINUOUS
 62
     7
100
AcDbLine
 10
426.788513
 20
427.313013
 30
0.0
 11
426.711594
 21
427.956076
 31
0.0
  0
LINE
  5
10B1
100
AcDbEntity
  8
11000_LEFT
370
    25
390
0
  6
CONTINUOUS
 62
     7
100
AcDbLine
 10
426.711594
 20
427.956076
 30
0.0
 11
426.621796
 21
428.600443
 31
0.0
  0
LINE
  5
10B2
100
AcDbEntity
  8
11000_LEFT
370
    25
390
0
  6
CONTINUOUS
 62
     7
100
AcDbLine
 10
426.621796
 20
428.600443
 30
0.0
 11
426.51918
 21
429.244933
 31
0.0
  0
LINE
  5
10B3
100
AcDbEntity
  8
11000_LEFT
370
    25
390
0
  6
CONTINUOUS
 62
     7
100
AcDbLine
 10
426.51918
 20
429.244933
 30
0.0
 11
426.403763
 21
429.888354
 31
0.0
  0
LINE
  5
10B4
100
AcDbEntity
  8
11000_LEFT
370
    25
390
0
  6
CONTINUOUS
 62
     7
100
AcDbLine
 10
426.403763
 20
429.888354
 30
0.0
 11
426.275604
 21
430.52952
 31
0.0
  0
LINE
  5
10B5
100
AcDbEntity
  8
11000_LEFT
370
    25
390
0
  6
CONTINUOUS
 62
     7
100
AcDbLine
 10
434.225006
 20
433.642472
 30
0.0
 11
434.225006
 21
435.55
 31
0.0
  0
LINE
  5
10B6
100
AcDbEntity
  8
11000_LEFT
370
    25
390
0
  6
CONTINUOUS
 62
     7
100
AcDbLine
 10
426.824997
 20
433.642472
 30
0.0
 11
426.824997
 21
435.55
 31
0.0
  0
LINE
  5
10B7
100
AcDbEntity
  8
11000_LEFT
370
    25
390
0
  6
CONTINUOUS
 62
     7
100
AcDbLine
 10
434.225006
 20
433.642472
 30
0.0
 11
426.824997
 21
433.642472
 31
0.0
  0
LINE
  5
10B8
100
AcDbEntity
  8
11000_LEFT
370
    25
390
0
  6
CONTINUOUS
 62
     7
100
AcDbLine
 10
423.294998
 20
423.550002
 30
0.0
 11
423.294998
 21
432.050002
 31
0.0
  0
LINE
  5
10B9
100
AcDbEntity
  8
11000_LEFT
370
    25
390
0
  6
CONTINUOUS
 62
     7
100
AcDbLine
 10
423.294998
 20
415.050002
 30
0.0
 11
423.294998
 21
423.550002
 31
0.0
  0
ARC
  5
10BA
100
AcDbEntity
  8
11000_LEFT
370
    25
390
0
  6
CONTINUOUS
 62
     7
100
AcDbCircle
 10
419.525
 20
488.050001
 30
0.0
 40
0.6
100
AcDbArc
 50
0.0
 51
90.000583
  0
LINE
  5
10BB
100
AcDbEntity
  8
11000_LEFT
370
    25
390
0
  6
CONTINUOUS
 62
     7
100
AcDbLine
 10
420.125
 20
488.050002
 30
0.0
 11
420.125
 21
461.950001
 31
0.0
  0
LINE
  5
10BC
100
AcDbEntity
  8
11000_LEFT
370
    25
390
0
  6
CONTINUOUS
 62
     7
100
AcDbLine
 10
352.324997
 20
377.600005
 30
0.0
 11
352.324997
 21
397.450003
 31
0.0
  0
LINE
  5
10BD
100
AcDbEntity
  8
11000_LEFT
370
    25
390
0
  6
CONTINUOUS
 62
     7
100
AcDbLine
 10
385.525002
 20
437.25
 30
0.0
 11
385.525002
 21
497.65
 31
0.0
  0
LINE
  5
10BE
100
AcDbEntity
  8
11000_LEFT
370
    25
390
0
  6
CONTINUOUS
 62
     7
100
AcDbLine
 10
384.832176
 20
436.850001
 30
0.0
 11
385.525002
 21
437.25
 31
0.0
  0
LINE
  5
10BF
100
AcDbEntity
  8
11000_LEFT
370
    25
390
0
  6
CONTINUOUS
 62
     7
100
AcDbLine
 10
376.217819
 20
436.850001
 30
0.0
 11
384.832176
 21
436.850001
 31
0.0
  0
LINE
  5
10C0
100
AcDbEntity
  8
11000_LEFT
370
    25
390
0
  6
CONTINUOUS
 62
     7
100
AcDbLine
 10
375.525002
 20
436.450001
 30
0.0
 11
376.217819
 21
436.850001
 31
0.0
  0
LINE
  5
10C1
100
AcDbEntity
  8
11000_LEFT
370
    25
390
0
  6
CONTINUOUS
 62
     7
100
AcDbLine
 10
375.525002
 20
427.449999
 30
0.0
 11
375.525002
 21
436.450001
 31
0.0
  0
LINE
  5
10C2
100
AcDbEntity
  8
11000_LEFT
370
    25
390
0
  6
CONTINUOUS
 62
     7
100
AcDbLine
 10
376.217819
 20
427.050002
 30
0.0
 11
375.525002
 21
427.449999
 31
0.0
  0
LINE
  5
10C3
100
AcDbEntity
  8
11000_LEFT
370
    25
390
0
  6
CONTINUOUS
 62
     7
100
AcDbLine
 10
384.832176
 20
427.050002
 30
0.0
 11
376.217819
 21
427.050002
 31
0.0
  0
LINE
  5
10C4
100
AcDbEntity
  8
11000_LEFT
370
    25
390
0
  6
CONTINUOUS
 62
     7
100
AcDbLine
 10
385.525002
 20
426.65
 30
0.0
 11
384.832176
 21
427.050002
 31
0.0
  0
LINE
  5
10C5
100
AcDbEntity
  8
11000_LEFT
370
    25
390
0
  6
CONTINUOUS
 62
     7
100
AcDbLine
 10
385.525002
 20
397.850005
 30
0.0
 11
385.525002
 21
426.65
 31
0.0
  0
LINE
  5
10C6
100
AcDbEntity
  8
11000_LEFT
370
    25
390
0
  6
CONTINUOUS
 62
     7
100
AcDbLine
 10
353.017822
 20
397.850005
 30
0.0
 11
385.525002
 21
397.850005
 31
0.0
  0
LINE
  5
10C7
100
AcDbEntity
  8
11000_LEFT
370
    25
390
0
  6
CONTINUOUS
 62
     7
100
AcDbLine
 10
352.324997
 20
397.450003
 30
0.0
 11
353.017822
 21
397.850005
 31
0.0
  0
LINE
  5
10C8
100
AcDbEntity
  8
11000_LEFT
370
    25
390
0
  6
CONTINUOUS
 62
     7
100
AcDbLine
 10
353.017822
 20
377.200003
 30
0.0
 11
352.324997
 21
377.600005
 31
0.0
  0
LINE
  5
10C9
100
AcDbEntity
  8
11000_LEFT
370
    25
390
0
  6
CONTINUOUS
 62
     7
100
AcDbLine
 10
356.025002
 20
377.200003
 30
0.0
 11
353.017822
 21
377.200003
 31
0.0
  0
LINE
  5
10CA
100
AcDbEntity
  8
11000_LEFT
370
    25
390
0
  6
CONTINUOUS
 62
     7
100
AcDbLine
 10
356.025002
 20
371.999998
 30
0.0
 11
356.025002
 21
377.200003
 31
0.0
  0
LINE
  5
10CB
100
AcDbEntity
  8
11000_LEFT
370
    25
390
0
  6
CONTINUOUS
 62
     7
100
AcDbLine
 10
358.525002
 20
371.999998
 30
0.0
 11
356.025002
 21
371.999998
 31
0.0
  0
LINE
  5
10CC
100
AcDbEntity
  8
11000_LEFT
370
    25
390
0
  6
CONTINUOUS
 62
     7
100
AcDbLine
 10
358.525002
 20
388.350005
 30
0.0
 11
358.525002
 21
371.999998
 31
0.0
  0
LINE
  5
10CD
100
AcDbEntity
  8
11000_LEFT
370
    25
390
0
  6
CONTINUOUS
 62
     7
100
AcDbLine
 10
384.925003
 20
388.350005
 30
0.0
 11
358.525002
 21
388.350005
 31
0.0
  0
LINE
  5
10CE
100
AcDbEntity
  8
11000_LEFT
370
    25
390
0
  6
CONTINUOUS
 62
     7
100
AcDbLine
 10
384.925003
 20
384.249998
 30
0.0
 11
384.925003
 21
388.350005
 31
0.0
  0
LINE
  5
10CF
100
AcDbEntity
  8
11000_LEFT
370
    25
390
0
  6
CONTINUOUS
 62
     7
100
AcDbLine
 10
400.125
 20
384.249998
 30
0.0
 11
384.925003
 21
384.249998
 31
0.0
  0
LINE
  5
10D0
100
AcDbEntity
  8
11000_LEFT
370
    25
390
0
  6
CONTINUOUS
 62
     7
100
AcDbLine
 10
400.125
 20
408.15
 30
0.0
 11
400.125
 21
384.249998
 31
0.0
  0
LINE
  5
10D1
100
AcDbEntity
  8
11000_LEFT
370
    25
390
0
  6
CONTINUOUS
 62
     7
100
AcDbLine
 10
420.125
 20
408.15
 30
0.0
 11
400.125
 21
408.15
 31
0.0
  0
ARC
  5
10D2
100
AcDbEntity
  8
11000_LEFT
370
    25
390
0
  6
CONTINUOUS
 62
     7
100
AcDbCircle
 10
303.178901
 20
435.050001
 30
0.0
 40
120.0
100
AcDbArc
 50
347.04612
 51
12.95388
  0
LINE
  5
10D3
100
AcDbEntity
  8
11000_LEFT
370
    25
390
0
  6
CONTINUOUS
 62
     7
100
AcDbLine
 10
400.125
 20
488.650002
 30
0.0
 11
419.524994
 21
488.650002
 31
0.0
  0
LINE
  5
10D4
100
AcDbEntity
  8
11000_LEFT
370
    25
390
0
  6
CONTINUOUS
 62
     7
100
AcDbLine
 10
400.125
 20
497.050002
 30
0.0
 11
400.125
 21
488.650002
 31
0.0
  0
ARC
  5
10D5
100
AcDbEntity
  8
11000_LEFT
370
    25
390
0
  6
CONTINUOUS
 62
     7
100
AcDbCircle
 10
399.525
 20
497.050001
 30
0.0
 40
0.6
100
AcDbArc
 50
0.0
 51
89.999854
  0
LINE
  5
10D6
100
AcDbEntity
  8
11000_LEFT
370
    25
390
0
  6
CONTINUOUS
 62
     7
100
AcDbLine
 10
385.525002
 20
497.65
 30
0.0
 11
399.525002
 21
497.65
 31
0.0
  0
LINE
  5
10D7
100
AcDbEntity
  8
11000_LEFT
370
    25
390
0
  6
CONTINUOUS
 62
     7
100
AcDbLine
 10
420.175003
 20
488.4
 30
0.0
 11
420.012344
 21
488.4
 31
0.0
  0
LINE
  5
10D8
100
AcDbEntity
  8
11000_LEFT
370
    25
390
0
  6
CONTINUOUS
 62
     7
100
AcDbLine
 10
420.175003
 20
484.600001
 30
0.0
 11
420.125
 21
484.600001
 31
0.0
  0
LINE
  5
10D9
100
AcDbEntity
  8
11000_LEFT
370
    25
390
0
  6
CONTINUOUS
 62
     7
100
AcDbLine
 10
420.175003
 20
488.4
 30
0.0
 11
420.175003
 21
484.600001
 31
0.0
  0
LINE
  5
10DA
100
AcDbEntity
  8
11000_LEFT
370
    25
390
0
  6
CONTINUOUS
 62
     7
100
AcDbLine
 10
420.175003
 20
484.4
 30
0.0
 11
420.125
 21
484.4
 31
0.0
  0
LINE
  5
10DB
100
AcDbEntity
  8
11000_LEFT
370
    25
390
0
  6
CONTINUOUS
 62
     7
100
AcDbLine
 10
420.175003
 20
484.4
 30
0.0
 11
420.175003
 21
484.600001
 31
0.0
  0
LINE
  5
10DC
100
AcDbEntity
  8
11000_LEFT
370
    25
390
0
  6
CONTINUOUS
 62
     7
100
AcDbLine
 10
420.175003
 20
488.4
 30
0.0
 11
420.175003
 21
488.600001
 31
0.0
  0
LINE
  5
10DD
100
AcDbEntity
  8
11000_LEFT
370
    25
390
0
  6
CONTINUOUS
 62
     7
100
AcDbLine
 10
420.175003
 20
488.600001
 30
0.0
 11
419.764801
 21
488.600001
 31
0.0
  0
LINE
  5
10DE
100
AcDbEntity
  8
11000_LEFT
370
    25
390
0
  6
CONTINUOUS
 62
     7
100
AcDbLine
 10
420.175003
 20
485.446295
 30
0.0
 11
420.574997
 21
485.446295
 31
0.0
  0
LINE
  5
10DF
100
AcDbEntity
  8
11000_LEFT
370
    25
390
0
  6
CONTINUOUS
 62
     7
100
AcDbLine
 10
420.574997
 20
485.446295
 30
0.0
 11
420.574997
 21
485.884552
 31
0.0
  0
LINE
  5
10E0
100
AcDbEntity
  8
11000_LEFT
370
    25
390
0
  6
CONTINUOUS
 62
     7
100
AcDbLine
 10
420.175003
 20
485.884552
 30
0.0
 11
420.574997
 21
485.884552
 31
0.0
  0
LINE
  5
10E1
100
AcDbEntity
  8
11000_LEFT
370
    25
390
0
  6
CONTINUOUS
 62
     7
100
AcDbLine
 10
420.574997
 20
485.884554
 30
0.0
 11
420.574997
 21
485.940108
 31
0.0
  0
LINE
  5
10E2
100
AcDbEntity
  8
11000_LEFT
370
    25
390
0
  6
CONTINUOUS
 62
     7
100
AcDbLine
 10
420.175003
 20
485.940108
 30
0.0
 11
420.574997
 21
485.940108
 31
0.0
  0
LINE
  5
10E3
100
AcDbEntity
  8
11000_LEFT
370
    25
390
0
  6
CONTINUOUS
 62
     7
100
AcDbLine
 10
420.574997
 20
485.940108
 30
0.0
 11
420.574997
 21
486.09751
 31
0.0
  0
LINE
  5
10E4
100
AcDbEntity
  8
11000_LEFT
370
    25
390
0
  6
CONTINUOUS
 62
     7
100
AcDbLine
 10
420.175003
 20
486.09751
 30
0.0
 11
420.574997
 21
486.09751
 31
0.0
  0
LINE
  5
10E5
100
AcDbEntity
  8
11000_LEFT
370
    25
390
0
  6
CONTINUOUS
 62
     7
100
AcDbLine
 10
420.574997
 20
486.09751
 30
0.0
 11
420.574997
 21
486.325898
 31
0.0
  0
LINE
  5
10E6
100
AcDbEntity
  8
11000_LEFT
370
    25
390
0
  6
CONTINUOUS
 62
     7
100
AcDbLine
 10
420.175003
 20
486.325898
 30
0.0
 11
420.574997
 21
486.325898
 31
0.0
  0
LINE
  5
10E7
100
AcDbEntity
  8
11000_LEFT
370
    25
390
0
  6
CONTINUOUS
 62
     7
100
AcDbLine
 10
420.574997
 20
486.325898
 30
0.0
 11
420.574997
 21
486.666937
 31
0.0
  0
LINE
  5
10E8
100
AcDbEntity
  8
11000_LEFT
370
    25
390
0
  6
CONTINUOUS
 62
     7
100
AcDbLine
 10
420.175003
 20
486.666937
 30
0.0
 11
420.574997
 21
486.666937
 31
0.0
  0
LINE
  5
10E9
100
AcDbEntity
  8
11000_LEFT
370
    25
390
0
  6
CONTINUOUS
 62
     7
100
AcDbLine
 10
420.574997
 20
486.666937
 30
0.0
 11
420.574997
 21
487.200871
 31
0.0
  0
LINE
  5
10EA
100
AcDbEntity
  8
11000_LEFT
370
    25
390
0
  6
CONTINUOUS
 62
     7
100
AcDbLine
 10
420.175003
 20
487.200871
 30
0.0
 11
420.574997
 21
487.200871
 31
0.0
  0
LINE
  5
10EB
100
AcDbEntity
  8
11000_LEFT
370
    25
390
0
  6
CONTINUOUS
 62
     7
100
AcDbLine
 10
420.574997
 20
487.200871
 30
0.0
 11
420.574997
 21
487.53728
 31
0.0
  0
LINE
  5
10EC
100
AcDbEntity
  8
11000_LEFT
370
    25
390
0
  6
CONTINUOUS
 62
     7
100
AcDbLine
 10
420.175003
 20
487.53728
 30
0.0
 11
420.574997
 21
487.53728
 31
0.0
  0
LINE
  5
10ED
100
AcDbEntity
  8
11000_LEFT
370
    25
390
0
  6
CONTINUOUS
 62
     7
100
AcDbLine
 10
420.574997
 20
487.53728
 30
0.0
 11
420.574997
 21
487.585804
 31
0.0
  0
LINE
  5
10EE
100
AcDbEntity
  8
11000_LEFT
370
    25
390
0
  6
CONTINUOUS
 62
     7
100
AcDbLine
 10
420.574997
 20
485.363821
 30
0.0
 11
420.574997
 21
485.446295
 31
0.0
  0
LINE
  5
10EF
100
AcDbEntity
  8
11000_LEFT
370
    25
390
0
  6
CONTINUOUS
 62
     7
100
AcDbLine
 10
425.125
 20
410.678038
 30
0.0
 11
425.125
 21
416.044989
 31
0.0
  0
LINE
  5
10F0
100
AcDbEntity
  8
11000_LEFT
370
    25
390
0
  6
CONTINUOUS
 62
     7
100
AcDbLine
 10
425.125
 20
410.049971
 30
0.0
 11
425.125
 21
410.678038
 31
0.0
  0
LINE
  5
10F1
100
AcDbEntity
  8
11000_LEFT
370
    25
390
0
  6
CONTINUOUS
 62
     7
100
AcDbLine
 10
425.125
 20
431.209704
 30
0.0
 11
425.125
 21
435.868777
 31
0.0
  0
LINE
  5
10F2
100
AcDbEntity
  8
11000_LEFT
370
    25
390
0
  6
CONTINUOUS
 62
     7
100
AcDbLine
 10
425.125
 20
435.868777
 30
0.0
 11
425.125
 21
437.05
 31
0.0
  0
LINE
  5
10F3
100
AcDbEntity
  8
11000_LEFT
370
    25
390
0
  6
CONTINUOUS
 62
     7
100
AcDbLine
 10
434.225006
 20
435.55
 30
0.0
 11
434.225006
 21
438.25
 31
0.0
  0
LINE
  5
10F4
100
AcDbEntity
  8
11000_LEFT
370
    25
390
0
  6
CONTINUOUS
 62
     7
100
AcDbLine
 10
426.824997
 20
435.55
 30
0.0
 11
426.824997
 21
438.25
 31
0.0
  0
LINE
  5
10F5
100
AcDbEntity
  8
11000_LEFT
370
    25
390
0
  6
CONTINUOUS
 62
     7
100
AcDbLine
 10
434.225006
 20
435.868777
 30
0.0
 11
436.625
 21
435.868777
 31
0.0
  0
LINE
  5
10F6
100
AcDbEntity
  8
11000_LEFT
370
    25
390
0
  6
CONTINUOUS
 62
     7
100
AcDbLine
 10
425.125
 20
435.868777
 30
0.0
 11
426.824997
 21
435.868777
 31
0.0
  0
LINE
  5
10F7
100
AcDbEntity
  8
11000_LEFT
370
    25
390
0
  6
CONTINUOUS
 62
     7
100
AcDbLine
 10
436.625
 20
435.868777
 30
0.0
 11
436.625
 21
437.05
 31
0.0
  0
LINE
  5
10F8
100
AcDbEntity
  8
11000_LEFT
370
    25
390
0
  6
CONTINUOUS
 62
     7
100
AcDbLine
 10
436.625
 20
410.678038
 30
0.0
 11
436.625
 21
435.868777
 31
0.0
  0
LINE
  5
10F9
100
AcDbEntity
  8
11000_LEFT
370
    25
390
0
  6
CONTINUOUS
 62
     7
100
AcDbLine
 10
436.625
 20
410.049971
 30
0.0
 11
436.625
 21
410.678038
 31
0.0
  0
LINE
  5
10FA
100
AcDbEntity
  8
11000_LEFT
370
    25
390
0
  6
CONTINUOUS
 62
     7
100
AcDbLine
 10
426.275604
 20
430.52952
 30
0.0
 11
426.264374
 21
430.576876
 31
0.0
  0
LINE
  5
10FB
100
AcDbEntity
  8
11000_LEFT
370
    25
390
0
  6
CONTINUOUS
 62
     7
100
AcDbLine
 10
426.264374
 20
430.576876
 30
0.0
 11
426.250778
 21
430.623568
 31
0.0
  0
LINE
  5
10FC
100
AcDbEntity
  8
11000_LEFT
370
    25
390
0
  6
CONTINUOUS
 62
     7
100
AcDbLine
 10
426.250778
 20
430.623568
 30
0.0
 11
426.234787
 21
430.669482
 31
0.0
  0
LINE
  5
10FD
100
AcDbEntity
  8
11000_LEFT
370
    25
390
0
  6
CONTINUOUS
 62
     7
100
AcDbLine
 10
426.234787
 20
430.669482
 30
0.0
 11
426.216415
 21
430.714499
 31
0.0
  0
LINE
  5
10FE
100
AcDbEntity
  8
11000_LEFT
370
    25
390
0
  6
CONTINUOUS
 62
     7
100
AcDbLine
 10
426.216415
 20
430.714499
 30
0.0
 11
426.195679
 21
430.758505
 31
0.0
  0
LINE
  5
10FF
100
AcDbEntity
  8
11000_LEFT
370
    25
390
0
  6
CONTINUOUS
 62
     7
100
AcDbLine
 10
426.195679
 20
430.758505
 30
0.0
 11
426.172592
 21
430.801379
 31
0.0
  0
LINE
  5
1100
100
AcDbEntity
  8
11000_LEFT
370
    25
390
0
  6
CONTINUOUS
 62
     7
100
AcDbLine
 10
426.172592
 20
430.801379
 30
0.0
 11
426.147202
 21
430.842898
 31
0.0
  0
LINE
  5
1101
100
AcDbEntity
  8
11000_LEFT
370
    25
390
0
  6
CONTINUOUS
 62
     7
100
AcDbLine
 10
426.147202
 20
430.842898
 30
0.0
 11
426.119583
 21
430.882918
 31
0.0
  0
LINE
  5
1102
100
AcDbEntity
  8
11000_LEFT
370
    25
390
0
  6
CONTINUOUS
 62
     7
100
AcDbLine
 10
426.119583
 20
430.882918
 30
0.0
 11
426.089767
 21
430.921317
 31
0.0
  0
LINE
  5
1103
100
AcDbEntity
  8
11000_LEFT
370
    25
390
0
  6
CONTINUOUS
 62
     7
100
AcDbLine
 10
426.089767
 20
430.921317
 30
0.0
 11
426.05777
 21
430.957964
 31
0.0
  0
LINE
  5
1104
100
AcDbEntity
  8
11000_LEFT
370
    25
390
0
  6
CONTINUOUS
 62
     7
100
AcDbLine
 10
426.05777
 20
430.957964
 30
0.0
 11
426.023651
 21
430.992747
 31
0.0
  0
LINE
  5
1105
100
AcDbEntity
  8
11000_LEFT
370
    25
390
0
  6
CONTINUOUS
 62
     7
100
AcDbLine
 10
426.023651
 20
430.992747
 30
0.0
 11
425.987503
 21
431.025454
 31
0.0
  0
LINE
  5
1106
100
AcDbEntity
  8
11000_LEFT
370
    25
390
0
  6
CONTINUOUS
 62
     7
100
AcDbLine
 10
425.987503
 20
431.025454
 30
0.0
 11
425.949554
 21
431.055872
 31
0.0
  0
LINE
  5
1107
100
AcDbEntity
  8
11000_LEFT
370
    25
390
0
  6
CONTINUOUS
 62
     7
100
AcDbLine
 10
425.949554
 20
431.055872
 30
0.0
 11
425.909866
 21
431.083891
 31
0.0
  0
LINE
  5
1108
100
AcDbEntity
  8
11000_LEFT
370
    25
390
0
  6
CONTINUOUS
 62
     7
100
AcDbLine
 10
425.909866
 20
431.083891
 30
0.0
 11
425.868515
 21
431.1094
 31
0.0
  0
LINE
  5
1109
100
AcDbEntity
  8
11000_LEFT
370
    25
390
0
  6
CONTINUOUS
 62
     7
100
AcDbLine
 10
425.868515
 20
431.1094
 30
0.0
 11
425.825607
 21
431.132296
 31
0.0
  0
LINE
  5
110A
100
AcDbEntity
  8
11000_LEFT
370
    25
390
0
  6
CONTINUOUS
 62
     7
100
AcDbLine
 10
425.825607
 20
431.132296
 30
0.0
 11
425.781219
 21
431.152472
 31
0.0
  0
LINE
  5
110B
100
AcDbEntity
  8
11000_LEFT
370
    25
390
0
  6
CONTINUOUS
 62
     7
100
AcDbLine
 10
425.781219
 20
431.152472
 30
0.0
 11
425.73555
 21
431.169772
 31
0.0
  0
LINE
  5
110C
100
AcDbEntity
  8
11000_LEFT
370
    25
390
0
  6
CONTINUOUS
 62
     7
100
AcDbLine
 10
425.73555
 20
431.169772
 30
0.0
 11
425.688995
 21
431.184027
 31
0.0
  0
LINE
  5
110D
100
AcDbEntity
  8
11000_LEFT
370
    25
390
0
  6
CONTINUOUS
 62
     7
100
AcDbLine
 10
425.688995
 20
431.184027
 30
0.0
 11
425.641693
 21
431.195193
 31
0.0
  0
LINE
  5
110E
100
AcDbEntity
  8
11000_LEFT
370
    25
390
0
  6
CONTINUOUS
 62
     7
100
AcDbLine
 10
425.641693
 20
431.195193
 30
0.0
 11
425.59375
 21
431.203223
 31
0.0
  0
LINE
  5
110F
100
AcDbEntity
  8
11000_LEFT
370
    25
390
0
  6
CONTINUOUS
 62
     7
100
AcDbLine
 10
425.59375
 20
431.203223
 30
0.0
 11
425.545319
 21
431.208075
 31
0.0
  0
LINE
  5
1110
100
AcDbEntity
  8
11000_LEFT
370
    25
390
0
  6
CONTINUOUS
 62
     7
100
AcDbLine
 10
425.545319
 20
431.208075
 30
0.0
 11
425.496506
 21
431.209704
 31
0.0
  0
LINE
  5
1111
100
AcDbEntity
  8
11000_LEFT
370
    25
390
0
  6
CONTINUOUS
 62
     7
100
AcDbLine
 10
426.275604
 20
416.729681
 30
0.0
 11
426.400452
 21
417.357203
 31
0.0
  0
LINE
  5
1112
100
AcDbEntity
  8
11000_LEFT
370
    25
390
0
  6
CONTINUOUS
 62
     7
100
AcDbLine
 10
426.400452
 20
417.357203
 30
0.0
 11
426.513245
 21
417.986536
 31
0.0
  0
LINE
  5
1113
100
AcDbEntity
  8
11000_LEFT
370
    25
390
0
  6
CONTINUOUS
 62
     7
100
AcDbLine
 10
426.513245
 20
417.986536
 30
0.0
 11
426.613937
 21
418.616587
 31
0.0
  0
LINE
  5
1114
100
AcDbEntity
  8
11000_LEFT
370
    25
390
0
  6
CONTINUOUS
 62
     7
100
AcDbLine
 10
426.613937
 20
418.616587
 30
0.0
 11
426.702484
 21
419.246252
 31
0.0
  0
LINE
  5
1115
100
AcDbEntity
  8
11000_LEFT
370
    25
390
0
  6
CONTINUOUS
 62
     7
100
AcDbLine
 10
426.702484
 20
419.246252
 30
0.0
 11
426.778854
 21
419.874445
 31
0.0
  0
LINE
  5
1116
100
AcDbEntity
  8
11000_LEFT
370
    25
390
0
  6
CONTINUOUS
 62
     7
100
AcDbLine
 10
426.778854
 20
419.874445
 30
0.0
 11
426.843002
 21
420.50006
 31
0.0
  0
LINE
  5
1117
100
AcDbEntity
  8
11000_LEFT
370
    25
390
0
  6
CONTINUOUS
 62
     7
100
AcDbLine
 10
426.843002
 20
420.50006
 30
0.0
 11
426.895065
 21
421.121985
 31
0.0
  0
LINE
  5
1118
100
AcDbEntity
  8
11000_LEFT
370
    25
390
0
  6
CONTINUOUS
 62
     7
100
AcDbLine
 10
426.895065
 20
421.121985
 30
0.0
 11
426.935379
 21
421.739077
 31
0.0
  0
LINE
  5
1119
100
AcDbEntity
  8
11000_LEFT
370
    25
390
0
  6
CONTINUOUS
 62
     7
100
AcDbLine
 10
426.935379
 20
421.739077
 30
0.0
 11
426.964233
 21
422.350203
 31
0.0
  0
LINE
  5
111A
100
AcDbEntity
  8
11000_LEFT
370
    25
390
0
  6
CONTINUOUS
 62
     7
100
AcDbLine
 10
426.964233
 20
422.350203
 30
0.0
 11
426.981949
 21
422.954222
 31
0.0
  0
LINE
  5
111B
100
AcDbEntity
  8
11000_LEFT
370
    25
390
0
  6
CONTINUOUS
 62
     7
100
AcDbLine
 10
426.981949
 20
422.954222
 30
0.0
 11
426.988846
 21
423.550002
 31
0.0
  0
LINE
  5
111C
100
AcDbEntity
  8
11000_LEFT
370
    25
390
0
  6
CONTINUOUS
 62
     7
100
AcDbLine
 10
425.496506
 20
416.044989
 30
0.0
 11
425.545334
 21
416.046629
 31
0.0
  0
LINE
  5
111D
100
AcDbEntity
  8
11000_LEFT
370
    25
390
0
  6
CONTINUOUS
 62
     7
100
AcDbLine
 10
425.545334
 20
416.046629
 30
0.0
 11
425.593857
 21
416.051527
 31
0.0
  0
LINE
  5
111E
100
AcDbEntity
  8
11000_LEFT
370
    25
390
0
  6
CONTINUOUS
 62
     7
100
AcDbLine
 10
425.593857
 20
416.051527
 30
0.0
 11
425.641922
 21
416.059645
 31
0.0
  0
LINE
  5
111F
100
AcDbEntity
  8
11000_LEFT
370
    25
390
0
  6
CONTINUOUS
 62
     7
100
AcDbLine
 10
425.641922
 20
416.059645
 30
0.0
 11
425.689407
 21
416.070952
 31
0.0
  0
LINE
  5
1120
100
AcDbEntity
  8
11000_LEFT
370
    25
390
0
  6
CONTINUOUS
 62
     7
100
AcDbLine
 10
425.689407
 20
416.070952
 30
0.0
 11
425.736115
 21
416.08539
 31
0.0
  0
LINE
  5
1121
100
AcDbEntity
  8
11000_LEFT
370
    25
390
0
  6
CONTINUOUS
 62
     7
100
AcDbLine
 10
425.736115
 20
416.08539
 30
0.0
 11
425.781693
 21
416.102816
 31
0.0
  0
LINE
  5
1122
100
AcDbEntity
  8
11000_LEFT
370
    25
390
0
  6
CONTINUOUS
 62
     7
100
AcDbLine
 10
425.781693
 20
416.102816
 30
0.0
 11
425.826019
 21
416.123133
 31
0.0
  0
LINE
  5
1123
100
AcDbEntity
  8
11000_LEFT
370
    25
390
0
  6
CONTINUOUS
 62
     7
100
AcDbLine
 10
425.826019
 20
416.123133
 30
0.0
 11
425.868988
 21
416.146254
 31
0.0
  0
LINE
  5
1124
100
AcDbEntity
  8
11000_LEFT
370
    25
390
0
  6
CONTINUOUS
 62
     7
100
AcDbLine
 10
425.868988
 20
416.146254
 30
0.0
 11
425.910477
 21
416.172079
 31
0.0
  0
LINE
  5
1125
100
AcDbEntity
  8
11000_LEFT
370
    25
390
0
  6
CONTINUOUS
 62
     7
100
AcDbLine
 10
425.910477
 20
416.172079
 30
0.0
 11
425.950226
 21
416.200388
 31
0.0
  0
LINE
  5
1126
100
AcDbEntity
  8
11000_LEFT
370
    25
390
0
  6
CONTINUOUS
 62
     7
100
AcDbLine
 10
425.950226
 20
416.200388
 30
0.0
 11
425.988113
 21
416.231009
 31
0.0
  0
LINE
  5
1127
100
AcDbEntity
  8
11000_LEFT
370
    25
390
0
  6
CONTINUOUS
 62
     7
100
AcDbLine
 10
425.988113
 20
416.231009
 30
0.0
 11
426.024048
 21
416.263819
 31
0.0
  0
LINE
  5
1128
100
AcDbEntity
  8
11000_LEFT
370
    25
390
0
  6
CONTINUOUS
 62
     7
100
AcDbLine
 10
426.024048
 20
416.263819
 30
0.0
 11
426.058014
 21
416.298708
 31
0.0
  0
LINE
  5
1129
100
AcDbEntity
  8
11000_LEFT
370
    25
390
0
  6
CONTINUOUS
 62
     7
100
AcDbLine
 10
426.058014
 20
416.298708
 30
0.0
 11
426.089935
 21
416.335547
 31
0.0
  0
LINE
  5
112A
100
AcDbEntity
  8
11000_LEFT
370
    25
390
0
  6
CONTINUOUS
 62
     7
100
AcDbLine
 10
426.089935
 20
416.335547
 30
0.0
 11
426.119751
 21
416.37422
 31
0.0
  0
LINE
  5
112B
100
AcDbEntity
  8
11000_LEFT
370
    25
390
0
  6
CONTINUOUS
 62
     7
100
AcDbLine
 10
426.119751
 20
416.37422
 30
0.0
 11
426.1474
 21
416.414576
 31
0.0
  0
LINE
  5
112C
100
AcDbEntity
  8
11000_LEFT
370
    25
390
0
  6
CONTINUOUS
 62
     7
100
AcDbLine
 10
426.1474
 20
416.414576
 30
0.0
 11
426.172745
 21
416.456347
 31
0.0
  0
LINE
  5
112D
100
AcDbEntity
  8
11000_LEFT
370
    25
390
0
  6
CONTINUOUS
 62
     7
100
AcDbLine
 10
426.172745
 20
416.456347
 30
0.0
 11
426.19577
 21
416.499396
 31
0.0
  0
LINE
  5
112E
100
AcDbEntity
  8
11000_LEFT
370
    25
390
0
  6
CONTINUOUS
 62
     7
100
AcDbLine
 10
426.19577
 20
416.499396
 30
0.0
 11
426.216461
 21
416.543604
 31
0.0
  0
LINE
  5
112F
100
AcDbEntity
  8
11000_LEFT
370
    25
390
0
  6
CONTINUOUS
 62
     7
100
AcDbLine
 10
426.216461
 20
416.543604
 30
0.0
 11
426.234802
 21
416.588854
 31
0.0
  0
LINE
  5
1130
100
AcDbEntity
  8
11000_LEFT
370
    25
390
0
  6
CONTINUOUS
 62
     7
100
AcDbLine
 10
426.234802
 20
416.588854
 30
0.0
 11
426.250778
 21
416.635027
 31
0.0
  0
LINE
  5
1131
100
AcDbEntity
  8
11000_LEFT
370
    25
390
0
  6
CONTINUOUS
 62
     7
100
AcDbLine
 10
426.250778
 20
416.635027
 30
0.0
 11
426.264374
 21
416.682009
 31
0.0
  0
LINE
  5
1132
100
AcDbEntity
  8
11000_LEFT
370
    25
390
0
  6
CONTINUOUS
 62
     7
100
AcDbLine
 10
426.264374
 20
416.682009
 30
0.0
 11
426.275604
 21
416.729681
 31
0.0
  0
LINE
  5
1133
100
AcDbEntity
  8
11000_LEFT
370
    25
390
0
  6
CONTINUOUS
 62
     7
100
AcDbLine
 10
425.125
 20
410.678038
 30
0.0
 11
436.625
 21
410.678038
 31
0.0
  0
LINE
  5
1134
100
AcDbEntity
  8
11000_LEFT
370
    25
390
0
  6
CONTINUOUS
 62
     7
100
AcDbLine
 10
425.125
 20
410.049971
 30
0.0
 11
436.625
 21
410.049971
 31
0.0
  0
LINE
  5
1135
100
AcDbEntity
  8
11000_LEFT
370
    25
390
0
  6
CONTINUOUS
 62
     7
100
AcDbLine
 10
426.275604
 20
416.729681
 30
0.0
 11
426.275604
 21
423.550002
 31
0.0
  0
LINE
  5
1136
100
AcDbEntity
  8
11000_LEFT
370
    25
390
0
  6
CONTINUOUS
 62
     7
100
AcDbLine
 10
423.294998
 20
415.550002
 30
0.0
 11
425.125
 21
415.550002
 31
0.0
  0
LINE
  5
1137
100
AcDbEntity
  8
11000_LEFT
370
    25
390
0
  6
CONTINUOUS
 62
     7
100
AcDbLine
 10
423.294998
 20
431.550002
 30
0.0
 11
425.125
 21
431.550002
 31
0.0
  0
LINE
  5
1138
100
AcDbEntity
  8
11000_LEFT
370
    25
390
0
  6
CONTINUOUS
 62
     7
100
AcDbLine
 10
423.141388
 20
432.050002
 30
0.0
 11
423.294998
 21
432.050002
 31
0.0
  0
LINE
  5
1139
100
AcDbEntity
  8
11000_LEFT
370
    25
390
0
  6
CONTINUOUS
 62
     7
100
AcDbLine
 10
421.500504
 20
415.050002
 30
0.0
 11
423.294998
 21
415.050002
 31
0.0
  0
LINE
  5
113A
100
AcDbEntity
  8
11000_LEFT
370
    25
390
0
  6
CONTINUOUS
 62
     7
100
AcDbLine
 10
420.574997
 20
485.363821
 30
0.0
 11
420.175003
 21
485.363821
 31
0.0
  0
LINE
  5
113B
100
AcDbEntity
  8
11000_LEFT
370
    25
390
0
  6
CONTINUOUS
 62
     7
100
AcDbLine
 10
420.574997
 20
487.585804
 30
0.0
 11
420.175003
 21
487.585804
 31
0.0
  0
LINE
  5
113C
100
AcDbEntity
  8
11000_LEFT
370
    25
390
0
  6
CONTINUOUS
 62
     7
100
AcDbLine
 10
420.574997
 20
485.363821
 30
0.0
 11
420.175003
 21
485.363821
 31
0.0
  0
LINE
  5
113D
100
AcDbEntity
  8
11000_LEFT
370
    25
390
0
  6
CONTINUOUS
 62
     7
100
AcDbLine
 10
434.225006
 20
438.25
 30
0.0
 11
426.824997
 21
438.25
 31
0.0
  0
LINE
  5
113E
100
AcDbEntity
  8
11000_LEFT
370
    25
390
0
  6
CONTINUOUS
 62
     7
100
AcDbLine
 10
436.625
 20
437.05
 30
0.0
 11
434.225006
 21
437.05
 31
0.0
  0
LINE
  5
113F
100
AcDbEntity
  8
11000_LEFT
370
    25
390
0
  6
CONTINUOUS
 62
     7
100
AcDbLine
 10
426.824997
 20
437.05
 30
0.0
 11
425.125
 21
437.05
 31
0.0
  0
LINE
  5
1140
100
AcDbEntity
  8
11000_LEFT
370
    25
390
0
  6
CONTINUOUS
 62
     7
100
AcDbLine
 10
325.924999
 20
495.800002
 30
0.0
 11
322.125
 21
495.800002
 31
0.0
  0
LINE
  5
1141
100
AcDbEntity
  8
11000_LEFT
370
    25
390
0
  6
CONTINUOUS
 62
     7
100
AcDbLine
 10
322.125
 20
495.800002
 30
0.0
 11
322.125
 21
360.499998
 31
0.0
  0
LINE
  5
1142
100
AcDbEntity
  8
11000_LEFT
370
    25
390
0
  6
CONTINUOUS
 62
     7
100
AcDbLine
 10
322.125
 20
360.499998
 30
0.0
 11
329.625
 21
360.499998
 31
0.0
  0
LINE
  5
1143
100
AcDbEntity
  8
11000_LEFT
370
    25
390
0
  6
CONTINUOUS
 62
     7
100
AcDbLine
 10
329.625
 20
360.499998
 30
0.0
 11
329.625
 21
376.100005
 31
0.0
  0
LINE
  5
1144
100
AcDbEntity
  8
11000_LEFT
370
    25
390
0
  6
CONTINUOUS
 62
     7
100
AcDbLine
 10
329.625
 20
376.100005
 30
0.0
 11
356.025002
 21
376.100005
 31
0.0
  0
LINE
  5
1145
100
AcDbEntity
  8
11000_LEFT
370
    25
390
0
  6
CONTINUOUS
 62
     7
100
AcDbLine
 10
356.025002
 20
376.100005
 30
0.0
 11
356.025002
 21
377.100005
 31
0.0
  0
LINE
  5
1146
100
AcDbEntity
  8
11000_LEFT
370
    25
390
0
  6
CONTINUOUS
 62
     7
100
AcDbLine
 10
356.025002
 20
377.100005
 30
0.0
 11
352.275002
 21
377.100005
 31
0.0
  0
LINE
  5
1147
100
AcDbEntity
  8
11000_LEFT
370
    25
390
0
  6
CONTINUOUS
 62
     7
100
AcDbLine
 10
352.275002
 20
377.100005
 30
0.0
 11
352.275002
 21
397.999998
 31
0.0
  0
LINE
  5
1148
100
AcDbEntity
  8
11000_LEFT
370
    25
390
0
  6
CONTINUOUS
 62
     7
100
AcDbLine
 10
352.275002
 20
397.999998
 30
0.0
 11
385.525002
 21
397.999998
 31
0.0
  0
LINE
  5
1149
100
AcDbEntity
  8
11000_LEFT
370
    25
390
0
  6
CONTINUOUS
 62
     7
100
AcDbLine
 10
385.525002
 20
397.999998
 30
0.0
 11
385.525002
 21
426.48812
 31
0.0
  0
LINE
  5
114A
100
AcDbEntity
  8
11000_LEFT
370
    25
390
0
  6
CONTINUOUS
 62
     7
100
AcDbLine
 10
385.525002
 20
426.48812
 30
0.0
 11
384.724998
 21
426.949999
 31
0.0
  0
LINE
  5
114B
100
AcDbEntity
  8
11000_LEFT
370
    25
390
0
  6
CONTINUOUS
 62
     7
100
AcDbLine
 10
384.724998
 20
426.949999
 30
0.0
 11
375.425003
 21
426.949999
 31
0.0
  0
LINE
  5
114C
100
AcDbEntity
  8
11000_LEFT
370
    25
390
0
  6
CONTINUOUS
 62
     7
100
AcDbLine
 10
375.425003
 20
426.949999
 30
0.0
 11
375.425003
 21
436.950001
 31
0.0
  0
LINE
  5
114D
100
AcDbEntity
  8
11000_LEFT
370
    25
390
0
  6
CONTINUOUS
 62
     7
100
AcDbLine
 10
375.425003
 20
436.950001
 30
0.0
 11
384.724998
 21
436.950001
 31
0.0
  0
LINE
  5
114E
100
AcDbEntity
  8
11000_LEFT
370
    25
390
0
  6
CONTINUOUS
 62
     7
100
AcDbLine
 10
384.724998
 20
436.950001
 30
0.0
 11
385.525002
 21
437.411881
 31
0.0
  0
LINE
  5
114F
100
AcDbEntity
  8
11000_LEFT
370
    25
390
0
  6
CONTINUOUS
 62
     7
100
AcDbLine
 10
385.525002
 20
437.411881
 30
0.0
 11
385.525002
 21
497.65
 31
0.0
  0
LINE
  5
1150
100
AcDbEntity
  8
11000_LEFT
370
    25
390
0
  6
CONTINUOUS
 62
     7
100
AcDbLine
 10
385.525002
 20
497.65
 30
0.0
 11
326.924999
 21
497.65
 31
0.0
  0
LINE
  5
1151
100
AcDbEntity
  8
11000_LEFT
370
    25
390
0
  6
CONTINUOUS
 62
     7
100
AcDbLine
 10
326.924999
 20
497.65
 30
0.0
 11
326.924999
 21
496.800002
 31
0.0
  0
ARC
  5
1152
100
AcDbEntity
  8
11000_LEFT
370
    25
390
0
  6
CONTINUOUS
 62
     7
100
AcDbCircle
 10
325.925
 20
496.800001
 30
0.0
 40
1.0
100
AcDbArc
 50
269.999956
 51
0.0
  0
LINE
  5
1153
100
AcDbEntity
  8
11000_LEFT
370
    25
390
0
  6
CONTINUOUS
 62
     7
100
AcDbLine
 10
352.324997
 20
379.950003
 30
0.0
 11
352.275002
 21
379.950003
 31
0.0
  0
LINE
  5
1154
100
AcDbEntity
  8
11000_LEFT
370
    25
390
0
  6
CONTINUOUS
 62
     7
100
AcDbLine
 10
297.125
 20
489.850001
 30
0.0
 11
271.625
 21
489.850001
 31
0.0
  0
LINE
  5
1155
100
AcDbEntity
  8
11000_LEFT
370
    25
390
0
  6
CONTINUOUS
 62
     7
100
AcDbLine
 10
271.625
 20
489.850001
 30
0.0
 11
271.625
 21
484.55
 31
0.0
  0
LINE
  5
1156
100
AcDbEntity
  8
11000_LEFT
370
    25
390
0
  6
CONTINUOUS
 62
     7
100
AcDbLine
 10
271.625
 20
484.55
 30
0.0
 11
276.625
 21
484.55
 31
0.0
  0
LINE
  5
1157
100
AcDbEntity
  8
11000_LEFT
370
    25
390
0
  6
CONTINUOUS
 62
     7
100
AcDbLine
 10
276.625
 20
484.55
 30
0.0
 11
276.625
 21
447.15
 31
0.0
  0
LINE
  5
1158
100
AcDbEntity
  8
11000_LEFT
370
    25
390
0
  6
CONTINUOUS
 62
     7
100
AcDbLine
 10
276.625
 20
447.15
 30
0.0
 11
275.525
 21
447.15
 31
0.0
  0
LINE
  5
1159
100
AcDbEntity
  8
11000_LEFT
370
    25
390
0
  6
CONTINUOUS
 62
     7
100
AcDbLine
 10
275.525
 20
447.15
 30
0.0
 11
275.225
 21
448.15
 31
0.0
  0
LINE
  5
115A
100
AcDbEntity
  8
11000_LEFT
370
    25
390
0
  6
CONTINUOUS
 62
     7
100
AcDbLine
 10
275.225
 20
448.15
 30
0.0
 11
274.725
 21
448.15
 31
0.0
  0
LINE
  5
115B
100
AcDbEntity
  8
11000_LEFT
370
    25
390
0
  6
CONTINUOUS
 62
     7
100
AcDbLine
 10
274.725
 20
448.15
 30
0.0
 11
271.625
 21
445.65
 31
0.0
  0
LINE
  5
115C
100
AcDbEntity
  8
11000_LEFT
370
    25
390
0
  6
CONTINUOUS
 62
     7
100
AcDbLine
 10
271.625
 20
445.65
 30
0.0
 11
271.625
 21
394.249998
 31
0.0
  0
LINE
  5
115D
100
AcDbEntity
  8
11000_LEFT
370
    25
390
0
  6
CONTINUOUS
 62
     7
100
AcDbLine
 10
271.625
 20
394.249998
 30
0.0
 11
276.625
 21
394.249998
 31
0.0
  0
LINE
  5
115E
100
AcDbEntity
  8
11000_LEFT
370
    25
390
0
  6
CONTINUOUS
 62
     7
100
AcDbLine
 10
276.625
 20
394.249998
 30
0.0
 11
276.625
 21
375.450003
 31
0.0
  0
LINE
  5
115F
100
AcDbEntity
  8
11000_LEFT
370
    25
390
0
  6
CONTINUOUS
 62
     7
100
AcDbLine
 10
276.625
 20
375.450003
 30
0.0
 11
274.625
 21
375.450003
 31
0.0
  0
LINE
  5
1160
100
AcDbEntity
  8
11000_LEFT
370
    25
390
0
  6
CONTINUOUS
 62
     7
100
AcDbLine
 10
274.625
 20
375.450003
 30
0.0
 11
274.625
 21
376.930388
 31
0.0
  0
LINE
  5
1161
100
AcDbEntity
  8
11000_LEFT
370
    25
390
0
  6
CONTINUOUS
 62
     7
100
AcDbLine
 10
274.625
 20
376.930388
 30
0.0
 11
274.325
 21
377.450003
 31
0.0
  0
LINE
  5
1162
100
AcDbEntity
  8
11000_LEFT
370
    25
390
0
  6
CONTINUOUS
 62
     7
100
AcDbLine
 10
274.325
 20
377.450003
 30
0.0
 11
274.125
 21
377.450003
 31
0.0
  0
LINE
  5
1163
100
AcDbEntity
  8
11000_LEFT
370
    25
390
0
  6
CONTINUOUS
 62
     7
100
AcDbLine
 10
274.125
 20
377.450003
 30
0.0
 11
271.625
 21
376.450003
 31
0.0
  0
LINE
  5
1164
100
AcDbEntity
  8
11000_LEFT
370
    25
390
0
  6
CONTINUOUS
 62
     7
100
AcDbLine
 10
271.625
 20
376.450003
 30
0.0
 11
271.625
 21
366.450003
 31
0.0
  0
LINE
  5
1165
100
AcDbEntity
  8
11000_LEFT
370
    25
390
0
  6
CONTINUOUS
 62
     7
100
AcDbLine
 10
271.625
 20
366.450003
 30
0.0
 11
297.125
 21
366.450003
 31
0.0
  0
LINE
  5
1166
100
AcDbEntity
  8
11000_LEFT
370
    25
390
0
  6
CONTINUOUS
 62
     7
100
AcDbLine
 10
297.125
 20
366.450003
 30
0.0
 11
297.125
 21
360.349997
 31
0.0
  0
LINE
  5
1167
100
AcDbEntity
  8
11000_LEFT
370
    25
390
0
  6
CONTINUOUS
 62
     7
100
AcDbLine
 10
297.125
 20
360.349997
 30
0.0
 11
322.125
 21
360.349997
 31
0.0
  0
LINE
  5
1168
100
AcDbEntity
  8
11000_LEFT
370
    25
390
0
  6
CONTINUOUS
 62
     7
100
AcDbLine
 10
322.125
 20
360.349997
 30
0.0
 11
322.125
 21
495.949974
 31
0.0
  0
LINE
  5
1169
100
AcDbEntity
  8
11000_LEFT
370
    25
390
0
  6
CONTINUOUS
 62
     7
100
AcDbLine
 10
322.125
 20
495.949974
 30
0.0
 11
297.125
 21
495.949974
 31
0.0
  0
LINE
  5
116A
100
AcDbEntity
  8
11000_LEFT
370
    25
390
0
  6
CONTINUOUS
 62
     7
100
AcDbLine
 10
297.125
 20
495.949974
 30
0.0
 11
297.125
 21
489.850001
 31
0.0
  0
LINE
  5
116B
100
AcDbEntity
  8
11100_LEFT_DIM
370
    13
390
0
  6
CONTINUOUS
 62
     7
100
AcDbLine
 10
271.625
 20
366.5
 30
0.0
 11
271.625
 21
338.34999
 31
0.0
  0
TEXT
  5
116C
100
AcDbEntity
  8
11100_LEFT_DIM
370
    13
390
0
  6
CONTINUOUS
 62
     7
100
AcDbText
 10
255.666667
 20
344.34999
 30
0.0
 40
4.0
  1
5
 72
     1
 11
257.0
 21
344.34999
 31
0.0
100
AcDbText
  0
LINE
  5
116D
100
AcDbEntity
  8
11100_LEFT_DIM
370
    13
390
0
  6
CONTINUOUS
 62
     7
100
AcDbLine
 10
254.375
 20
342.34999
 30
0.0
 11
288.625
 21
342.34999
 31
0.0
  0
LINE
  5
116E
100
AcDbEntity
  8
11100_LEFT_DIM
370
    13
390
0
  6
CONTINUOUS
 62
     7
100
AcDbLine
 10
276.625
 20
338.34999
 30
0.0
 11
276.625
 21
447.2
 31
0.0
  0
LINE
  5
116F
100
AcDbEntity
  8
11100_LEFT_DIM
370
    13
390
0
  6
CONTINUOUS
 62
     7
100
AcDbLine
 10
271.625
 20
366.5
 30
0.0
 11
271.625
 21
324.34999
 31
0.0
  0
TEXT
  5
1170
100
AcDbEntity
  8
11100_LEFT_DIM
370
    13
390
0
  6
CONTINUOUS
 62
     7
100
AcDbText
 10
295.791667
 20
330.34999
 30
0.0
 40
4.0
  1
55
 72
     1
 11
299.125
 21
330.34999
 31
0.0
100
AcDbText
  0
LINE
  5
1171
100
AcDbEntity
  8
11100_LEFT_DIM
370
    13
390
0
  6
CONTINUOUS
 62
     7
100
AcDbLine
 10
271.625
 20
328.34999
 30
0.0
 11
326.625
 21
328.34999
 31
0.0
  0
LINE
  5
1172
100
AcDbEntity
  8
11100_LEFT_DIM
370
    13
390
0
  6
CONTINUOUS
 62
     7
100
AcDbLine
 10
326.625
 20
324.34999
 30
0.0
 11
326.625
 21
360.34999
 31
0.0
  0
LINE
  5
1173
100
AcDbEntity
  8
11100_LEFT_DIM
370
    13
390
0
  6
CONTINUOUS
 62
     7
100
AcDbLine
 10
271.625
 20
489.85
 30
0.0
 11
271.625
 21
519.650011
 31
0.0
  0
TEXT
  5
1174
100
AcDbEntity
  8
11100_LEFT_DIM
370
    13
390
0
  6
CONTINUOUS
 62
     7
100
AcDbText
 10
349.458333
 20
517.650011
 30
0.0
 40
4.0
  1
165
 72
     1
 11
354.125
 21
517.650011
 31
0.0
100
AcDbText
  0
LINE
  5
1175
100
AcDbEntity
  8
11100_LEFT_DIM
370
    13
390
0
  6
CONTINUOUS
 62
     7
100
AcDbLine
 10
271.625
 20
515.650011
 30
0.0
 11
436.625
 21
515.650011
 31
0.0
  0
LINE
  5
1176
100
AcDbEntity
  8
11100_LEFT_DIM
370
    13
390
0
  6
CONTINUOUS
 62
     7
100
AcDbLine
 10
436.625
 20
519.650011
 30
0.0
 11
436.625
 21
437.05
 31
0.0
  0
LINE
  5
1177
100
AcDbEntity
  8
11100_LEFT_DIM
370
    13
390
0
  6
CONTINUOUS
 62
     7
100
AcDbLine
 10
436.62501
 20
423.6
 30
0.0
 11
458.62501
 21
423.6
 31
0.0
  0
TEXT
  5
1178
100
AcDbEntity
  8
11100_LEFT_DIM
370
    13
390
0
  6
CONTINUOUS
 62
     7
100
AcDbText
 10
452.62501
 20
438.208333
 30
0.0
 40
4.0
  1
40.6
 50
90.0
 51
360.0
 72
     1
 11
452.62501
 21
443.875
 31
0.0
100
AcDbText
  0
LINE
  5
1179
100
AcDbEntity
  8
11100_LEFT_DIM
370
    13
390
0
  6
CONTINUOUS
 62
     7
100
AcDbLine
 10
454.62501
 20
423.6
 30
0.0
 11
454.62501
 21
464.15
 31
0.0
  0
LINE
  5
117A
100
AcDbEntity
  8
11100_LEFT_DIM
370
    13
390
0
  6
CONTINUOUS
 62
     7
100
AcDbLine
 10
458.62501
 20
464.15
 30
0.0
 11
271.625
 21
464.15
 31
0.0
  0
SOLID
  5
117B
100
AcDbEntity
  8
11100_LEFT_DIM
370
    13
390
0
  6
CONTINUOUS
 62
     7
100
AcDbTrace
 10
263.625
 20
340.34999
 30
0.0
 11
271.625
 21
342.34999
 31
0.0
 12
263.625
 22
344.34999
 32
0.0
 13
271.625
 23
342.34999
 33
0.0
  0
SOLID
  5
117C
100
AcDbEntity
  8
11100_LEFT_DIM
370
    13
390
0
  6
CONTINUOUS
 62
     7
100
AcDbTrace
 10
284.625
 20
344.34999
 30
0.0
 11
276.625
 21
342.34999
 31
0.0
 12
284.625
 22
340.34999
 32
0.0
 13
276.625
 23
342.34999
 33
0.0
  0
SOLID
  5
117D
100
AcDbEntity
  8
11100_LEFT_DIM
370
    13
390
0
  6
CONTINUOUS
 62
     7
100
AcDbTrace
 10
279.625
 20
330.34999
 30
0.0
 11
271.625
 21
328.34999
 31
0.0
 12
279.625
 22
326.34999
 32
0.0
 13
271.625
 23
328.34999
 33
0.0
  0
SOLID
  5
117E
100
AcDbEntity
  8
11100_LEFT_DIM
370
    13
390
0
  6
CONTINUOUS
 62
     7
100
AcDbTrace
 10
318.625
 20
326.34999
 30
0.0
 11
326.625
 21
328.34999
 31
0.0
 12
318.625
 22
330.34999
 32
0.0
 13
326.625
 23
328.34999
 33
0.0
  0
SOLID
  5
117F
100
AcDbEntity
  8
11100_LEFT_DIM
370
    13
390
0
  6
CONTINUOUS
 62
     7
100
AcDbTrace
 10
279.625
 20
517.650011
 30
0.0
 11
271.625
 21
515.650011
 31
0.0
 12
279.625
 22
513.650011
 32
0.0
 13
271.625
 23
515.650011
 33
0.0
  0
SOLID
  5
1180
100
AcDbEntity
  8
11100_LEFT_DIM
370
    13
390
0
  6
CONTINUOUS
 62
     7
100
AcDbTrace
 10
428.625
 20
513.650011
 30
0.0
 11
436.625
 21
515.650011
 31
0.0
 12
428.625
 22
517.650011
 32
0.0
 13
436.625
 23
515.650011
 33
0.0
  0
SOLID
  5
1181
100
AcDbEntity
  8
11100_LEFT_DIM
370
    13
390
0
  6
CONTINUOUS
 62
     7
100
AcDbTrace
 10
452.62501
 20
431.6
 30
0.0
 11
454.62501
 21
423.6
 31
0.0
 12
456.62501
 22
431.6
 32
0.0
 13
454.62501
 23
423.6
 33
0.0
  0
SOLID
  5
1182
100
AcDbEntity
  8
11100_LEFT_DIM
370
    13
390
0
  6
CONTINUOUS
 62
     7
100
AcDbTrace
 10
456.62501
 20
456.15
 30
0.0
 11
454.62501
 21
464.15
 31
0.0
 12
452.62501
 22
456.15
 32
0.0
 13
454.62501
 23
464.15
 33
0.0
  0
LINE
  5
1183
100
AcDbEntity
  8
90000_FRAME
370
    13
  6
CONTINUOUS
 62
     7
100
AcDbLine
 10
101.408144
 20
118.993717
 30
0.0
 11
101.408144
 21
658.993717
 31
0.0
  0
LINE
  5
1184
100
AcDbEntity
  8
90000_FRAME
370
    13
  6
CONTINUOUS
 62
     7
100
AcDbLine
 10
501.408144
 20
658.993717
 30
0.0
 11
101.408144
 21
658.993717
 31
0.0
  0
LINE
  5
1185
100
AcDbEntity
  8
91000_TIP
370
    13
  6
CONTINUOUS
 62
     7
100
AcDbLine
 10
164.167065
 20
151.413899
 30
0.0
 11
184.167065
 21
156.413898
 31
0.0
  0
LINE
  5
1186
100
AcDbEntity
  8
91000_TIP
370
    13
  6
CONTINUOUS
 62
     7
100
AcDbLine
 10
161.608045
 20
146.413899
 30
0.0
 11
208.812023
 21
146.413899
 31
0.0
  0
LINE
  5
1187
100
AcDbEntity
  8
91000_TIP
370
    13
  6
CONTINUOUS
 62
     7
100
AcDbLine
 10
164.167065
 20
141.413899
 30
0.0
 11
184.167065
 21
136.413899
 31
0.0
  0
LINE
  5
1188
100
AcDbEntity
  8
91000_TIP
370
    13
  6
CONTINUOUS
 62
     7
100
AcDbLine
 10
164.167065
 20
151.413899
 30
0.0
 11
164.167065
 21
141.413899
 31
0.0
  0
LINE
  5
1189
100
AcDbEntity
  8
91000_TIP
370
    13
  6
CONTINUOUS
 62
     7
100
AcDbLine
 10
184.167065
 20
156.413898
 30
0.0
 11
184.167065
 21
136.413899
 31
0.0
  0
LINE
  5
118A
100
AcDbEntity
  8
91000_TIP
370
    13
  6
CONTINUOUS
 62
     7
100
AcDbLine
 10
197.167065
 20
134.970936
 30
0.0
 11
197.167065
 21
157.537708
 31
0.0
  0
CIRCLE
  5
118B
100
AcDbEntity
  8
91000_TIP
370
    13
  6
CONTINUOUS
 62
     7
100
AcDbCircle
 10
197.167065
 20
146.413899
 30
0.0
 40
10.0
  0
CIRCLE
  5
118C
100
AcDbEntity
  8
91000_TIP
370
    13
  6
CONTINUOUS
 62
     7
100
AcDbCircle
 10
197.167065
 20
146.413899
 30
0.0
 40
5.0
  0
TEXT
  5
118D
100
AcDbEntity
  8
90000_FRAME
370
    13
  6
CONTINUOUS
 62
     7
100
AcDbText
 10
222.527225
 20
168.549125
 30
0.0
 40
4.4
  1
All dimensions are in millimeters (mm)
 41
0.961374
100
AcDbText
  0
TEXT
  5
118E
100
AcDbEntity
  8
90000_FRAME
370
    13
  6
CONTINUOUS
 62
     7
100
AcDbText
 10
222.527225
 20
174.80717
 30
0.0
 40
4.4
  1
Alle Bemassungswerte sind in Millimeter (mm) angegeben.
 41
0.825144
100
AcDbText
  0
LINE
  5
118F
100
AcDbEntity
  8
90000_FRAME
370
    13
  6
CONTINUOUS
 62
     7
100
AcDbLine
 10
501.408144
 20
118.993717
 30
0.0
 11
501.408144
 21
658.993717
 31
0.0
  0
LINE
  5
1190
100
AcDbEntity
  8
90000_FRAME
370
    13
  6
CONTINUOUS
 62
     7
100
AcDbLine
 10
501.408144
 20
118.993717
 30
0.0
 11
101.408144
 21
118.993717
 31
0.0
  0
TEXT
  5
1191
100
AcDbEntity
  8
90000_FRAME
370
    13
  6
CONTINUOUS
 62
     7
100
AcDbText
 10
324.30431
 20
154.4
 30
0.0
 40
6.0
  1
3RA61200AB30
 41
0.784213
100
AcDbText
  0
TEXT
  5
1192
100
AcDbEntity
  8
90000_FRAME
370
    13
  6
CONTINUOUS
 62
     7
100
AcDbText
 10
407.728144
 20
132.793717
 30
0.0
 40
4.4
  1
Massstab/Scale:
 41
0.9
100
AcDbText
  0
TEXT
  5
1193
100
AcDbEntity
  8
90000_FRAME
370
    13
  6
CONTINUOUS
 62
     7
100
AcDbText
 10
324.0
 20
132.793717
 30
0.0
 40
4.4
  1
Format/Size: DIN A4
 41
0.803258
100
AcDbText
  0
LINE
  5
1194
100
AcDbEntity
  8
90000_FRAME
370
    13
  6
CONTINUOUS
 62
     7
100
AcDbLine
 10
491.408144
 20
128.993717
 30
0.0
 11
491.408144
 21
164.993717
 31
0.0
  0
LINE
  5
1195
100
AcDbEntity
  8
90000_FRAME
370
    13
  6
CONTINUOUS
 62
     7
100
AcDbLine
 10
406.408144
 20
128.993717
 30
0.0
 11
406.408144
 21
140.993717
 31
0.0
  0
LINE
  5
1196
100
AcDbEntity
  8
90000_FRAME
370
    13
  6
CONTINUOUS
 62
     7
100
AcDbLine
 10
321.408144
 20
128.993717
 30
0.0
 11
321.408144
 21
164.993717
 31
0.0
  0
LINE
  5
1197
100
AcDbEntity
  8
90000_FRAME
370
    13
  6
CONTINUOUS
 62
     7
100
AcDbLine
 10
221.408144
 20
164.993717
 30
0.0
 11
491.408144
 21
164.993717
 31
0.0
  0
LINE
  5
1198
100
AcDbEntity
  8
90000_FRAME
370
    13
  6
CONTINUOUS
 62
     7
100
AcDbLine
 10
321.408144
 20
140.993717
 30
0.0
 11
491.408144
 21
140.993717
 31
0.0
  0
LINE
  5
1199
100
AcDbEntity
  8
90000_FRAME
370
    13
  6
CONTINUOUS
 62
     7
100
AcDbLine
 10
221.408144
 20
128.993717
 30
0.0
 11
221.408144
 21
164.993717
 31
0.0
  0
LINE
  5
119A
100
AcDbEntity
  8
90000_FRAME
370
    13
  6
CONTINUOUS
 62
     7
100
AcDbLine
 10
221.408144
 20
128.993717
 30
0.0
 11
491.408144
 21
128.993717
 31
0.0
  0
LINE
  5
119B
100
AcDbEntity
  8
90000_FRAME
370
    13
  6
CONTINUOUS
 62
     7
100
AcDbLine
 10
249.780545
 20
151.822812
 30
0.0
 11
249.780545
 21
142.316274
 31
0.0
  0
LINE
  5
119C
100
AcDbEntity
  8
90000_FRAME
370
    13
  6
CONTINUOUS
 62
     7
100
AcDbLine
 10
252.632506
 20
151.822812
 30
0.0
 11
252.632506
 21
142.316274
 31
0.0
  0
LINE
  5
119D
100
AcDbEntity
  8
90000_FRAME
370
    13
  6
CONTINUOUS
 62
     7
100
AcDbLine
 10
249.780545
 20
142.316274
 30
0.0
 11
252.632506
 21
142.316274
 31
0.0
  0
LINE
  5
119E
100
AcDbEntity
  8
90000_FRAME
370
    13
  6
CONTINUOUS
 62
     7
100
AcDbLine
 10
249.780545
 20
151.822812
 30
0.0
 11
252.632506
 21
151.822812
 31
0.0
  0
LINE
  5
119F
100
AcDbEntity
  8
90000_FRAME
370
    13
  6
CONTINUOUS
 62
     7
100
AcDbLine
 10
254.81901
 20
151.822812
 30
0.0
 11
254.81901
 21
142.316274
 31
0.0
  0
LINE
  5
11A0
100
AcDbEntity
  8
90000_FRAME
370
    13
  6
CONTINUOUS
 62
     7
100
AcDbLine
 10
254.81901
 20
142.316274
 30
0.0
 11
261.948914
 21
142.316274
 31
0.0
  0
LINE
  5
11A1
100
AcDbEntity
  8
90000_FRAME
370
    13
  6
CONTINUOUS
 62
     7
100
AcDbLine
 10
261.948914
 20
144.122516
 30
0.0
 11
257.575906
 21
144.122516
 31
0.0
  0
LINE
  5
11A2
100
AcDbEntity
  8
90000_FRAME
370
    13
  6
CONTINUOUS
 62
     7
100
AcDbLine
 10
261.948914
 20
144.122516
 30
0.0
 11
261.948914
 21
142.316274
 31
0.0
  0
LINE
  5
11A3
100
AcDbEntity
  8
90000_FRAME
370
    13
  6
CONTINUOUS
 62
     7
100
AcDbLine
 10
261.853848
 20
151.822812
 30
0.0
 11
254.81901
 21
151.822812
 31
0.0
  0
LINE
  5
11A4
100
AcDbEntity
  8
90000_FRAME
370
    13
  6
CONTINUOUS
 62
     7
100
AcDbLine
 10
261.853848
 20
150.064103
 30
0.0
 11
257.575906
 21
150.064103
 31
0.0
  0
LINE
  5
11A5
100
AcDbEntity
  8
90000_FRAME
370
    13
  6
CONTINUOUS
 62
     7
100
AcDbLine
 10
261.853848
 20
151.822812
 30
0.0
 11
261.853848
 21
150.064103
 31
0.0
  0
LINE
  5
11A6
100
AcDbEntity
  8
90000_FRAME
370
    13
  6
CONTINUOUS
 62
     7
100
AcDbLine
 10
261.283456
 20
146.356553
 30
0.0
 11
257.575906
 21
146.356553
 31
0.0
  0
LINE
  5
11A7
100
AcDbEntity
  8
90000_FRAME
370
    13
  6
CONTINUOUS
 62
     7
100
AcDbLine
 10
261.283456
 20
147.925132
 30
0.0
 11
261.283456
 21
146.356553
 31
0.0
  0
LINE
  5
11A8
100
AcDbEntity
  8
90000_FRAME
370
    13
  6
CONTINUOUS
 62
     7
100
AcDbLine
 10
261.283456
 20
147.925132
 30
0.0
 11
257.575906
 21
147.925132
 31
0.0
  0
LINE
  5
11A9
100
AcDbEntity
  8
90000_FRAME
370
    13
  6
CONTINUOUS
 62
     7
100
AcDbLine
 10
257.575906
 20
150.064103
 30
0.0
 11
257.575906
 21
147.925132
 31
0.0
  0
LINE
  5
11AA
100
AcDbEntity
  8
90000_FRAME
370
    13
  6
CONTINUOUS
 62
     7
100
AcDbLine
 10
257.575906
 20
146.356553
 30
0.0
 11
257.575906
 21
144.122516
 31
0.0
  0
LINE
  5
11AB
100
AcDbEntity
  8
90000_FRAME
370
    13
  6
CONTINUOUS
 62
     7
100
AcDbLine
 10
263.565025
 20
142.316274
 30
0.0
 11
263.565025
 21
151.822812
 31
0.0
  0
LINE
  5
11AC
100
AcDbEntity
  8
90000_FRAME
370
    13
  6
CONTINUOUS
 62
     7
100
AcDbLine
 10
263.565025
 20
142.316274
 30
0.0
 11
265.466333
 21
142.316274
 31
0.0
  0
LINE
  5
11AD
100
AcDbEntity
  8
90000_FRAME
370
    13
  6
CONTINUOUS
 62
     7
100
AcDbLine
 10
275.258067
 20
151.822812
 30
0.0
 11
275.258067
 21
142.316274
 31
0.0
  0
LINE
  5
11AE
100
AcDbEntity
  8
90000_FRAME
370
    13
  6
CONTINUOUS
 62
     7
100
AcDbLine
 10
275.258067
 20
142.316274
 30
0.0
 11
272.501171
 21
142.316274
 31
0.0
  0
LINE
  5
11AF
100
AcDbEntity
  8
90000_FRAME
370
    13
  6
CONTINUOUS
 62
     7
100
AcDbLine
 10
268.128163
 20
142.221209
 30
0.0
 11
269.83934
 21
142.221209
 31
0.0
  0
LINE
  5
11B0
100
AcDbEntity
  8
90000_FRAME
370
    13
  6
CONTINUOUS
 62
     7
100
AcDbLine
 10
268.128163
 20
142.221209
 30
0.0
 11
265.466333
 21
148.400459
 31
0.0
  0
LINE
  5
11B1
100
AcDbEntity
  8
90000_FRAME
370
    13
  6
CONTINUOUS
 62
     7
100
AcDbLine
 10
265.466333
 20
142.316274
 30
0.0
 11
265.466333
 21
148.400459
 31
0.0
  0
LINE
  5
11B2
100
AcDbEntity
  8
90000_FRAME
370
    13
  6
CONTINUOUS
 62
     7
100
AcDbLine
 10
272.501171
 20
148.495524
 30
0.0
 11
269.83934
 21
142.221209
 31
0.0
  0
LINE
  5
11B3
100
AcDbEntity
  8
90000_FRAME
370
    13
  6
CONTINUOUS
 62
     7
100
AcDbLine
 10
266.987379
 20
151.822812
 30
0.0
 11
263.565025
 21
151.822812
 31
0.0
  0
LINE
  5
11B4
100
AcDbEntity
  8
90000_FRAME
370
    13
  6
CONTINUOUS
 62
     7
100
AcDbLine
 10
275.258067
 20
151.822812
 30
0.0
 11
271.835713
 21
151.822812
 31
0.0
  0
LINE
  5
11B5
100
AcDbEntity
  8
90000_FRAME
370
    13
  6
CONTINUOUS
 62
     7
100
AcDbLine
 10
266.987379
 20
151.822812
 30
0.0
 11
269.459079
 21
146.023824
 31
0.0
  0
LINE
  5
11B6
100
AcDbEntity
  8
90000_FRAME
370
    13
  6
CONTINUOUS
 62
     7
100
AcDbLine
 10
271.835713
 20
151.822812
 30
0.0
 11
269.459079
 21
146.023824
 31
0.0
  0
LINE
  5
11B7
100
AcDbEntity
  8
90000_FRAME
370
    13
  6
CONTINUOUS
 62
     7
100
AcDbLine
 10
272.501171
 20
148.495524
 30
0.0
 11
272.501171
 21
142.316274
 31
0.0
  0
LINE
  5
11B8
100
AcDbEntity
  8
90000_FRAME
370
    13
  6
CONTINUOUS
 62
     7
100
AcDbLine
 10
277.444571
 20
151.822812
 30
0.0
 11
277.444571
 21
142.316274
 31
0.0
  0
LINE
  5
11B9
100
AcDbEntity
  8
90000_FRAME
370
    13
  6
CONTINUOUS
 62
     7
100
AcDbLine
 10
277.444571
 20
142.316274
 30
0.0
 11
284.574475
 21
142.316274
 31
0.0
  0
LINE
  5
11BA
100
AcDbEntity
  8
90000_FRAME
370
    13
  6
CONTINUOUS
 62
     7
100
AcDbLine
 10
284.574475
 20
144.122516
 30
0.0
 11
280.201467
 21
144.122516
 31
0.0
  0
LINE
  5
11BB
100
AcDbEntity
  8
90000_FRAME
370
    13
  6
CONTINUOUS
 62
     7
100
AcDbLine
 10
284.574475
 20
144.122516
 30
0.0
 11
284.574475
 21
142.316274
 31
0.0
  0
LINE
  5
11BC
100
AcDbEntity
  8
90000_FRAME
370
    13
  6
CONTINUOUS
 62
     7
100
AcDbLine
 10
284.479409
 20
151.822812
 30
0.0
 11
277.444571
 21
151.822812
 31
0.0
  0
LINE
  5
11BD
100
AcDbEntity
  8
90000_FRAME
370
    13
  6
CONTINUOUS
 62
     7
100
AcDbLine
 10
284.479409
 20
150.064103
 30
0.0
 11
280.201467
 21
150.064103
 31
0.0
  0
LINE
  5
11BE
100
AcDbEntity
  8
90000_FRAME
370
    13
  6
CONTINUOUS
 62
     7
100
AcDbLine
 10
284.479409
 20
151.822812
 30
0.0
 11
284.479409
 21
150.064103
 31
0.0
  0
LINE
  5
11BF
100
AcDbEntity
  8
90000_FRAME
370
    13
  6
CONTINUOUS
 62
     7
100
AcDbLine
 10
283.909017
 20
146.356553
 30
0.0
 11
280.201467
 21
146.356553
 31
0.0
  0
LINE
  5
11C0
100
AcDbEntity
  8
90000_FRAME
370
    13
  6
CONTINUOUS
 62
     7
100
AcDbLine
 10
283.909017
 20
147.925132
 30
0.0
 11
283.909017
 21
146.356553
 31
0.0
  0
LINE
  5
11C1
100
AcDbEntity
  8
90000_FRAME
370
    13
  6
CONTINUOUS
 62
     7
100
AcDbLine
 10
283.909017
 20
147.925132
 30
0.0
 11
280.201467
 21
147.925132
 31
0.0
  0
LINE
  5
11C2
100
AcDbEntity
  8
90000_FRAME
370
    13
  6
CONTINUOUS
 62
     7
100
AcDbLine
 10
280.201467
 20
150.064103
 30
0.0
 11
280.201467
 21
147.925132
 31
0.0
  0
LINE
  5
11C3
100
AcDbEntity
  8
90000_FRAME
370
    13
  6
CONTINUOUS
 62
     7
100
AcDbLine
 10
280.201467
 20
146.356553
 30
0.0
 11
280.201467
 21
144.122516
 31
0.0
  0
LINE
  5
11C4
100
AcDbEntity
  8
90000_FRAME
370
    13
  6
CONTINUOUS
 62
     7
100
AcDbLine
 10
286.143053
 20
142.316274
 30
0.0
 11
286.143053
 21
151.822812
 31
0.0
  0
LINE
  5
11C5
100
AcDbEntity
  8
90000_FRAME
370
    13
  6
CONTINUOUS
 62
     7
100
AcDbLine
 10
294.508807
 20
151.822812
 30
0.0
 11
294.508807
 21
142.316274
 31
0.0
  0
LINE
  5
11C6
100
AcDbEntity
  8
90000_FRAME
370
    13
  6
CONTINUOUS
 62
     7
100
AcDbLine
 10
286.143053
 20
142.316274
 30
0.0
 11
288.044361
 21
142.316274
 31
0.0
  0
LINE
  5
11C7
100
AcDbEntity
  8
90000_FRAME
370
    13
  6
CONTINUOUS
 62
     7
100
AcDbLine
 10
294.508807
 20
151.822812
 30
0.0
 11
292.607499
 21
151.822812
 31
0.0
  0
LINE
  5
11C8
100
AcDbEntity
  8
90000_FRAME
370
    13
  6
CONTINUOUS
 62
     7
100
AcDbLine
 10
289.232678
 20
151.822812
 30
0.0
 11
286.143053
 21
151.822812
 31
0.0
  0
LINE
  5
11C9
100
AcDbEntity
  8
90000_FRAME
370
    13
  6
CONTINUOUS
 62
     7
100
AcDbLine
 10
294.508807
 20
142.316274
 30
0.0
 11
291.466715
 21
142.316274
 31
0.0
  0
LINE
  5
11CA
100
AcDbEntity
  8
90000_FRAME
370
    13
  6
CONTINUOUS
 62
     7
100
AcDbLine
 10
291.466715
 20
142.316274
 30
0.0
 11
288.044361
 21
148.400459
 31
0.0
  0
LINE
  5
11CB
100
AcDbEntity
  8
90000_FRAME
370
    13
  6
CONTINUOUS
 62
     7
100
AcDbLine
 10
289.232678
 20
151.822812
 30
0.0
 11
292.607499
 21
145.928759
 31
0.0
  0
LINE
  5
11CC
100
AcDbEntity
  8
90000_FRAME
370
    13
  6
CONTINUOUS
 62
     7
100
AcDbLine
 10
292.607499
 20
151.822812
 30
0.0
 11
292.607499
 21
145.928759
 31
0.0
  0
LINE
  5
11CD
100
AcDbEntity
  8
90000_FRAME
370
    13
  6
CONTINUOUS
 62
     7
100
AcDbLine
 10
288.044361
 20
142.316274
 30
0.0
 11
288.044361
 21
148.400459
 31
0.0
  0
LINE
  5
11CE
100
AcDbEntity
  8
90000_FRAME
370
    13
  6
CONTINUOUS
 62
     7
100
AcDbLine
 10
296.124918
 20
142.506405
 30
0.0
 11
296.124918
 21
144.407713
 31
0.0
  0
LINE
  5
11CF
100
AcDbEntity
  8
90000_FRAME
370
    13
  6
CONTINUOUS
 62
     7
100
AcDbLine
 10
302.779495
 20
149.826439
 30
0.0
 11
302.779495
 21
151.727747
 31
0.0
  0
ARC
  5
11D0
100
AcDbEntity
  8
90000_FRAME
370
    13
  6
CONTINUOUS
 62
     7
100
AcDbCircle
 10
299.534201
 20
146.230591
 30
0.0
 40
2.223239
100
AcDbArc
 50
277.709996
 51
295.688493
  0
ARC
  5
11D1
100
AcDbEntity
  8
90000_FRAME
370
    13
  6
CONTINUOUS
 62
     7
100
AcDbCircle
 10
300.102821
 20
144.78094
 30
0.0
 40
0.680338
100
AcDbArc
 50
305.503221
 51
72.46529
  0
ARC
  5
11D2
100
AcDbEntity
  8
90000_FRAME
370
    13
  6
CONTINUOUS
 62
     7
100
AcDbCircle
 10
298.970833
 20
151.584354
 30
0.0
 40
9.513589
100
AcDbArc
 50
252.59392
 51
280.98166
  0
ARC
  5
11D3
100
AcDbEntity
  8
90000_FRAME
370
    13
  6
CONTINUOUS
 62
     7
100
AcDbCircle
 10
299.880504
 20
146.348326
 30
0.0
 40
4.201453
100
AcDbArc
 50
282.405836
 51
311.864443
  0
ARC
  5
11D4
100
AcDbEntity
  8
90000_FRAME
370
    13
  6
CONTINUOUS
 62
     7
100
AcDbCircle
 10
299.333375
 20
149.56501
 30
0.0
 40
0.605925
100
AcDbArc
 50
154.440035
 51
221.82017
  0
ARC
  5
11D5
100
AcDbEntity
  8
90000_FRAME
370
    13
  6
CONTINUOUS
 62
     7
100
AcDbCircle
 10
299.491817
 20
149.406567
 30
0.0
 40
0.820618
100
AcDbArc
 50
102.828783
 51
149.225964
  0
ARC
  5
11D6
100
AcDbEntity
  8
90000_FRAME
370
    13
  6
CONTINUOUS
 62
     7
100
AcDbCircle
 10
300.325871
 20
145.921897
 30
0.0
 40
4.403673
100
AcDbArc
 50
84.040006
 51
103.342766
  0
ARC
  5
11D7
100
AcDbEntity
  8
90000_FRAME
370
    13
  6
CONTINUOUS
 62
     7
100
AcDbCircle
 10
299.643943
 20
141.087169
 30
0.0
 40
9.284747
100
AcDbArc
 50
70.262586
 51
82.952419
  0
ARC
  5
11D8
100
AcDbEntity
  8
90000_FRAME
370
    13
  6
CONTINUOUS
 62
     7
100
AcDbCircle
 10
298.615907
 20
150.430415
 30
0.0
 40
6.517512
100
AcDbArc
 50
247.530021
 51
280.757952
  0
ARC
  5
11D9
100
AcDbEntity
  8
90000_FRAME
370
    13
  6
CONTINUOUS
 62
     7
100
AcDbCircle
 10
285.845974
 20
113.927375
 30
0.0
 40
34.663217
100
AcDbArc
 50
65.341467
 51
67.399777
  0
ARC
  5
11DA
100
AcDbEntity
  8
90000_FRAME
370
    13
  6
CONTINUOUS
 62
     7
100
AcDbCircle
 10
307.437699
 20
165.512227
 30
0.0
 40
21.258328
100
AcDbArc
 50
242.86201
 51
247.104203
  0
ARC
  5
11DB
100
AcDbEntity
  8
90000_FRAME
370
    13
  6
CONTINUOUS
 62
     7
100
AcDbCircle
 10
299.727896
 20
150.444364
 30
0.0
 40
4.332583
100
AcDbArc
 50
227.311928
 51
242.704032
  0
ARC
  5
11DC
100
AcDbEntity
  8
90000_FRAME
370
    13
  6
CONTINUOUS
 62
     7
100
AcDbCircle
 10
298.519835
 20
149.033009
 30
0.0
 40
2.477043
100
AcDbArc
 50
194.795219
 51
225.717655
  0
ARC
  5
11DD
100
AcDbEntity
  8
90000_FRAME
370
    13
  6
CONTINUOUS
 62
     7
100
AcDbCircle
 10
298.644151
 20
149.113449
 30
0.0
 40
2.618184
100
AcDbArc
 50
164.197486
 51
195.802514
  0
ARC
  5
11DE
100
AcDbEntity
  8
90000_FRAME
370
    13
  6
CONTINUOUS
 62
     7
100
AcDbCircle
 10
299.758198
 20
147.336915
 30
0.0
 40
4.73385
100
AcDbArc
 50
86.221802
 51
120.42726
  0
ARC
  5
11DF
100
AcDbEntity
  8
90000_FRAME
370
    13
  6
CONTINUOUS
 62
     7
100
AcDbCircle
 10
299.220485
 20
133.944579
 30
0.0
 40
18.13581
100
AcDbArc
 50
78.682705
 51
87.31476
  0
ARC
  5
11E0
100
AcDbEntity
  8
90000_FRAME
370
    13
  6
CONTINUOUS
 62
     7
100
AcDbCircle
 10
298.308347
 20
149.328465
 30
0.0
 40
2.239495
100
AcDbArc
 50
142.813918
 51
167.152295
  0
ARC
  5
11E1
100
AcDbEntity
  8
90000_FRAME
370
    13
  6
CONTINUOUS
 62
     7
100
AcDbCircle
 10
298.998965
 20
148.715301
 30
0.0
 40
3.161093
100
AcDbArc
 50
121.214095
 51
141.525477
  0
ARC
  5
11E2
100
AcDbEntity
  8
90000_FRAME
370
    13
  6
CONTINUOUS
 62
     7
100
AcDbCircle
 10
300.153314
 20
150.337416
 30
0.0
 40
1.732255
100
AcDbArc
 50
222.776039
 51
239.036243
  0
ARC
  5
11E3
100
AcDbEntity
  8
90000_FRAME
370
    13
  6
CONTINUOUS
 62
     7
100
AcDbCircle
 10
295.139895
 20
135.676871
 30
0.0
 40
13.717547
100
AcDbArc
 50
59.902027
 51
68.203648
  0
ARC
  5
11E4
100
AcDbEntity
  8
90000_FRAME
370
    13
  6
CONTINUOUS
 62
     7
100
AcDbCircle
 10
301.956884
 20
153.528644
 30
0.0
 40
5.397482
100
AcDbArc
 50
240.0482
 51
251.377967
  0
ARC
  5
11E5
100
AcDbEntity
  8
90000_FRAME
370
    13
  6
CONTINUOUS
 62
     7
100
AcDbCircle
 10
300.625969
 20
145.214847
 30
0.0
 40
2.866895
100
AcDbArc
 50
315.890455
 51
333.522926
  0
ARC
  5
11E6
100
AcDbEntity
  8
90000_FRAME
370
    13
  6
CONTINUOUS
 62
     7
100
AcDbCircle
 10
300.635246
 20
145.108033
 30
0.0
 40
2.812457
100
AcDbArc
 50
335.386797
 51
24.391512
  0
ARC
  5
11E7
100
AcDbEntity
  8
90000_FRAME
370
    13
  6
CONTINUOUS
 62
     7
100
AcDbCircle
 10
300.490836
 20
144.95232
 30
0.0
 40
3.009405
100
AcDbArc
 50
25.956292
 51
59.483483
  0
LINE
  5
11E8
100
AcDbEntity
  8
90000_FRAME
370
    13
  6
CONTINUOUS
 62
     7
100
AcDbLine
 10
240.939464
 20
142.506405
 30
0.0
 11
240.939464
 21
144.407713
 31
0.0
  0
LINE
  5
11E9
100
AcDbEntity
  8
90000_FRAME
370
    13
  6
CONTINUOUS
 62
     7
100
AcDbLine
 10
247.594041
 20
149.826439
 30
0.0
 11
247.594041
 21
151.727747
 31
0.0
  0
ARC
  5
11EA
100
AcDbEntity
  8
90000_FRAME
370
    13
  6
CONTINUOUS
 62
     7
100
AcDbCircle
 10
244.348747
 20
146.230591
 30
0.0
 40
2.223239
100
AcDbArc
 50
277.709996
 51
295.688493
  0
ARC
  5
11EB
100
AcDbEntity
  8
90000_FRAME
370
    13
  6
CONTINUOUS
 62
     7
100
AcDbCircle
 10
244.917367
 20
144.78094
 30
0.0
 40
0.680338
100
AcDbArc
 50
305.503221
 51
72.46529
  0
ARC
  5
11EC
100
AcDbEntity
  8
90000_FRAME
370
    13
  6
CONTINUOUS
 62
     7
100
AcDbCircle
 10
243.785379
 20
151.584354
 30
0.0
 40
9.513589
100
AcDbArc
 50
252.59392
 51
280.98166
  0
ARC
  5
11ED
100
AcDbEntity
  8
90000_FRAME
370
    13
  6
CONTINUOUS
 62
     7
100
AcDbCircle
 10
244.69505
 20
146.348326
 30
0.0
 40
4.201453
100
AcDbArc
 50
282.405836
 51
311.864443
  0
ARC
  5
11EE
100
AcDbEntity
  8
90000_FRAME
370
    13
  6
CONTINUOUS
 62
     7
100
AcDbCircle
 10
244.147921
 20
149.56501
 30
0.0
 40
0.605925
100
AcDbArc
 50
154.440035
 51
221.82017
  0
ARC
  5
11EF
100
AcDbEntity
  8
90000_FRAME
370
    13
  6
CONTINUOUS
 62
     7
100
AcDbCircle
 10
244.306363
 20
149.406567
 30
0.0
 40
0.820618
100
AcDbArc
 50
102.828783
 51
149.225964
  0
ARC
  5
11F0
100
AcDbEntity
  8
90000_FRAME
370
    13
  6
CONTINUOUS
 62
     7
100
AcDbCircle
 10
245.140417
 20
145.921897
 30
0.0
 40
4.403673
100
AcDbArc
 50
84.040006
 51
103.342766
  0
ARC
  5
11F1
100
AcDbEntity
  8
90000_FRAME
370
    13
  6
CONTINUOUS
 62
     7
100
AcDbCircle
 10
244.458489
 20
141.087169
 30
0.0
 40
9.284747
100
AcDbArc
 50
70.262586
 51
82.952419
  0
ARC
  5
11F2
100
AcDbEntity
  8
90000_FRAME
370
    13
  6
CONTINUOUS
 62
     7
100
AcDbCircle
 10
243.430453
 20
150.430415
 30
0.0
 40
6.517512
100
AcDbArc
 50
247.530021
 51
280.757952
  0
ARC
  5
11F3
100
AcDbEntity
  8
90000_FRAME
370
    13
  6
CONTINUOUS
 62
     7
100
AcDbCircle
 10
230.66052
 20
113.927375
 30
0.0
 40
34.663217
100
AcDbArc
 50
65.341467
 51
67.399777
  0
ARC
  5
11F4
100
AcDbEntity
  8
90000_FRAME
370
    13
  6
CONTINUOUS
 62
     7
100
AcDbCircle
 10
252.252245
 20
165.512227
 30
0.0
 40
21.258328
100
AcDbArc
 50
242.86201
 51
247.104203
  0
ARC
  5
11F5
100
AcDbEntity
  8
90000_FRAME
370
    13
  6
CONTINUOUS
 62
     7
100
AcDbCircle
 10
244.542442
 20
150.444364
 30
0.0
 40
4.332583
100
AcDbArc
 50
227.311928
 51
242.704032
  0
ARC
  5
11F6
100
AcDbEntity
  8
90000_FRAME
370
    13
  6
CONTINUOUS
 62
     7
100
AcDbCircle
 10
243.334381
 20
149.033009
 30
0.0
 40
2.477043
100
AcDbArc
 50
194.795219
 51
225.717655
  0
ARC
  5
11F7
100
AcDbEntity
  8
90000_FRAME
370
    13
  6
CONTINUOUS
 62
     7
100
AcDbCircle
 10
244.572744
 20
147.336915
 30
0.0
 40
4.73385
100
AcDbArc
 50
86.221802
 51
120.42726
  0
ARC
  5
11F8
100
AcDbEntity
  8
90000_FRAME
370
    13
  6
CONTINUOUS
 62
     7
100
AcDbCircle
 10
244.035031
 20
133.944579
 30
0.0
 40
18.13581
100
AcDbArc
 50
78.682705
 51
87.31476
  0
ARC
  5
11F9
100
AcDbEntity
  8
90000_FRAME
370
    13
  6
CONTINUOUS
 62
     7
100
AcDbCircle
 10
243.813511
 20
148.715301
 30
0.0
 40
3.161093
100
AcDbArc
 50
121.214095
 51
141.525477
  0
ARC
  5
11FA
100
AcDbEntity
  8
90000_FRAME
370
    13
  6
CONTINUOUS
 62
     7
100
AcDbCircle
 10
244.96786
 20
150.337416
 30
0.0
 40
1.732255
100
AcDbArc
 50
222.776039
 51
239.036243
  0
ARC
  5
11FB
100
AcDbEntity
  8
90000_FRAME
370
    13
  6
CONTINUOUS
 62
     7
100
AcDbCircle
 10
239.954441
 20
135.676871
 30
0.0
 40
13.717547
100
AcDbArc
 50
59.902027
 51
68.203648
  0
ARC
  5
11FC
100
AcDbEntity
  8
90000_FRAME
370
    13
  6
CONTINUOUS
 62
     7
100
AcDbCircle
 10
246.77143
 20
153.528644
 30
0.0
 40
5.397482
100
AcDbArc
 50
240.0482
 51
251.377967
  0
ARC
  5
11FD
100
AcDbEntity
  8
90000_FRAME
370
    13
  6
CONTINUOUS
 62
     7
100
AcDbCircle
 10
245.440515
 20
145.214847
 30
0.0
 40
2.866895
100
AcDbArc
 50
315.890455
 51
333.522926
  0
ARC
  5
11FE
100
AcDbEntity
  8
90000_FRAME
370
    13
  6
CONTINUOUS
 62
     7
100
AcDbCircle
 10
245.449792
 20
145.108033
 30
0.0
 40
2.812457
100
AcDbArc
 50
335.386797
 51
24.391512
  0
ARC
  5
11FF
100
AcDbEntity
  8
90000_FRAME
370
    13
  6
CONTINUOUS
 62
     7
100
AcDbCircle
 10
245.305382
 20
144.95232
 30
0.0
 40
3.009405
100
AcDbArc
 50
25.956292
 51
59.483483
  0
LINE
  5
1200
100
AcDbEntity
  8
90000_FRAME
370
    13
  6
CONTINUOUS
 62
     7
100
AcDbLine
 10
241.323121
 20
150.661201
 30
0.0
 11
241.871253
 21
151.209347
 31
0.0
  0
ARC
  5
1201
100
AcDbEntity
  8
90000_FRAME
370
    13
  6
CONTINUOUS
 62
     7
100
AcDbCircle
 10
243.458697
 20
149.113449
 30
0.0
 40
2.618184
100
AcDbArc
 50
164.197486
 51
195.802514
  0
ARC
  5
1202
100
AcDbEntity
  8
90000_FRAME
370
    13
  6
CONTINUOUS
 62
     7
100
AcDbCircle
 10
243.122892
 20
149.328465
 30
0.0
 40
2.239495
100
AcDbArc
 50
142.813918
 51
167.152295
  0
TEXT
  5
1203
100
AcDbEntity
  8
90000_FRAME
370
    13
  6
CONTINUOUS
 62
     7
100
AcDbText
 10
464.0
 20
132.7938
 30
0.0
 40
4.4
  1
1:2
 41
0.9
100
AcDbText
  0
TEXT
  5
1204
100
AcDbEntity
  8
90000_FRAME
370
    13
  6
CONTINUOUS
 62
     7
100
AcDbText
 10
324.0
 20
144.4
 30
0.0
 40
4.4
  1

 41
0.784213
100
AcDbText
  0
ENDSEC
  0
SECTION
  2
OBJECTS
  0
DICTIONARY
  5
FE4
100
AcDbDictionary
280
     0
281
     1
  3
ACAD_GROUP
350
FE5
  3
ACAD_MLINESTYLE
350
FE6
  0
DICTIONARY
  5
FE5
102
{ACAD_REACTORS
330
FE4
102
}
100
AcDbDictionary
280
     0
281
     1
  0
DICTIONARY
  5
FE6
102
{ACAD_REACTORS
330
FE4
102
}
100
AcDbDictionary
280
     0
281
     1
  3
Standard
350
FE7
  0
MLINESTYLE
  5
FE7
102
{ACAD_REACTORS
330
FE6
102
}
100
AcDbMlineStyle
  2
Standard
 70
     0
  3

 62
     0
 51
90.0
 52
90.0
 71
     2
 49
0.5
 62
   256
  6
ByLayer
 49
-0.5
 62
   256
  6
ByLayer
  0
ENDSEC
  0
EOF
