  0
SECTION
  2
HEADER
  9
$ACADVER
  1
AC1015
  9
$ACADMAINTVER
 70
     6
  9
$DWGCODEPAGE
  3
ANSI_1252
  9
$INSBASE
 10
0.0
 20
0.0
 30
0.0
  9
$EXTMIN
 10
69.395417
 20
287.976483
 30
-1.0
  9
$EXTMAX
 10
1026.514554
 20
492.804657
 30
0.7
  9
$LIMMIN
 10
0.0
 20
0.0
  9
$LIMMAX
 10
12.0
 20
9.0
  9
$ORTHOMODE
 70
     0
  9
$REGENMODE
 70
     1
  9
$FILLMODE
 70
     1
  9
$QTEXTMODE
 70
     0
  9
$MIRRTEXT
 70
     0
  9
$LTSCALE
 40
20.0
  9
$ATTMODE
 70
     1
  9
$TEXTSIZE
 40
0.2
  9
$TRACEWID
 40
0.05
  9
$TEXTSTYLE
  7
STANDARD
  9
$CLAYER
  8
0
  9
$CELTYPE
  6
ByLayer
  9
$CECOLOR
 62
   256
  9
$CELTSCALE
 40
1.0
  9
$DISPSILH
 70
     0
  9
$DIMSCALE
 40
1.0
  9
$DIMASZ
 40
0.18
  9
$DIMEXO
 40
0.0625
  9
$DIMDLI
 40
0.38
  9
$DIMRND
 40
0.0
  9
$DIMDLE
 40
0.0
  9
$DIMEXE
 40
0.18
  9
$DIMTP
 40
0.0
  9
$DIMTM
 40
0.0
  9
$DIMTXT
 40
0.18
  9
$DIMCEN
 40
0.09
  9
$DIMTSZ
 40
0.0
  9
$DIMTOL
 70
     0
  9
$DIMLIM
 70
     0
  9
$DIMTIH
 70
     1
  9
$DIMTOH
 70
     1
  9
$DIMSE1
 70
     0
  9
$DIMSE2
 70
     0
  9
$DIMTAD
 70
     0
  9
$DIMZIN
 70
     0
  9
$DIMBLK
  1

  9
$DIMASO
 70
     1
  9
$DIMSHO
 70
     1
  9
$DIMPOST
  1

  9
$DIMAPOST
  1

  9
$DIMALT
 70
     0
  9
$DIMALTD
 70
     2
  9
$DIMALTF
 40
25.4
  9
$DIMLFAC
 40
1.0
  9
$DIMTOFL
 70
     0
  9
$DIMTVP
 40
0.0
  9
$DIMTIX
 70
     0
  9
$DIMSOXD
 70
     0
  9
$DIMSAH
 70
     0
  9
$DIMBLK1
  1

  9
$DIMBLK2
  1

  9
$DIMSTYLE
  2
STANDARD
  9
$DIMCLRD
 70
     0
  9
$DIMCLRE
 70
     0
  9
$DIMCLRT
 70
     0
  9
$DIMTFAC
 40
1.0
  9
$DIMGAP
 40
0.09
  9
$DIMJUST
 70
     0
  9
$DIMSD1
 70
     0
  9
$DIMSD2
 70
     0
  9
$DIMTOLJ
 70
     1
  9
$DIMTZIN
 70
     0
  9
$DIMALTZ
 70
     0
  9
$DIMALTTZ
 70
     0
  9
$DIMUPT
 70
     0
  9
$DIMDEC
 70
     4
  9
$DIMTDEC
 70
     4
  9
$DIMALTU
 70
     2
  9
$DIMALTTD
 70
     2
  9
$DIMTXSTY
  7
STANDARD
  9
$DIMAUNIT
 70
     0
  9
$DIMADEC
 70
     0
  9
$DIMALTRND
 40
0.0
  9
$DIMAZIN
 70
     0
  9
$DIMDSEP
 70
     0
  9
$DIMATFIT
 70
     3
  9
$DIMFRAC
 70
     0
  9
$DIMLDRBLK
  1

  9
$DIMLUNIT
 70
     2
  9
$DIMLWD
 70
     0
  9
$DIMLWE
 70
     0
  9
$DIMTMOVE
 70
     0
  9
$LUNITS
 70
     2
  9
$LUPREC
 70
     4
  9
$SKETCHINC
 40
0.1
  9
$FILLETRAD
 40
0.0
  9
$AUNITS
 70
     0
  9
$AUPREC
 70
     0
  9
$MENU
  1
.
  9
$ELEVATION
 40
0.0
  9
$PELEVATION
 40
0.0
  9
$THICKNESS
 40
0.0
  9
$LIMCHECK
 70
     0
  9
$CHAMFERA
 40
0.0
  9
$CHAMFERB
 40
0.0
  9
$CHAMFERC
 40
0.0
  9
$CHAMFERD
 40
0.0
  9
$SKPOLY
 70
     0
  9
$TDCREATE
 40
2453353.758792454
  9
$TDUCREATE
 40
0.000000000
  9
$TDUPDATE
 40
0.000000000
  9
$TDUUPDATE
 40
2447892.958333334
  9
$TDINDWG
 40
19583144.0627810880
  9
$TDUSRTIMER
 40
0.0000000000
  9
$USRTIMER
 70
     1
  9
$ANGBASE
 50
0.0
  9
$ANGDIR
 70
     0
  9
$PDMODE
 70
     0
  9
$PDSIZE
 40
0.0
  9
$PLINEWID
 40
0.0
  9
$SPLFRAME
 70
     0
  9
$SPLINETYPE
 70
     6
  9
$SPLINESEGS
 70
     8
  9
$HANDSEED
  5
1598
  9
$SURFTAB1
 70
     6
  9
$SURFTAB2
 70
     6
  9
$SURFTYPE
 70
     6
  9
$SURFU
 70
     6
  9
$SURFV
 70
     6
  9
$UCSBASE
  2

  9
$UCSNAME
  2

  9
$UCSORG
 10
0.0
 20
0.0
 30
0.0
  9
$UCSXDIR
 10
1.0
 20
0.0
 30
0.0
  9
$UCSYDIR
 10
0.0
 20
1.0
 30
0.0
  9
$UCSORTHOREF
  2

  9
$UCSORTHOVIEW
 70
     0
  9
$UCSORGTOP
 10
0.0
 20
0.0
 30
0.0
  9
$UCSORGBOTTOM
 10
0.0
 20
0.0
 30
0.0
  9
$UCSORGLEFT
 10
0.0
 20
0.0
 30
0.0
  9
$UCSORGRIGHT
 10
0.0
 20
0.0
 30
0.0
  9
$UCSORGFRONT
 10
0.0
 20
0.0
 30
0.0
  9
$UCSORGBACK
 10
0.0
 20
0.0
 30
0.0
  9
$PUCSBASE
  2

  9
$PUCSNAME
  2

  9
$PUCSORG
 10
0.0
 20
0.0
 30
0.0
  9
$PUCSXDIR
 10
1.0
 20
0.0
 30
0.0
  9
$PUCSYDIR
 10
0.0
 20
1.0
 30
0.0
  9
$PUCSORTHOREF
  2

  9
$PUCSORTHOVIEW
 70
     0
  9
$PUCSORGTOP
 10
0.0
 20
0.0
 30
0.0
  9
$PUCSORGBOTTOM
 10
0.0
 20
0.0
 30
0.0
  9
$PUCSORGLEFT
 10
0.0
 20
0.0
 30
0.0
  9
$PUCSORGRIGHT
 10
0.0
 20
0.0
 30
0.0
  9
$PUCSORGFRONT
 10
0.0
 20
0.0
 30
0.0
  9
$PUCSORGBACK
 10
0.0
 20
0.0
 30
0.0
  9
$USERI1
 70
     0
  9
$USERI2
 70
     0
  9
$USERI3
 70
     0
  9
$USERI4
 70
     0
  9
$USERI5
 70
     0
  9
$USERR1
 40
0.0
  9
$USERR2
 40
0.0
  9
$USERR3
 40
0.0
  9
$USERR4
 40
0.0
  9
$USERR5
 40
0.0
  9
$WORLDVIEW
 70
     1
  9
$SHADEDGE
 70
     3
  9
$SHADEDIF
 70
    70
  9
$TILEMODE
 70
     1
  9
$MAXACTVP
 70
    64
  9
$PINSBASE
 10
0.0
 20
0.0
 30
0.0
  9
$PLIMCHECK
 70
     0
  9
$PEXTMIN
 10
0.0
 20
0.0
 30
0.0
  9
$PEXTMAX
 10
0.0
 20
0.0
 30
0.0
  9
$PLIMMIN
 10
0.0
 20
0.0
  9
$PLIMMAX
 10
0.0
 20
0.0
  9
$UNITMODE
 70
     0
  9
$VISRETAIN
 70
     1
  9
$PLINEGEN
 70
     0
  9
$PSLTSCALE
 70
     1
  9
$TREEDEPTH
 70
  3020
  9
$CMLSTYLE
  2
Standard
  9
$CMLJUST
 70
     0
  9
$CMLSCALE
 40
1.0
  9
$PROXYGRAPHICS
 70
     0
  9
$MEASUREMENT
 70
     0
  9
$CELWEIGHT
370
     0
  9
$ENDCAPS
280
     0
  9
$JOINSTYLE
280
     0
  9
$LWDISPLAY
290
     0
  9
$INSUNITS
 70
     0
  9
$HYPERLINKBASE
  1

  9
$STYLESHEET
  1

  9
$XEDIT
290
     1
  9
$CEPSNTYPE
380
     0
  9
$PSTYLEMODE
290
     1
  9
$FINGERPRINTGUID
  2

  9
$VERSIONGUID
  2

  9
$EXTNAMES
290
     1
  9
$PSVPSCALE
 40
0.0
  0
ENDSEC
  0
SECTION
  2
CLASSES
  0
CLASS
  1
LWPOLYLINE
  2
AcDbPolyline
  3
AutoCAD 2000
 90
        0
280
     0
281
     1
  0
CLASS
  1
IMAGE
  2
AcDbRasterImage
  3
ISM
 90
      127
280
     0
281
     1
  0
CLASS
  1
OLE2FRAME
  2
AcDbOle2Frame
  3
AutoCAD 2000
 90
        0
280
     0
281
     1
  0
CLASS
  1
HATCH
  2
AcDbHatch
  3
AutoCAD 2000
 90
        0
280
     0
281
     1
  0
CLASS
  1
DICTIONARYVAR
  2
AcDbDictionaryVar
  3
AutoCAD 2000
 90
        0
280
     0
281
     0
  0
CLASS
  1
RASTERVARIABLES
  2
AcDbRasterVariables
  3
ISM
 90
        0
280
     0
281
     0
  0
CLASS
  1
IMAGEDEF
  2
AcDbRasterImageDef
  3
ISM
 90
        0
280
     0
281
     0
  0
CLASS
  1
IMAGEDEF_REACTOR
  2
AcDbRasterImageDefReactor
  3
ISM
 90
        1
280
     0
281
     0
  0
CLASS
  1
IDBUFFER
  2
AcDbIdBuffer
  3
AutoCAD 2000
 90
        0
280
     0
281
     0
  0
CLASS
  1
SPATIAL_FILTER
  2
AcDbSpatialFilter
  3
AutoCAD 2000
 90
        0
280
     0
281
     0
  0
CLASS
  1
XRECORD
  2
AcDbXrecord
  3
AutoCAD 2000
 90
        0
280
     0
281
     0
  0
CLASS
  1
SORTENTSTABLE
  2
AcDbSortentsTable
  3
AutoCAD 2000
 90
        0
280
     0
281
     0
  0
CLASS
  1
LAYER_INDEX
  2
AcDbLayerIndex
  3
AutoCAD 2000
 90
        0
280
     0
281
     0
  0
CLASS
  1
SPATIAL_INDEX
  2
AcDbSpatialIndex
  3
AutoCAD 2000
 90
        0
280
     0
281
     0
  0
CLASS
  1
OBJECT_PTR
  2
CAseDLPNTableRecord
  3
"ASE-LPNTableRecord"
 90
        1
280
     0
281
     0
  0
CLASS
  1
LAYOUT
  2
AcDbLayout
  3
AutoCAD 2000
 90
        0
280
     0
281
     0
  0
CLASS
  1
PLOTSETTINGS
  2
AcDbPlotSettings
  3
AutoCAD 2000
 90
        0
280
     0
281
     0
  0
CLASS
  1
ACDBDICTIONARYWDFLT
  2
AcDbDictionaryWithDefault
  3
AutoCAD 2000
 90
        0
280
     0
281
     0
  0
CLASS
  1
ACDBPLACEHOLDER
  2
AcDbPlaceHolder
  3
AutoCAD 2000
 90
        0
280
     0
281
     0
  0
CLASS
  1
VBA_PROJECT
  2
AcDbVbaProject
  3
acadvba
 90
        0
280
     0
281
     0
  0
CLASS
  1
WIPEOUT
  2
AcDbWipeout
  3
WipeOut|AutoCAD Express Tool|expresstools@autodesk.com
 90
      127
280
     0
281
     1
  0
CLASS
  1
WIPEOUTVARIABLES
  2
AcDbWipeoutVariables
  3
WipeOut|AutoCAD Express Tool|expresstools@autodesk.com
 90
        0
280
     0
281
     0
  0
CLASS
  1
RTEXT
  2
RText
  3
RText|AutoCAD Express Tool|expresstools@autodesk.com
 90
        0
280
     0
281
     1
  0
CLASS
  1
ARCALIGNEDTEXT
  2
AcDbArcAlignedText
  3
ATEXT|AutoCAD Express Tool|expresstools@autodesk.com
 90
        0
280
     0
281
     1
  0
ENDSEC
  0
SECTION
  2
TABLES
  0
TABLE
  2
VPORT
  5
FB2
100
AcDbSymbolTable
 70
     1
  0
VPORT
  5
FD1
100
AcDbSymbolTableRecord
100
AcDbViewportTableRecord
  2
*ACTIVE
 70
     0
 10
0.0
 20
0.0
 11
1.0
 21
1.0
 12
450.328833
 22
266.374849
 13
0.0
 23
0.0
 14
0.5
 24
0.5
 15
0.5
 25
0.5
 16
0.0
 26
0.0
 36
1.0
 17
0.0
 27
0.0
 37
0.0
 40
620.078606
 41
1.701534
 42
50.0
 43
0.0
 44
0.0
 50
0.0
 51
0.0
 71
    16
 72
  1000
 73
     1
 74
     3
 75
     0
 76
     0
 77
     0
 78
     0
281
     0
 65
     0
110
0.0
120
0.0
130
0.0
111
1.0
121
0.0
131
0.0
112
0.0
122
1.0
132
0.0
345
0
346
0
 79
     0
146
0.0
  0
ENDTAB
  0
TABLE
  2
LTYPE
  5
FAF
100
AcDbSymbolTable
 70
     6
  0
LTYPE
  5
FB8
100
AcDbSymbolTableRecord
100
AcDbLinetypeTableRecord
  2
ByBlock
 70
    64
  3

 72
    65
 73
     0
 40
0.0
  0
LTYPE
  5
FB9
100
AcDbSymbolTableRecord
100
AcDbLinetypeTableRecord
  2
ByLayer
 70
    64
  3

 72
    65
 73
     0
 40
0.0
  0
LTYPE
  5
FBA
100
AcDbSymbolTableRecord
100
AcDbLinetypeTableRecord
  2
CONTINUOUS
 70
     0
  3
Solid line
 72
    65
 73
     0
 40
0.0
  0
LTYPE
  5
FBB
100
AcDbSymbolTableRecord
100
AcDbLinetypeTableRecord
  2
CENTER
 70
     0
  3
____ _ ____ _ ____ _ ____ _ ____ _ ____ _ ____
 72
    65
 73
     4
 40
0.6
 49
0.375
 74
     0
 49
-0.075
 74
     0
 49
0.075
 74
     0
 49
-0.075
 74
     0
  0
LTYPE
  5
FBC
100
AcDbSymbolTableRecord
100
AcDbLinetypeTableRecord
  2
ACAD_ISO02W100
 70
     0
  3
ISO Strichlinie __ __ __ __ __ __ __ __ __ __ _
 72
    65
 73
     2
 40
15.0
 49
12.0
 74
     0
 49
-3.0
 74
     0
  0
LTYPE
  5
FBD
100
AcDbSymbolTableRecord
100
AcDbLinetypeTableRecord
  2
DASHED
 70
     0
  3
_ _ _ _ _ _ _ _ _ _ _ _ _ _ _ _ _ _ _ _ _ _ _ _
 72
    65
 73
     2
 40
0.375
 49
0.25
 74
     0
 49
-0.125
 74
     0
  0
ENDTAB
  0
TABLE
  2
LAYER
  5
FAD
100
AcDbSymbolTable
 70
    10
  0
LAYER
  5
FBE
100
AcDbSymbolTableRecord
100
AcDbLayerTableRecord
  2
0
 70
     0
 62
     7
  6
CONTINUOUS
290
     1
370
    -3
390
0
  0
LAYER
  5
FBF
100
AcDbSymbolTableRecord
100
AcDbLayerTableRecord
  2
90000_FRAME
 70
     0
 62
     7
  6
CONTINUOUS
290
     1
370
    -3
390
0
  0
LAYER
  5
FC0
100
AcDbSymbolTableRecord
100
AcDbLayerTableRecord
  2
91000_TIP
 70
     0
 62
     7
  6
CONTINUOUS
290
     1
370
    -3
390
0
  0
LAYER
  5
FC1
100
AcDbSymbolTableRecord
100
AcDbLayerTableRecord
  2
10000_FRONT
 70
     0
 62
     7
  6
CONTINUOUS
290
     1
370
    -3
390
0
  0
LAYER
  5
FC2
100
AcDbSymbolTableRecord
100
AcDbLayerTableRecord
  2
11000_LEFT
 70
     0
 62
     7
  6
CONTINUOUS
290
     1
370
    -3
390
0
  0
LAYER
  5
FC5
100
AcDbSymbolTableRecord
100
AcDbLayerTableRecord
  2
DEFPOINTS
 70
     0
 62
     7
  6
CONTINUOUS
290
     0
370
    -3
390
0
  0
LAYER
  5
FC6
100
AcDbSymbolTableRecord
100
AcDbLayerTableRecord
  2
10100_FRONT_DIM
 70
     0
 62
     7
  6
CONTINUOUS
290
     1
370
    -3
390
0
  0
LAYER
  5
FC7
100
AcDbSymbolTableRecord
100
AcDbLayerTableRecord
  2
11100_LEFT_DIM
 70
     0
 62
     7
  6
CONTINUOUS
290
     1
370
    -3
390
0
  0
LAYER
  5
FCF
100
AcDbSymbolTableRecord
100
AcDbLayerTableRecord
  2
15000_BACK
 70
     0
 62
     7
  6
CONTINUOUS
290
     1
370
    -3
390
0
  0
LAYER
  5
FD0
100
AcDbSymbolTableRecord
100
AcDbLayerTableRecord
  2
15100_BACK_DIM
 70
     0
 62
     7
  6
CONTINUOUS
290
     1
370
    -3
390
0
  0
ENDTAB
  0
TABLE
  2
STYLE
  5
FAE
100
AcDbSymbolTable
 70
     1
  0
STYLE
  5
FD5
100
AcDbSymbolTableRecord
100
AcDbTextStyleTableRecord
  2
STANDARD
 70
     0
 40
0.0
 41
1.0
 50
0.0
 71
     0
 42
0.2
  3
txt.shx
  4

  0
ENDTAB
  0
TABLE
  2
VIEW
  5
FB0
100
AcDbSymbolTable
 70
     0
  0
ENDTAB
  0
TABLE
  2
UCS
  5
FB1
100
AcDbSymbolTable
 70
     0
  0
ENDTAB
  0
TABLE
  2
APPID
  5
FB3
100
AcDbSymbolTable
 70
     3
  0
APPID
  5
FD2
100
AcDbSymbolTableRecord
100
AcDbRegAppTableRecord
  2
ACAD
 70
     0
  0
APPID
  5
FD3
100
AcDbSymbolTableRecord
100
AcDbRegAppTableRecord
  2
AUSTER_ANSICHT
 70
     0
  0
APPID
  5
FD4
100
AcDbSymbolTableRecord
100
AcDbRegAppTableRecord
  2
AUSTER_FOLIE
 70
     0
  0
ENDTAB
  0
TABLE
  2
DIMSTYLE
  5
FB4
100
AcDbSymbolTable
 70
     3
100
AcDbDimStyleTable
 71
     0
  0
DIMSTYLE
105
FDF
100
AcDbSymbolTableRecord
100
AcDbDimStyleTableRecord
  2
STANDARD
 70
     0
  3

  4

 40
1.0
 41
0.18
 42
0.0625
 43
0.38
 44
0.18
 45
0.0
 46
0.0
 47
0.0
 48
0.0
 71
     0
 72
     0
 73
     1
 74
     1
 75
     0
 76
     0
 77
     0
 78
     0
 79
     0
140
0.18
141
0.09
142
0.0
143
25.4
144
1.0
145
0.0
146
1.0
147
0.09
148
0.0
170
     0
171
     2
172
     0
173
     0
174
     0
175
     0
176
     0
177
     0
178
     0
179
     0
271
     4
272
     4
273
     2
274
     2
275
     0
276
     0
277
     2
278
    46
279
     0
280
     0
281
     0
282
     0
283
     1
284
     0
285
     0
286
     0
288
     0
289
     3
340
FD5
341
0
342
0
343
0
344
0
371
    -2
372
    -2
  0
DIMSTYLE
105
FE0
100
AcDbSymbolTableRecord
100
AcDbDimStyleTableRecord
  2
DSTYLE1
 70
     0
  3

  4

 40
1.0
 41
3.0
 42
0.0
 43
0.38
 44
1.0
 45
0.0
 46
0.0
 47
0.0
 48
0.0
 71
     0
 72
     0
 73
     0
 74
     0
 75
     0
 76
     0
 77
     1
 78
     3
 79
     0
140
2.5
141
0.09
142
0.0
143
0.03937
144
1.0
145
0.0
146
1.0
147
1.0
148
0.0
170
     0
171
     2
172
     0
173
     0
174
     0
175
     0
176
     0
177
     0
178
     0
179
     0
271
     4
272
     4
273
     2
274
     2
275
     0
276
     0
277
     2
278
    46
279
     0
280
     0
281
     0
282
     0
283
     1
284
     0
285
     0
286
     0
288
     0
289
     3
340
FD5
341
0
342
0
343
0
344
0
371
    -2
372
    -2
  0
DIMSTYLE
105
FE1
100
AcDbSymbolTableRecord
100
AcDbDimStyleTableRecord
  2
H035
 70
     0
  3

  4

 40
0.0
 41
3.5
 42
0.0
 43
3.75
 44
2.0
 45
0.0
 46
0.0
 47
0.0
 48
0.0
 71
     0
 72
     0
 73
     0
 74
     0
 75
     0
 76
     0
 77
     1
 78
     8
 79
     0
140
3.5
141
2.5
142
0.0
143
0.039
144
1.0
145
0.0
146
1.0
147
0.5
148
0.0
170
     0
171
     4
172
     1
173
     0
174
     0
175
     0
176
   256
177
     7
178
     7
179
     0
271
     4
272
     4
273
     2
274
     2
275
     0
276
     0
277
     2
278
    46
279
     0
280
     0
281
     0
282
     0
283
     1
284
     0
285
     0
286
     0
288
     0
289
     3
340
FD5
341
0
342
0
343
0
344
0
371
    -2
372
    -2
  0
ENDTAB
  0
TABLE
  2
BLOCK_RECORD
  5
FDA
100
AcDbSymbolTable
 70
     2
  0
BLOCK_RECORD
  5
FD8
100
AcDbSymbolTableRecord
100
AcDbBlockTableRecord
  2
*Model_Space
340
0
  0
BLOCK_RECORD
  5
FD9
100
AcDbSymbolTableRecord
100
AcDbBlockTableRecord
  2
*Paper_Space
340
0
  0
BLOCK_RECORD
  5
FD6
100
AcDbSymbolTableRecord
100
AcDbBlockTableRecord
  2
$MODEL_SPACE
340
0
  0
BLOCK_RECORD
  5
FD7
100
AcDbSymbolTableRecord
100
AcDbBlockTableRecord
  2
$PAPER_SPACE
340
0
  0
ENDTAB
  0
ENDSEC
  0
SECTION
  2
BLOCKS
  0
BLOCK
  5
FDB
100
AcDbEntity
  8
0
390
0
100
AcDbBlockBegin
  2
*Model_Space
 70
     0
 10
0.0
 20
0.0
 30
0.0
  3
*Model_Space
  1

  0
ENDBLK
  5
FDC
100
AcDbEntity
  8
0
390
0
100
AcDbBlockEnd
  0
BLOCK
  5
FDD
100
AcDbEntity
 67
     1
  8
0
390
0
100
AcDbBlockBegin
  2
*Paper_Space
 70
     0
 10
0.0
 20
0.0
 30
0.0
  3
*Paper_Space
  1

  0
ENDBLK
  5
FDE
100
AcDbEntity
 67
     1
  8
0
390
0
100
AcDbBlockEnd
  0
BLOCK
  5
FE2
100
AcDbEntity
  8
0
100
AcDbBlockBegin
  2
$MODEL_SPACE
 70
     0
 10
0.0
 20
0.0
 30
0.0
  3
$MODEL_SPACE
  1

  0
ENDBLK
  5
21
100
AcDbEntity
  8
0
100
AcDbBlockEnd
  0
BLOCK
  5
FE3
100
AcDbEntity
  8
0
100
AcDbBlockBegin
  2
$PAPER_SPACE
 70
     0
 10
0.0
 20
0.0
 30
0.0
  3
$PAPER_SPACE
  1

  0
ENDBLK
  5
76
100
AcDbEntity
  8
0
100
AcDbBlockEnd
  0
ENDSEC
  0
SECTION
  2
ENTITIES
  0
LINE
  5
FE9
100
AcDbEntity
  8
10000_FRONT
370
    25
390
0
  6
CONTINUOUS
 62
     7
100
AcDbLine
 10
466.925004
 20
1090.450001
 30
0.0
 11
466.925004
 21
1106.25
 31
0.0
  0
LINE
  5
FEA
100
AcDbEntity
  8
10000_FRONT
370
    25
390
0
  6
CONTINUOUS
 62
     7
100
AcDbLine
 10
466.925004
 20
1090.250008
 30
0.0
 11
466.925004
 21
1090.450001
 31
0.0
  0
LINE
  5
FEB
100
AcDbEntity
  8
10000_FRONT
370
    25
390
0
  6
CONTINUOUS
 62
     7
100
AcDbLine
 10
429.775005
 20
1101.003883
 30
0.0
 11
429.775007
 21
1100.25388
 31
0.0
  0
ARC
  5
FEC
100
AcDbEntity
  8
10000_FRONT
370
    25
390
0
  6
CONTINUOUS
 62
     7
100
AcDbCircle
 10
427.825005
 20
1101.003882
 30
0.0
 40
1.95
100
AcDbArc
 50
0.0
 51
135.885348
  0
ARC
  5
FED
100
AcDbEntity
  8
10000_FRONT
370
    25
390
0
  6
CONTINUOUS
 62
     7
100
AcDbCircle
 10
425.025005
 20
1101.003882
 30
0.0
 40
1.95
100
AcDbArc
 50
44.114644
 51
180.0
  0
LINE
  5
FEE
100
AcDbEntity
  8
10000_FRONT
370
    25
390
0
  6
CONTINUOUS
 62
     7
100
AcDbLine
 10
423.075003
 20
1100.25388
 30
0.0
 11
423.075005
 21
1101.003883
 31
0.0
  0
ARC
  5
FEF
100
AcDbEntity
  8
10000_FRONT
370
    25
390
0
  6
CONTINUOUS
 62
     7
100
AcDbCircle
 10
424.875004
 20
1100.253878
 30
0.0
 40
1.8
100
AcDbArc
 50
180.0
 51
329.441643
  0
ARC
  5
FF0
100
AcDbEntity
  8
10000_FRONT
370
    25
390
0
  6
CONTINUOUS
 62
     7
100
AcDbCircle
 10
427.975006
 20
1100.253879
 30
0.0
 40
1.8
100
AcDbArc
 50
210.55837
 51
0.0
  0
LINE
  5
FF1
100
AcDbEntity
  8
10000_FRONT
370
    25
390
0
  6
CONTINUOUS
 62
     7
100
AcDbLine
 10
436.975005
 20
1101.003883
 30
0.0
 11
436.975007
 21
1100.25388
 31
0.0
  0
ARC
  5
FF2
100
AcDbEntity
  8
10000_FRONT
370
    25
390
0
  6
CONTINUOUS
 62
     7
100
AcDbCircle
 10
435.025005
 20
1101.003882
 30
0.0
 40
1.95
100
AcDbArc
 50
0.0
 51
135.885352
  0
ARC
  5
FF3
100
AcDbEntity
  8
10000_FRONT
370
    25
390
0
  6
CONTINUOUS
 62
     7
100
AcDbCircle
 10
432.225005
 20
1101.003882
 30
0.0
 40
1.95
100
AcDbArc
 50
44.114648
 51
180.0
  0
LINE
  5
FF4
100
AcDbEntity
  8
10000_FRONT
370
    25
390
0
  6
CONTINUOUS
 62
     7
100
AcDbLine
 10
430.275004
 20
1100.25388
 30
0.0
 11
430.275005
 21
1101.003883
 31
0.0
  0
ARC
  5
FF5
100
AcDbEntity
  8
10000_FRONT
370
    25
390
0
  6
CONTINUOUS
 62
     7
100
AcDbCircle
 10
432.075004
 20
1100.253878
 30
0.0
 40
1.8
100
AcDbArc
 50
180.0
 51
329.44164
  0
ARC
  5
FF6
100
AcDbEntity
  8
10000_FRONT
370
    25
390
0
  6
CONTINUOUS
 62
     7
100
AcDbCircle
 10
435.175006
 20
1100.253879
 30
0.0
 40
1.8
100
AcDbArc
 50
210.558366
 51
0.0
  0
LINE
  5
FF7
100
AcDbEntity
  8
10000_FRONT
370
    25
390
0
  6
CONTINUOUS
 62
     7
100
AcDbLine
 10
444.175004
 20
1101.003883
 30
0.0
 11
444.175006
 21
1100.25388
 31
0.0
  0
ARC
  5
FF8
100
AcDbEntity
  8
10000_FRONT
370
    25
390
0
  6
CONTINUOUS
 62
     7
100
AcDbCircle
 10
442.225005
 20
1101.003882
 30
0.0
 40
1.95
100
AcDbArc
 50
0.0
 51
135.885337
  0
ARC
  5
FF9
100
AcDbEntity
  8
10000_FRONT
370
    25
390
0
  6
CONTINUOUS
 62
     7
100
AcDbCircle
 10
439.425005
 20
1101.003882
 30
0.0
 40
1.95
100
AcDbArc
 50
44.114632
 51
180.0
  0
LINE
  5
FFA
100
AcDbEntity
  8
10000_FRONT
370
    25
390
0
  6
CONTINUOUS
 62
     7
100
AcDbLine
 10
437.475003
 20
1100.25388
 30
0.0
 11
437.475005
 21
1101.003883
 31
0.0
  0
ARC
  5
FFB
100
AcDbEntity
  8
10000_FRONT
370
    25
390
0
  6
CONTINUOUS
 62
     7
100
AcDbCircle
 10
439.275004
 20
1100.253878
 30
0.0
 40
1.8
100
AcDbArc
 50
180.0
 51
329.441653
  0
ARC
  5
FFC
100
AcDbEntity
  8
10000_FRONT
370
    25
390
0
  6
CONTINUOUS
 62
     7
100
AcDbCircle
 10
442.375006
 20
1100.253879
 30
0.0
 40
1.8
100
AcDbArc
 50
210.558379
 51
0.0
  0
LINE
  5
FFD
100
AcDbEntity
  8
10000_FRONT
370
    25
390
0
  6
CONTINUOUS
 62
     7
100
AcDbLine
 10
451.375005
 20
1101.003883
 30
0.0
 11
451.375007
 21
1100.25388
 31
0.0
  0
ARC
  5
FFE
100
AcDbEntity
  8
10000_FRONT
370
    25
390
0
  6
CONTINUOUS
 62
     7
100
AcDbCircle
 10
449.425005
 20
1101.003882
 30
0.0
 40
1.95
100
AcDbArc
 50
0.0
 51
135.88536
  0
ARC
  5
FFF
100
AcDbEntity
  8
10000_FRONT
370
    25
390
0
  6
CONTINUOUS
 62
     7
100
AcDbCircle
 10
446.625005
 20
1101.003882
 30
0.0
 40
1.95
100
AcDbArc
 50
44.114655
 51
180.0
  0
LINE
  5
1000
100
AcDbEntity
  8
10000_FRONT
370
    25
390
0
  6
CONTINUOUS
 62
     7
100
AcDbLine
 10
444.675004
 20
1100.25388
 30
0.0
 11
444.675004
 21
1101.003883
 31
0.0
  0
ARC
  5
1001
100
AcDbEntity
  8
10000_FRONT
370
    25
390
0
  6
CONTINUOUS
 62
     7
100
AcDbCircle
 10
446.475004
 20
1100.253878
 30
0.0
 40
1.8
100
AcDbArc
 50
180.0
 51
329.441634
  0
ARC
  5
1002
100
AcDbEntity
  8
10000_FRONT
370
    25
390
0
  6
CONTINUOUS
 62
     7
100
AcDbCircle
 10
449.575006
 20
1100.253879
 30
0.0
 40
1.8
100
AcDbArc
 50
210.55836
 51
0.0
  0
LINE
  5
1003
100
AcDbEntity
  8
10000_FRONT
370
    25
390
0
  6
CONTINUOUS
 62
     7
100
AcDbLine
 10
458.575006
 20
1101.003883
 30
0.0
 11
458.575006
 21
1100.25388
 31
0.0
  0
ARC
  5
1004
100
AcDbEntity
  8
10000_FRONT
370
    25
390
0
  6
CONTINUOUS
 62
     7
100
AcDbCircle
 10
456.625005
 20
1101.003882
 30
0.0
 40
1.95
100
AcDbArc
 50
0.0
 51
135.885384
  0
ARC
  5
1005
100
AcDbEntity
  8
10000_FRONT
370
    25
390
0
  6
CONTINUOUS
 62
     7
100
AcDbCircle
 10
453.825005
 20
1101.003882
 30
0.0
 40
1.95
100
AcDbArc
 50
44.114679
 51
180.0
  0
LINE
  5
1006
100
AcDbEntity
  8
10000_FRONT
370
    25
390
0
  6
CONTINUOUS
 62
     7
100
AcDbLine
 10
451.875005
 20
1100.25388
 30
0.0
 11
451.875005
 21
1101.003883
 31
0.0
  0
ARC
  5
1007
100
AcDbEntity
  8
10000_FRONT
370
    25
390
0
  6
CONTINUOUS
 62
     7
100
AcDbCircle
 10
453.675004
 20
1100.253878
 30
0.0
 40
1.8
100
AcDbArc
 50
180.0
 51
329.441616
  0
ARC
  5
1008
100
AcDbEntity
  8
10000_FRONT
370
    25
390
0
  6
CONTINUOUS
 62
     7
100
AcDbCircle
 10
456.775006
 20
1100.253879
 30
0.0
 40
1.8
100
AcDbArc
 50
210.558342
 51
0.0
  0
LINE
  5
1009
100
AcDbEntity
  8
10000_FRONT
370
    25
390
0
  6
CONTINUOUS
 62
     7
100
AcDbLine
 10
465.775007
 20
1101.003883
 30
0.0
 11
465.775007
 21
1100.25388
 31
0.0
  0
ARC
  5
100A
100
AcDbEntity
  8
10000_FRONT
370
    25
390
0
  6
CONTINUOUS
 62
     7
100
AcDbCircle
 10
463.825005
 20
1101.003882
 30
0.0
 40
1.95
100
AcDbArc
 50
0.0
 51
135.885368
  0
ARC
  5
100B
100
AcDbEntity
  8
10000_FRONT
370
    25
390
0
  6
CONTINUOUS
 62
     7
100
AcDbCircle
 10
461.025005
 20
1101.003882
 30
0.0
 40
1.95
100
AcDbArc
 50
44.114663
 51
180.0
  0
LINE
  5
100C
100
AcDbEntity
  8
10000_FRONT
370
    25
390
0
  6
CONTINUOUS
 62
     7
100
AcDbLine
 10
459.075002
 20
1100.25388
 30
0.0
 11
459.075006
 21
1101.003883
 31
0.0
  0
ARC
  5
100D
100
AcDbEntity
  8
10000_FRONT
370
    25
390
0
  6
CONTINUOUS
 62
     7
100
AcDbCircle
 10
460.875004
 20
1100.253878
 30
0.0
 40
1.8
100
AcDbArc
 50
180.0
 51
329.441628
  0
ARC
  5
100E
100
AcDbEntity
  8
10000_FRONT
370
    25
390
0
  6
CONTINUOUS
 62
     7
100
AcDbCircle
 10
463.975006
 20
1100.253879
 30
0.0
 40
1.8
100
AcDbArc
 50
210.558354
 51
0.0
  0
LINE
  5
100F
100
AcDbEntity
  8
10000_FRONT
370
    25
390
0
  6
CONTINUOUS
 62
     7
100
AcDbLine
 10
421.925005
 20
1106.25
 30
0.0
 11
466.925004
 21
1106.25
 31
0.0
  0
LINE
  5
1010
100
AcDbEntity
  8
10000_FRONT
370
    25
390
0
  6
CONTINUOUS
 62
     7
100
AcDbLine
 10
421.925005
 20
1090.450001
 30
0.0
 11
466.925004
 21
1090.450001
 31
0.0
  0
LINE
  5
1011
100
AcDbEntity
  8
10000_FRONT
370
    25
390
0
  6
CONTINUOUS
 62
     7
100
AcDbLine
 10
421.925005
 20
1106.25
 30
0.0
 11
421.925005
 21
1090.450001
 31
0.0
  0
LINE
  5
1012
100
AcDbEntity
  8
10000_FRONT
370
    25
390
0
  6
CONTINUOUS
 62
     7
100
AcDbLine
 10
417.125005
 20
1090.450001
 30
0.0
 11
417.125005
 21
1106.25
 31
0.0
  0
LINE
  5
1013
100
AcDbEntity
  8
10000_FRONT
370
    25
390
0
  6
CONTINUOUS
 62
     7
100
AcDbLine
 10
417.125005
 20
1090.250008
 30
0.0
 11
417.125005
 21
1090.450001
 31
0.0
  0
LINE
  5
1014
100
AcDbEntity
  8
10000_FRONT
370
    25
390
0
  6
CONTINUOUS
 62
     7
100
AcDbLine
 10
379.975003
 20
1101.003883
 30
0.0
 11
379.975007
 21
1100.25388
 31
0.0
  0
ARC
  5
1015
100
AcDbEntity
  8
10000_FRONT
370
    25
390
0
  6
CONTINUOUS
 62
     7
100
AcDbCircle
 10
378.025005
 20
1101.003882
 30
0.0
 40
1.95
100
AcDbArc
 50
0.0
 51
135.885352
  0
ARC
  5
1016
100
AcDbEntity
  8
10000_FRONT
370
    25
390
0
  6
CONTINUOUS
 62
     7
100
AcDbCircle
 10
375.225005
 20
1101.003882
 30
0.0
 40
1.95
100
AcDbArc
 50
44.114648
 51
180.0
  0
LINE
  5
1017
100
AcDbEntity
  8
10000_FRONT
370
    25
390
0
  6
CONTINUOUS
 62
     7
100
AcDbLine
 10
373.275003
 20
1100.25388
 30
0.0
 11
373.275007
 21
1101.003883
 31
0.0
  0
ARC
  5
1018
100
AcDbEntity
  8
10000_FRONT
370
    25
390
0
  6
CONTINUOUS
 62
     7
100
AcDbCircle
 10
375.075004
 20
1100.253878
 30
0.0
 40
1.8
100
AcDbArc
 50
180.0
 51
329.44164
  0
ARC
  5
1019
100
AcDbEntity
  8
10000_FRONT
370
    25
390
0
  6
CONTINUOUS
 62
     7
100
AcDbCircle
 10
378.175006
 20
1100.253879
 30
0.0
 40
1.8
100
AcDbArc
 50
210.558366
 51
0.0
  0
LINE
  5
101A
100
AcDbEntity
  8
10000_FRONT
370
    25
390
0
  6
CONTINUOUS
 62
     7
100
AcDbLine
 10
387.175004
 20
1101.003883
 30
0.0
 11
387.175008
 21
1100.25388
 31
0.0
  0
ARC
  5
101B
100
AcDbEntity
  8
10000_FRONT
370
    25
390
0
  6
CONTINUOUS
 62
     7
100
AcDbCircle
 10
385.225005
 20
1101.003882
 30
0.0
 40
1.95
100
AcDbArc
 50
0.0
 51
135.885337
  0
ARC
  5
101C
100
AcDbEntity
  8
10000_FRONT
370
    25
390
0
  6
CONTINUOUS
 62
     7
100
AcDbCircle
 10
382.425005
 20
1101.003882
 30
0.0
 40
1.95
100
AcDbArc
 50
44.114632
 51
180.0
  0
LINE
  5
101D
100
AcDbEntity
  8
10000_FRONT
370
    25
390
0
  6
CONTINUOUS
 62
     7
100
AcDbLine
 10
380.475003
 20
1100.25388
 30
0.0
 11
380.475003
 21
1101.003883
 31
0.0
  0
ARC
  5
101E
100
AcDbEntity
  8
10000_FRONT
370
    25
390
0
  6
CONTINUOUS
 62
     7
100
AcDbCircle
 10
382.275004
 20
1100.253878
 30
0.0
 40
1.8
100
AcDbArc
 50
180.0
 51
329.441653
  0
ARC
  5
101F
100
AcDbEntity
  8
10000_FRONT
370
    25
390
0
  6
CONTINUOUS
 62
     7
100
AcDbCircle
 10
385.375006
 20
1100.253879
 30
0.0
 40
1.8
100
AcDbArc
 50
210.558379
 51
0.0
  0
LINE
  5
1020
100
AcDbEntity
  8
10000_FRONT
370
    25
390
0
  6
CONTINUOUS
 62
     7
100
AcDbLine
 10
394.375005
 20
1101.003883
 30
0.0
 11
394.375007
 21
1100.25388
 31
0.0
  0
ARC
  5
1021
100
AcDbEntity
  8
10000_FRONT
370
    25
390
0
  6
CONTINUOUS
 62
     7
100
AcDbCircle
 10
392.425005
 20
1101.003882
 30
0.0
 40
1.95
100
AcDbArc
 50
0.0
 51
135.88536
  0
ARC
  5
1022
100
AcDbEntity
  8
10000_FRONT
370
    25
390
0
  6
CONTINUOUS
 62
     7
100
AcDbCircle
 10
389.625005
 20
1101.003882
 30
0.0
 40
1.95
100
AcDbArc
 50
44.114655
 51
180.0
  0
LINE
  5
1023
100
AcDbEntity
  8
10000_FRONT
370
    25
390
0
  6
CONTINUOUS
 62
     7
100
AcDbLine
 10
387.675004
 20
1100.25388
 30
0.0
 11
387.675004
 21
1101.003883
 31
0.0
  0
ARC
  5
1024
100
AcDbEntity
  8
10000_FRONT
370
    25
390
0
  6
CONTINUOUS
 62
     7
100
AcDbCircle
 10
389.475004
 20
1100.253878
 30
0.0
 40
1.8
100
AcDbArc
 50
180.0
 51
329.441634
  0
ARC
  5
1025
100
AcDbEntity
  8
10000_FRONT
370
    25
390
0
  6
CONTINUOUS
 62
     7
100
AcDbCircle
 10
392.575006
 20
1100.253879
 30
0.0
 40
1.8
100
AcDbArc
 50
210.55836
 51
0.0
  0
LINE
  5
1026
100
AcDbEntity
  8
10000_FRONT
370
    25
390
0
  6
CONTINUOUS
 62
     7
100
AcDbLine
 10
401.575006
 20
1101.003883
 30
0.0
 11
401.575006
 21
1100.25388
 31
0.0
  0
ARC
  5
1027
100
AcDbEntity
  8
10000_FRONT
370
    25
390
0
  6
CONTINUOUS
 62
     7
100
AcDbCircle
 10
399.625005
 20
1101.003882
 30
0.0
 40
1.95
100
AcDbArc
 50
0.0
 51
135.885345
  0
ARC
  5
1028
100
AcDbEntity
  8
10000_FRONT
370
    25
390
0
  6
CONTINUOUS
 62
     7
100
AcDbCircle
 10
396.825005
 20
1101.003882
 30
0.0
 40
1.95
100
AcDbArc
 50
44.11464
 51
180.0
  0
LINE
  5
1029
100
AcDbEntity
  8
10000_FRONT
370
    25
390
0
  6
CONTINUOUS
 62
     7
100
AcDbLine
 10
394.875003
 20
1100.25388
 30
0.0
 11
394.875005
 21
1101.003883
 31
0.0
  0
ARC
  5
102A
100
AcDbEntity
  8
10000_FRONT
370
    25
390
0
  6
CONTINUOUS
 62
     7
100
AcDbCircle
 10
396.675004
 20
1100.253878
 30
0.0
 40
1.8
100
AcDbArc
 50
180.0
 51
329.441646
  0
ARC
  5
102B
100
AcDbEntity
  8
10000_FRONT
370
    25
390
0
  6
CONTINUOUS
 62
     7
100
AcDbCircle
 10
399.775006
 20
1100.253879
 30
0.0
 40
1.8
100
AcDbArc
 50
210.558373
 51
0.0
  0
LINE
  5
102C
100
AcDbEntity
  8
10000_FRONT
370
    25
390
0
  6
CONTINUOUS
 62
     7
100
AcDbLine
 10
408.775005
 20
1101.003883
 30
0.0
 11
408.775007
 21
1100.25388
 31
0.0
  0
ARC
  5
102D
100
AcDbEntity
  8
10000_FRONT
370
    25
390
0
  6
CONTINUOUS
 62
     7
100
AcDbCircle
 10
406.825005
 20
1101.003882
 30
0.0
 40
1.95
100
AcDbArc
 50
0.0
 51
135.885348
  0
ARC
  5
102E
100
AcDbEntity
  8
10000_FRONT
370
    25
390
0
  6
CONTINUOUS
 62
     7
100
AcDbCircle
 10
404.025005
 20
1101.003882
 30
0.0
 40
1.95
100
AcDbArc
 50
44.114644
 51
180.0
  0
LINE
  5
102F
100
AcDbEntity
  8
10000_FRONT
370
    25
390
0
  6
CONTINUOUS
 62
     7
100
AcDbLine
 10
402.075004
 20
1100.25388
 30
0.0
 11
402.075006
 21
1101.003883
 31
0.0
  0
ARC
  5
1030
100
AcDbEntity
  8
10000_FRONT
370
    25
390
0
  6
CONTINUOUS
 62
     7
100
AcDbCircle
 10
403.875004
 20
1100.253878
 30
0.0
 40
1.8
100
AcDbArc
 50
180.0
 51
329.441643
  0
ARC
  5
1031
100
AcDbEntity
  8
10000_FRONT
370
    25
390
0
  6
CONTINUOUS
 62
     7
100
AcDbCircle
 10
406.975006
 20
1100.253879
 30
0.0
 40
1.8
100
AcDbArc
 50
210.55837
 51
0.0
  0
LINE
  5
1032
100
AcDbEntity
  8
10000_FRONT
370
    25
390
0
  6
CONTINUOUS
 62
     7
100
AcDbLine
 10
415.975005
 20
1101.003883
 30
0.0
 11
415.975007
 21
1100.25388
 31
0.0
  0
ARC
  5
1033
100
AcDbEntity
  8
10000_FRONT
370
    25
390
0
  6
CONTINUOUS
 62
     7
100
AcDbCircle
 10
414.025005
 20
1101.003882
 30
0.0
 40
1.95
100
AcDbArc
 50
0.0
 51
135.885352
  0
ARC
  5
1034
100
AcDbEntity
  8
10000_FRONT
370
    25
390
0
  6
CONTINUOUS
 62
     7
100
AcDbCircle
 10
411.225005
 20
1101.003882
 30
0.0
 40
1.95
100
AcDbArc
 50
44.114648
 51
180.0
  0
LINE
  5
1035
100
AcDbEntity
  8
10000_FRONT
370
    25
390
0
  6
CONTINUOUS
 62
     7
100
AcDbLine
 10
409.275004
 20
1100.25388
 30
0.0
 11
409.275005
 21
1101.003883
 31
0.0
  0
ARC
  5
1036
100
AcDbEntity
  8
10000_FRONT
370
    25
390
0
  6
CONTINUOUS
 62
     7
100
AcDbCircle
 10
411.075004
 20
1100.253878
 30
0.0
 40
1.8
100
AcDbArc
 50
180.0
 51
329.44164
  0
ARC
  5
1037
100
AcDbEntity
  8
10000_FRONT
370
    25
390
0
  6
CONTINUOUS
 62
     7
100
AcDbCircle
 10
414.175006
 20
1100.253879
 30
0.0
 40
1.8
100
AcDbArc
 50
210.558366
 51
0.0
  0
LINE
  5
1038
100
AcDbEntity
  8
10000_FRONT
370
    25
390
0
  6
CONTINUOUS
 62
     7
100
AcDbLine
 10
372.125005
 20
1106.25
 30
0.0
 11
417.125005
 21
1106.25
 31
0.0
  0
LINE
  5
1039
100
AcDbEntity
  8
10000_FRONT
370
    25
390
0
  6
CONTINUOUS
 62
     7
100
AcDbLine
 10
372.125005
 20
1090.450001
 30
0.0
 11
417.125005
 21
1090.450001
 31
0.0
  0
LINE
  5
103A
100
AcDbEntity
  8
10000_FRONT
370
    25
390
0
  6
CONTINUOUS
 62
     7
100
AcDbLine
 10
372.125005
 20
1106.25
 30
0.0
 11
372.125005
 21
1090.450001
 31
0.0
  0
LINE
  5
103B
100
AcDbEntity
  8
10000_FRONT
370
    25
390
0
  6
CONTINUOUS
 62
     7
100
AcDbLine
 10
499.625005
 20
1113.15
 30
0.0
 11
499.625005
 21
1085.249992
 31
0.0
  0
LINE
  5
103C
100
AcDbEntity
  8
10000_FRONT
370
    25
390
0
  6
CONTINUOUS
 62
     7
100
AcDbLine
 10
499.625005
 20
975.25
 30
0.0
 11
499.625005
 21
1085.249992
 31
0.0
  0
LINE
  5
103D
100
AcDbEntity
  8
10000_FRONT
370
    25
390
0
  6
CONTINUOUS
 62
     7
100
AcDbLine
 10
499.625005
 20
975.25
 30
0.0
 11
499.625005
 21
947.349991
 31
0.0
  0
LINE
  5
103E
100
AcDbEntity
  8
10000_FRONT
370
    25
390
0
  6
CONTINUOUS
 62
     7
100
AcDbLine
 10
407.425005
 20
995.850006
 30
0.0
 11
407.429351
 21
996.040161
 31
0.0
  0
LINE
  5
103F
100
AcDbEntity
  8
10000_FRONT
370
    25
390
0
  6
CONTINUOUS
 62
     7
100
AcDbLine
 10
407.429351
 20
996.040161
 30
0.0
 11
407.442538
 21
996.232544
 31
0.0
  0
LINE
  5
1040
100
AcDbEntity
  8
10000_FRONT
370
    25
390
0
  6
CONTINUOUS
 62
     7
100
AcDbLine
 10
407.442538
 20
996.232544
 30
0.0
 11
407.464782
 21
996.426315
 31
0.0
  0
LINE
  5
1041
100
AcDbEntity
  8
10000_FRONT
370
    25
390
0
  6
CONTINUOUS
 62
     7
100
AcDbLine
 10
407.464782
 20
996.426315
 30
0.0
 11
407.496307
 21
996.620605
 31
0.0
  0
LINE
  5
1042
100
AcDbEntity
  8
10000_FRONT
370
    25
390
0
  6
CONTINUOUS
 62
     7
100
AcDbLine
 10
407.496307
 20
996.620605
 30
0.0
 11
407.537296
 21
996.814575
 31
0.0
  0
LINE
  5
1043
100
AcDbEntity
  8
10000_FRONT
370
    25
390
0
  6
CONTINUOUS
 62
     7
100
AcDbLine
 10
407.537296
 20
996.814575
 30
0.0
 11
407.587701
 21
997.007416
 31
0.0
  0
LINE
  5
1044
100
AcDbEntity
  8
10000_FRONT
370
    25
390
0
  6
CONTINUOUS
 62
     7
100
AcDbLine
 10
407.587701
 20
997.007416
 30
0.0
 11
407.647382
 21
997.198349
 31
0.0
  0
LINE
  5
1045
100
AcDbEntity
  8
10000_FRONT
370
    25
390
0
  6
CONTINUOUS
 62
     7
100
AcDbLine
 10
407.647382
 20
997.198349
 30
0.0
 11
407.716193
 21
997.386597
 31
0.0
  0
LINE
  5
1046
100
AcDbEntity
  8
10000_FRONT
370
    25
390
0
  6
CONTINUOUS
 62
     7
100
AcDbLine
 10
407.716193
 20
997.386597
 30
0.0
 11
407.793994
 21
997.571396
 31
0.0
  0
LINE
  5
1047
100
AcDbEntity
  8
10000_FRONT
370
    25
390
0
  6
CONTINUOUS
 62
     7
100
AcDbLine
 10
407.793994
 20
997.571396
 30
0.0
 11
407.880501
 21
997.752151
 31
0.0
  0
LINE
  5
1048
100
AcDbEntity
  8
10000_FRONT
370
    25
390
0
  6
CONTINUOUS
 62
     7
100
AcDbLine
 10
407.880501
 20
997.752151
 30
0.0
 11
407.975271
 21
997.928207
 31
0.0
  0
LINE
  5
1049
100
AcDbEntity
  8
10000_FRONT
370
    25
390
0
  6
CONTINUOUS
 62
     7
100
AcDbLine
 10
407.975271
 20
997.928207
 30
0.0
 11
408.077852
 21
998.098907
 31
0.0
  0
LINE
  5
104A
100
AcDbEntity
  8
10000_FRONT
370
    25
390
0
  6
CONTINUOUS
 62
     7
100
AcDbLine
 10
408.077852
 20
998.098907
 30
0.0
 11
408.18779
 21
998.263596
 31
0.0
  0
LINE
  5
104B
100
AcDbEntity
  8
10000_FRONT
370
    25
390
0
  6
CONTINUOUS
 62
     7
100
AcDbLine
 10
408.18779
 20
998.263596
 30
0.0
 11
408.304502
 21
998.421722
 31
0.0
  0
LINE
  5
104C
100
AcDbEntity
  8
10000_FRONT
370
    25
390
0
  6
CONTINUOUS
 62
     7
100
AcDbLine
 10
408.304502
 20
998.421722
 30
0.0
 11
408.42724
 21
998.572815
 31
0.0
  0
LINE
  5
104D
100
AcDbEntity
  8
10000_FRONT
370
    25
390
0
  6
CONTINUOUS
 62
     7
100
AcDbLine
 10
408.42724
 20
998.572815
 30
0.0
 11
408.555245
 21
998.716415
 31
0.0
  0
LINE
  5
104E
100
AcDbEntity
  8
10000_FRONT
370
    25
390
0
  6
CONTINUOUS
 62
     7
100
AcDbLine
 10
408.555245
 20
998.716415
 30
0.0
 11
408.68789
 21
998.852219
 31
0.0
  0
LINE
  5
104F
100
AcDbEntity
  8
10000_FRONT
370
    25
390
0
  6
CONTINUOUS
 62
     7
100
AcDbLine
 10
408.68789
 20
998.852219
 30
0.0
 11
408.827494
 21
998.982651
 31
0.0
  0
LINE
  5
1050
100
AcDbEntity
  8
10000_FRONT
370
    25
390
0
  6
CONTINUOUS
 62
     7
100
AcDbLine
 10
408.827494
 20
998.982651
 30
0.0
 11
408.974833
 21
999.108215
 31
0.0
  0
LINE
  5
1051
100
AcDbEntity
  8
10000_FRONT
370
    25
390
0
  6
CONTINUOUS
 62
     7
100
AcDbLine
 10
408.974833
 20
999.108215
 30
0.0
 11
409.129456
 21
999.228149
 31
0.0
  0
LINE
  5
1052
100
AcDbEntity
  8
10000_FRONT
370
    25
390
0
  6
CONTINUOUS
 62
     7
100
AcDbLine
 10
409.129456
 20
999.228149
 30
0.0
 11
409.290914
 21
999.341705
 31
0.0
  0
LINE
  5
1053
100
AcDbEntity
  8
10000_FRONT
370
    25
390
0
  6
CONTINUOUS
 62
     7
100
AcDbLine
 10
409.290914
 20
999.341705
 30
0.0
 11
409.458713
 21
999.448166
 31
0.0
  0
LINE
  5
1054
100
AcDbEntity
  8
10000_FRONT
370
    25
390
0
  6
CONTINUOUS
 62
     7
100
AcDbLine
 10
409.458713
 20
999.448166
 30
0.0
 11
409.632221
 21
999.547058
 31
0.0
  0
LINE
  5
1055
100
AcDbEntity
  8
10000_FRONT
370
    25
390
0
  6
CONTINUOUS
 62
     7
100
AcDbLine
 10
409.632221
 20
999.547058
 30
0.0
 11
409.810785
 21
999.637909
 31
0.0
  0
LINE
  5
1056
100
AcDbEntity
  8
10000_FRONT
370
    25
390
0
  6
CONTINUOUS
 62
     7
100
AcDbLine
 10
409.810785
 20
999.637909
 30
0.0
 11
409.993742
 21
999.720261
 31
0.0
  0
LINE
  5
1057
100
AcDbEntity
  8
10000_FRONT
370
    25
390
0
  6
CONTINUOUS
 62
     7
100
AcDbLine
 10
409.993742
 20
999.720261
 30
0.0
 11
410.180478
 21
999.793747
 31
0.0
  0
LINE
  5
1058
100
AcDbEntity
  8
10000_FRONT
370
    25
390
0
  6
CONTINUOUS
 62
     7
100
AcDbLine
 10
410.180478
 20
999.793747
 30
0.0
 11
410.370324
 21
999.858139
 31
0.0
  0
LINE
  5
1059
100
AcDbEntity
  8
10000_FRONT
370
    25
390
0
  6
CONTINUOUS
 62
     7
100
AcDbLine
 10
410.370324
 20
999.858139
 30
0.0
 11
410.562494
 21
999.91333
 31
0.0
  0
LINE
  5
105A
100
AcDbEntity
  8
10000_FRONT
370
    25
390
0
  6
CONTINUOUS
 62
     7
100
AcDbLine
 10
410.562494
 20
999.91333
 30
0.0
 11
410.756203
 21
999.959152
 31
0.0
  0
LINE
  5
105B
100
AcDbEntity
  8
10000_FRONT
370
    25
390
0
  6
CONTINUOUS
 62
     7
100
AcDbLine
 10
410.756203
 20
999.959152
 30
0.0
 11
410.950661
 21
999.995483
 31
0.0
  0
LINE
  5
105C
100
AcDbEntity
  8
10000_FRONT
370
    25
390
0
  6
CONTINUOUS
 62
     7
100
AcDbLine
 10
410.950661
 20
999.995483
 30
0.0
 11
411.145038
 21
1000.022415
 31
0.0
  0
LINE
  5
105D
100
AcDbEntity
  8
10000_FRONT
370
    25
390
0
  6
CONTINUOUS
 62
     7
100
AcDbLine
 10
411.145038
 20
1000.022415
 30
0.0
 11
411.338478
 21
1000.040146
 31
0.0
  0
LINE
  5
105E
100
AcDbEntity
  8
10000_FRONT
370
    25
390
0
  6
CONTINUOUS
 62
     7
100
AcDbLine
 10
411.338478
 20
1000.040146
 30
0.0
 11
411.530123
 21
1000.04892
 31
0.0
  0
LINE
  5
105F
100
AcDbEntity
  8
10000_FRONT
370
    25
390
0
  6
CONTINUOUS
 62
     7
100
AcDbLine
 10
411.530123
 20
1000.04892
 30
0.0
 11
411.719887
 21
1000.04892
 31
0.0
  0
LINE
  5
1060
100
AcDbEntity
  8
10000_FRONT
370
    25
390
0
  6
CONTINUOUS
 62
     7
100
AcDbLine
 10
411.719887
 20
1000.04892
 30
0.0
 11
411.911534
 21
1000.040146
 31
0.0
  0
LINE
  5
1061
100
AcDbEntity
  8
10000_FRONT
370
    25
390
0
  6
CONTINUOUS
 62
     7
100
AcDbLine
 10
411.911534
 20
1000.040146
 30
0.0
 11
412.104977
 21
1000.022415
 31
0.0
  0
LINE
  5
1062
100
AcDbEntity
  8
10000_FRONT
370
    25
390
0
  6
CONTINUOUS
 62
     7
100
AcDbLine
 10
412.104977
 20
1000.022415
 30
0.0
 11
412.299359
 21
999.995483
 31
0.0
  0
LINE
  5
1063
100
AcDbEntity
  8
10000_FRONT
370
    25
390
0
  6
CONTINUOUS
 62
     7
100
AcDbLine
 10
412.299359
 20
999.995483
 30
0.0
 11
412.493822
 21
999.959152
 31
0.0
  0
LINE
  5
1064
100
AcDbEntity
  8
10000_FRONT
370
    25
390
0
  6
CONTINUOUS
 62
     7
100
AcDbLine
 10
412.493822
 20
999.959152
 30
0.0
 11
412.687536
 21
999.91333
 31
0.0
  0
LINE
  5
1065
100
AcDbEntity
  8
10000_FRONT
370
    25
390
0
  6
CONTINUOUS
 62
     7
100
AcDbLine
 10
412.687536
 20
999.91333
 30
0.0
 11
412.87971
 21
999.858139
 31
0.0
  0
LINE
  5
1066
100
AcDbEntity
  8
10000_FRONT
370
    25
390
0
  6
CONTINUOUS
 62
     7
100
AcDbLine
 10
412.87971
 20
999.858139
 30
0.0
 11
413.06956
 21
999.793732
 31
0.0
  0
LINE
  5
1067
100
AcDbEntity
  8
10000_FRONT
370
    25
390
0
  6
CONTINUOUS
 62
     7
100
AcDbLine
 10
413.06956
 20
999.793732
 30
0.0
 11
413.2563
 21
999.720261
 31
0.0
  0
LINE
  5
1068
100
AcDbEntity
  8
10000_FRONT
370
    25
390
0
  6
CONTINUOUS
 62
     7
100
AcDbLine
 10
413.2563
 20
999.720261
 30
0.0
 11
413.439261
 21
999.637894
 31
0.0
  0
LINE
  5
1069
100
AcDbEntity
  8
10000_FRONT
370
    25
390
0
  6
CONTINUOUS
 62
     7
100
AcDbLine
 10
413.439261
 20
999.637894
 30
0.0
 11
413.617825
 21
999.547043
 31
0.0
  0
LINE
  5
106A
100
AcDbEntity
  8
10000_FRONT
370
    25
390
0
  6
CONTINUOUS
 62
     7
100
AcDbLine
 10
413.617825
 20
999.547043
 30
0.0
 11
413.791334
 21
999.448151
 31
0.0
  0
LINE
  5
106B
100
AcDbEntity
  8
10000_FRONT
370
    25
390
0
  6
CONTINUOUS
 62
     7
100
AcDbLine
 10
413.791334
 20
999.448151
 30
0.0
 11
413.959131
 21
999.34169
 31
0.0
  0
LINE
  5
106C
100
AcDbEntity
  8
10000_FRONT
370
    25
390
0
  6
CONTINUOUS
 62
     7
100
AcDbLine
 10
413.959131
 20
999.34169
 30
0.0
 11
414.120585
 21
999.228134
 31
0.0
  0
LINE
  5
106D
100
AcDbEntity
  8
10000_FRONT
370
    25
390
0
  6
CONTINUOUS
 62
     7
100
AcDbLine
 10
414.120585
 20
999.228134
 30
0.0
 11
414.275202
 21
999.1082
 31
0.0
  0
LINE
  5
106E
100
AcDbEntity
  8
10000_FRONT
370
    25
390
0
  6
CONTINUOUS
 62
     7
100
AcDbLine
 10
414.275202
 20
999.1082
 30
0.0
 11
414.422533
 21
998.982635
 31
0.0
  0
LINE
  5
106F
100
AcDbEntity
  8
10000_FRONT
370
    25
390
0
  6
CONTINUOUS
 62
     7
100
AcDbLine
 10
414.422533
 20
998.982635
 30
0.0
 11
414.562126
 21
998.852219
 31
0.0
  0
LINE
  5
1070
100
AcDbEntity
  8
10000_FRONT
370
    25
390
0
  6
CONTINUOUS
 62
     7
100
AcDbLine
 10
414.562126
 20
998.852219
 30
0.0
 11
414.694776
 21
998.7164
 31
0.0
  0
LINE
  5
1071
100
AcDbEntity
  8
10000_FRONT
370
    25
390
0
  6
CONTINUOUS
 62
     7
100
AcDbLine
 10
414.694776
 20
998.7164
 30
0.0
 11
414.822788
 21
998.572784
 31
0.0
  0
LINE
  5
1072
100
AcDbEntity
  8
10000_FRONT
370
    25
390
0
  6
CONTINUOUS
 62
     7
100
AcDbLine
 10
414.822788
 20
998.572784
 30
0.0
 11
414.94553
 21
998.421692
 31
0.0
  0
LINE
  5
1073
100
AcDbEntity
  8
10000_FRONT
370
    25
390
0
  6
CONTINUOUS
 62
     7
100
AcDbLine
 10
414.94553
 20
998.421692
 30
0.0
 11
415.062243
 21
998.263565
 31
0.0
  0
LINE
  5
1074
100
AcDbEntity
  8
10000_FRONT
370
    25
390
0
  6
CONTINUOUS
 62
     7
100
AcDbLine
 10
415.062243
 20
998.263565
 30
0.0
 11
415.172181
 21
998.098877
 31
0.0
  0
LINE
  5
1075
100
AcDbEntity
  8
10000_FRONT
370
    25
390
0
  6
CONTINUOUS
 62
     7
100
AcDbLine
 10
415.172181
 20
998.098877
 30
0.0
 11
415.27476
 21
997.928162
 31
0.0
  0
LINE
  5
1076
100
AcDbEntity
  8
10000_FRONT
370
    25
390
0
  6
CONTINUOUS
 62
     7
100
AcDbLine
 10
415.27476
 20
997.928162
 30
0.0
 11
415.369527
 21
997.752106
 31
0.0
  0
LINE
  5
1077
100
AcDbEntity
  8
10000_FRONT
370
    25
390
0
  6
CONTINUOUS
 62
     7
100
AcDbLine
 10
415.369527
 20
997.752106
 30
0.0
 11
415.456031
 21
997.571365
 31
0.0
  0
LINE
  5
1078
100
AcDbEntity
  8
10000_FRONT
370
    25
390
0
  6
CONTINUOUS
 62
     7
100
AcDbLine
 10
415.456031
 20
997.571365
 30
0.0
 11
415.533828
 21
997.386566
 31
0.0
  0
LINE
  5
1079
100
AcDbEntity
  8
10000_FRONT
370
    25
390
0
  6
CONTINUOUS
 62
     7
100
AcDbLine
 10
415.533828
 20
997.386566
 30
0.0
 11
415.602638
 21
997.198334
 31
0.0
  0
LINE
  5
107A
100
AcDbEntity
  8
10000_FRONT
370
    25
390
0
  6
CONTINUOUS
 62
     7
100
AcDbLine
 10
415.602638
 20
997.198334
 30
0.0
 11
415.662315
 21
997.007401
 31
0.0
  0
LINE
  5
107B
100
AcDbEntity
  8
10000_FRONT
370
    25
390
0
  6
CONTINUOUS
 62
     7
100
AcDbLine
 10
415.662315
 20
997.007401
 30
0.0
 11
415.712718
 21
996.81456
 31
0.0
  0
LINE
  5
107C
100
AcDbEntity
  8
10000_FRONT
370
    25
390
0
  6
CONTINUOUS
 62
     7
100
AcDbLine
 10
415.712718
 20
996.81456
 30
0.0
 11
415.753705
 21
996.62059
 31
0.0
  0
LINE
  5
107D
100
AcDbEntity
  8
10000_FRONT
370
    25
390
0
  6
CONTINUOUS
 62
     7
100
AcDbLine
 10
415.753705
 20
996.62059
 30
0.0
 11
415.785228
 21
996.4263
 31
0.0
  0
LINE
  5
107E
100
AcDbEntity
  8
10000_FRONT
370
    25
390
0
  6
CONTINUOUS
 62
     7
100
AcDbLine
 10
415.785228
 20
996.4263
 30
0.0
 11
415.807473
 21
996.232544
 31
0.0
  0
LINE
  5
107F
100
AcDbEntity
  8
10000_FRONT
370
    25
390
0
  6
CONTINUOUS
 62
     7
100
AcDbLine
 10
415.807473
 20
996.232544
 30
0.0
 11
415.820659
 21
996.040161
 31
0.0
  0
LINE
  5
1080
100
AcDbEntity
  8
10000_FRONT
370
    25
390
0
  6
CONTINUOUS
 62
     7
100
AcDbLine
 10
415.820659
 20
996.040161
 30
0.0
 11
415.825005
 21
995.850006
 31
0.0
  0
LINE
  5
1081
100
AcDbEntity
  8
10000_FRONT
370
    25
390
0
  6
CONTINUOUS
 62
     7
100
AcDbLine
 10
423.425005
 20
995.850006
 30
0.0
 11
423.429351
 21
996.040161
 31
0.0
  0
LINE
  5
1082
100
AcDbEntity
  8
10000_FRONT
370
    25
390
0
  6
CONTINUOUS
 62
     7
100
AcDbLine
 10
423.429351
 20
996.040161
 30
0.0
 11
423.442537
 21
996.232544
 31
0.0
  0
LINE
  5
1083
100
AcDbEntity
  8
10000_FRONT
370
    25
390
0
  6
CONTINUOUS
 62
     7
100
AcDbLine
 10
423.442537
 20
996.232544
 30
0.0
 11
423.464782
 21
996.4263
 31
0.0
  0
LINE
  5
1084
100
AcDbEntity
  8
10000_FRONT
370
    25
390
0
  6
CONTINUOUS
 62
     7
100
AcDbLine
 10
423.464782
 20
996.4263
 30
0.0
 11
423.496305
 21
996.62059
 31
0.0
  0
LINE
  5
1085
100
AcDbEntity
  8
10000_FRONT
370
    25
390
0
  6
CONTINUOUS
 62
     7
100
AcDbLine
 10
423.496305
 20
996.62059
 30
0.0
 11
423.537292
 21
996.81456
 31
0.0
  0
LINE
  5
1086
100
AcDbEntity
  8
10000_FRONT
370
    25
390
0
  6
CONTINUOUS
 62
     7
100
AcDbLine
 10
423.537292
 20
996.81456
 30
0.0
 11
423.587695
 21
997.007401
 31
0.0
  0
LINE
  5
1087
100
AcDbEntity
  8
10000_FRONT
370
    25
390
0
  6
CONTINUOUS
 62
     7
100
AcDbLine
 10
423.587695
 20
997.007401
 30
0.0
 11
423.647372
 21
997.198334
 31
0.0
  0
LINE
  5
1088
100
AcDbEntity
  8
10000_FRONT
370
    25
390
0
  6
CONTINUOUS
 62
     7
100
AcDbLine
 10
423.647372
 20
997.198334
 30
0.0
 11
423.716182
 21
997.386566
 31
0.0
  0
LINE
  5
1089
100
AcDbEntity
  8
10000_FRONT
370
    25
390
0
  6
CONTINUOUS
 62
     7
100
AcDbLine
 10
423.716182
 20
997.386566
 30
0.0
 11
423.793979
 21
997.571365
 31
0.0
  0
LINE
  5
108A
100
AcDbEntity
  8
10000_FRONT
370
    25
390
0
  6
CONTINUOUS
 62
     7
100
AcDbLine
 10
423.793979
 20
997.571365
 30
0.0
 11
423.880483
 21
997.752106
 31
0.0
  0
LINE
  5
108B
100
AcDbEntity
  8
10000_FRONT
370
    25
390
0
  6
CONTINUOUS
 62
     7
100
AcDbLine
 10
423.880483
 20
997.752106
 30
0.0
 11
423.97525
 21
997.928162
 31
0.0
  0
LINE
  5
108C
100
AcDbEntity
  8
10000_FRONT
370
    25
390
0
  6
CONTINUOUS
 62
     7
100
AcDbLine
 10
423.97525
 20
997.928162
 30
0.0
 11
424.077829
 21
998.098877
 31
0.0
  0
LINE
  5
108D
100
AcDbEntity
  8
10000_FRONT
370
    25
390
0
  6
CONTINUOUS
 62
     7
100
AcDbLine
 10
424.077829
 20
998.098877
 30
0.0
 11
424.187767
 21
998.263565
 31
0.0
  0
LINE
  5
108E
100
AcDbEntity
  8
10000_FRONT
370
    25
390
0
  6
CONTINUOUS
 62
     7
100
AcDbLine
 10
424.187767
 20
998.263565
 30
0.0
 11
424.30448
 21
998.421692
 31
0.0
  0
LINE
  5
108F
100
AcDbEntity
  8
10000_FRONT
370
    25
390
0
  6
CONTINUOUS
 62
     7
100
AcDbLine
 10
424.30448
 20
998.421692
 30
0.0
 11
424.427222
 21
998.572784
 31
0.0
  0
LINE
  5
1090
100
AcDbEntity
  8
10000_FRONT
370
    25
390
0
  6
CONTINUOUS
 62
     7
100
AcDbLine
 10
424.427222
 20
998.572784
 30
0.0
 11
424.555234
 21
998.7164
 31
0.0
  0
LINE
  5
1091
100
AcDbEntity
  8
10000_FRONT
370
    25
390
0
  6
CONTINUOUS
 62
     7
100
AcDbLine
 10
424.555234
 20
998.7164
 30
0.0
 11
424.687884
 21
998.852219
 31
0.0
  0
LINE
  5
1092
100
AcDbEntity
  8
10000_FRONT
370
    25
390
0
  6
CONTINUOUS
 62
     7
100
AcDbLine
 10
424.687884
 20
998.852219
 30
0.0
 11
424.827477
 21
998.982635
 31
0.0
  0
LINE
  5
1093
100
AcDbEntity
  8
10000_FRONT
370
    25
390
0
  6
CONTINUOUS
 62
     7
100
AcDbLine
 10
424.827477
 20
998.982635
 30
0.0
 11
424.974808
 21
999.1082
 31
0.0
  0
LINE
  5
1094
100
AcDbEntity
  8
10000_FRONT
370
    25
390
0
  6
CONTINUOUS
 62
     7
100
AcDbLine
 10
424.974808
 20
999.1082
 30
0.0
 11
425.129425
 21
999.228134
 31
0.0
  0
LINE
  5
1095
100
AcDbEntity
  8
10000_FRONT
370
    25
390
0
  6
CONTINUOUS
 62
     7
100
AcDbLine
 10
425.129425
 20
999.228134
 30
0.0
 11
425.290879
 21
999.34169
 31
0.0
  0
LINE
  5
1096
100
AcDbEntity
  8
10000_FRONT
370
    25
390
0
  6
CONTINUOUS
 62
     7
100
AcDbLine
 10
425.290879
 20
999.34169
 30
0.0
 11
425.458676
 21
999.448151
 31
0.0
  0
LINE
  5
1097
100
AcDbEntity
  8
10000_FRONT
370
    25
390
0
  6
CONTINUOUS
 62
     7
100
AcDbLine
 10
425.458676
 20
999.448151
 30
0.0
 11
425.632185
 21
999.547043
 31
0.0
  0
LINE
  5
1098
100
AcDbEntity
  8
10000_FRONT
370
    25
390
0
  6
CONTINUOUS
 62
     7
100
AcDbLine
 10
425.632185
 20
999.547043
 30
0.0
 11
425.810749
 21
999.637894
 31
0.0
  0
LINE
  5
1099
100
AcDbEntity
  8
10000_FRONT
370
    25
390
0
  6
CONTINUOUS
 62
     7
100
AcDbLine
 10
425.810749
 20
999.637894
 30
0.0
 11
425.99371
 21
999.720261
 31
0.0
  0
LINE
  5
109A
100
AcDbEntity
  8
10000_FRONT
370
    25
390
0
  6
CONTINUOUS
 62
     7
100
AcDbLine
 10
425.99371
 20
999.720261
 30
0.0
 11
426.18045
 21
999.793732
 31
0.0
  0
LINE
  5
109B
100
AcDbEntity
  8
10000_FRONT
370
    25
390
0
  6
CONTINUOUS
 62
     7
100
AcDbLine
 10
426.18045
 20
999.793732
 30
0.0
 11
426.3703
 21
999.858139
 31
0.0
  0
LINE
  5
109C
100
AcDbEntity
  8
10000_FRONT
370
    25
390
0
  6
CONTINUOUS
 62
     7
100
AcDbLine
 10
426.3703
 20
999.858139
 30
0.0
 11
426.562474
 21
999.91333
 31
0.0
  0
LINE
  5
109D
100
AcDbEntity
  8
10000_FRONT
370
    25
390
0
  6
CONTINUOUS
 62
     7
100
AcDbLine
 10
426.562474
 20
999.91333
 30
0.0
 11
426.756188
 21
999.959152
 31
0.0
  0
LINE
  5
109E
100
AcDbEntity
  8
10000_FRONT
370
    25
390
0
  6
CONTINUOUS
 62
     7
100
AcDbLine
 10
426.756188
 20
999.959152
 30
0.0
 11
426.950651
 21
999.995483
 31
0.0
  0
LINE
  5
109F
100
AcDbEntity
  8
10000_FRONT
370
    25
390
0
  6
CONTINUOUS
 62
     7
100
AcDbLine
 10
426.950651
 20
999.995483
 30
0.0
 11
427.145033
 21
1000.022415
 31
0.0
  0
LINE
  5
10A0
100
AcDbEntity
  8
10000_FRONT
370
    25
390
0
  6
CONTINUOUS
 62
     7
100
AcDbLine
 10
427.145033
 20
1000.022415
 30
0.0
 11
427.338476
 21
1000.040146
 31
0.0
  0
LINE
  5
10A1
100
AcDbEntity
  8
10000_FRONT
370
    25
390
0
  6
CONTINUOUS
 62
     7
100
AcDbLine
 10
427.338476
 20
1000.040146
 30
0.0
 11
427.530123
 21
1000.04892
 31
0.0
  0
LINE
  5
10A2
100
AcDbEntity
  8
10000_FRONT
370
    25
390
0
  6
CONTINUOUS
 62
     7
100
AcDbLine
 10
427.530123
 20
1000.04892
 30
0.0
 11
427.719887
 21
1000.04892
 31
0.0
  0
LINE
  5
10A3
100
AcDbEntity
  8
10000_FRONT
370
    25
390
0
  6
CONTINUOUS
 62
     7
100
AcDbLine
 10
427.719887
 20
1000.04892
 30
0.0
 11
427.911534
 21
1000.040146
 31
0.0
  0
LINE
  5
10A4
100
AcDbEntity
  8
10000_FRONT
370
    25
390
0
  6
CONTINUOUS
 62
     7
100
AcDbLine
 10
427.911534
 20
1000.040146
 30
0.0
 11
428.104977
 21
1000.022415
 31
0.0
  0
LINE
  5
10A5
100
AcDbEntity
  8
10000_FRONT
370
    25
390
0
  6
CONTINUOUS
 62
     7
100
AcDbLine
 10
428.104977
 20
1000.022415
 30
0.0
 11
428.299359
 21
999.995483
 31
0.0
  0
LINE
  5
10A6
100
AcDbEntity
  8
10000_FRONT
370
    25
390
0
  6
CONTINUOUS
 62
     7
100
AcDbLine
 10
428.299359
 20
999.995483
 30
0.0
 11
428.493821
 21
999.959152
 31
0.0
  0
LINE
  5
10A7
100
AcDbEntity
  8
10000_FRONT
370
    25
390
0
  6
CONTINUOUS
 62
     7
100
AcDbLine
 10
428.493821
 20
999.959152
 30
0.0
 11
428.687536
 21
999.91333
 31
0.0
  0
LINE
  5
10A8
100
AcDbEntity
  8
10000_FRONT
370
    25
390
0
  6
CONTINUOUS
 62
     7
100
AcDbLine
 10
428.687536
 20
999.91333
 30
0.0
 11
428.87971
 21
999.858139
 31
0.0
  0
LINE
  5
10A9
100
AcDbEntity
  8
10000_FRONT
370
    25
390
0
  6
CONTINUOUS
 62
     7
100
AcDbLine
 10
428.87971
 20
999.858139
 30
0.0
 11
429.06956
 21
999.793732
 31
0.0
  0
LINE
  5
10AA
100
AcDbEntity
  8
10000_FRONT
370
    25
390
0
  6
CONTINUOUS
 62
     7
100
AcDbLine
 10
429.06956
 20
999.793732
 30
0.0
 11
429.2563
 21
999.720261
 31
0.0
  0
LINE
  5
10AB
100
AcDbEntity
  8
10000_FRONT
370
    25
390
0
  6
CONTINUOUS
 62
     7
100
AcDbLine
 10
429.2563
 20
999.720261
 30
0.0
 11
429.439261
 21
999.637894
 31
0.0
  0
LINE
  5
10AC
100
AcDbEntity
  8
10000_FRONT
370
    25
390
0
  6
CONTINUOUS
 62
     7
100
AcDbLine
 10
429.439261
 20
999.637894
 30
0.0
 11
429.617825
 21
999.547043
 31
0.0
  0
LINE
  5
10AD
100
AcDbEntity
  8
10000_FRONT
370
    25
390
0
  6
CONTINUOUS
 62
     7
100
AcDbLine
 10
429.617825
 20
999.547043
 30
0.0
 11
429.791334
 21
999.448151
 31
0.0
  0
LINE
  5
10AE
100
AcDbEntity
  8
10000_FRONT
370
    25
390
0
  6
CONTINUOUS
 62
     7
100
AcDbLine
 10
429.791334
 20
999.448151
 30
0.0
 11
429.959131
 21
999.34169
 31
0.0
  0
LINE
  5
10AF
100
AcDbEntity
  8
10000_FRONT
370
    25
390
0
  6
CONTINUOUS
 62
     7
100
AcDbLine
 10
429.959131
 20
999.34169
 30
0.0
 11
430.120585
 21
999.228134
 31
0.0
  0
LINE
  5
10B0
100
AcDbEntity
  8
10000_FRONT
370
    25
390
0
  6
CONTINUOUS
 62
     7
100
AcDbLine
 10
430.120585
 20
999.228134
 30
0.0
 11
430.275202
 21
999.1082
 31
0.0
  0
LINE
  5
10B1
100
AcDbEntity
  8
10000_FRONT
370
    25
390
0
  6
CONTINUOUS
 62
     7
100
AcDbLine
 10
430.275202
 20
999.1082
 30
0.0
 11
430.422532
 21
998.982635
 31
0.0
  0
LINE
  5
10B2
100
AcDbEntity
  8
10000_FRONT
370
    25
390
0
  6
CONTINUOUS
 62
     7
100
AcDbLine
 10
430.422532
 20
998.982635
 30
0.0
 11
430.562126
 21
998.852219
 31
0.0
  0
LINE
  5
10B3
100
AcDbEntity
  8
10000_FRONT
370
    25
390
0
  6
CONTINUOUS
 62
     7
100
AcDbLine
 10
430.562126
 20
998.852219
 30
0.0
 11
430.694776
 21
998.7164
 31
0.0
  0
LINE
  5
10B4
100
AcDbEntity
  8
10000_FRONT
370
    25
390
0
  6
CONTINUOUS
 62
     7
100
AcDbLine
 10
430.694776
 20
998.7164
 30
0.0
 11
430.822788
 21
998.572784
 31
0.0
  0
LINE
  5
10B5
100
AcDbEntity
  8
10000_FRONT
370
    25
390
0
  6
CONTINUOUS
 62
     7
100
AcDbLine
 10
430.822788
 20
998.572784
 30
0.0
 11
430.94553
 21
998.421692
 31
0.0
  0
LINE
  5
10B6
100
AcDbEntity
  8
10000_FRONT
370
    25
390
0
  6
CONTINUOUS
 62
     7
100
AcDbLine
 10
430.94553
 20
998.421692
 30
0.0
 11
431.062243
 21
998.263565
 31
0.0
  0
LINE
  5
10B7
100
AcDbEntity
  8
10000_FRONT
370
    25
390
0
  6
CONTINUOUS
 62
     7
100
AcDbLine
 10
431.062243
 20
998.263565
 30
0.0
 11
431.17218
 21
998.098877
 31
0.0
  0
LINE
  5
10B8
100
AcDbEntity
  8
10000_FRONT
370
    25
390
0
  6
CONTINUOUS
 62
     7
100
AcDbLine
 10
431.17218
 20
998.098877
 30
0.0
 11
431.27476
 21
997.928162
 31
0.0
  0
LINE
  5
10B9
100
AcDbEntity
  8
10000_FRONT
370
    25
390
0
  6
CONTINUOUS
 62
     7
100
AcDbLine
 10
431.27476
 20
997.928162
 30
0.0
 11
431.369527
 21
997.752106
 31
0.0
  0
LINE
  5
10BA
100
AcDbEntity
  8
10000_FRONT
370
    25
390
0
  6
CONTINUOUS
 62
     7
100
AcDbLine
 10
431.369527
 20
997.752106
 30
0.0
 11
431.456031
 21
997.571365
 31
0.0
  0
LINE
  5
10BB
100
AcDbEntity
  8
10000_FRONT
370
    25
390
0
  6
CONTINUOUS
 62
     7
100
AcDbLine
 10
431.456031
 20
997.571365
 30
0.0
 11
431.533828
 21
997.386566
 31
0.0
  0
LINE
  5
10BC
100
AcDbEntity
  8
10000_FRONT
370
    25
390
0
  6
CONTINUOUS
 62
     7
100
AcDbLine
 10
431.533828
 20
997.386566
 30
0.0
 11
431.602638
 21
997.198334
 31
0.0
  0
LINE
  5
10BD
100
AcDbEntity
  8
10000_FRONT
370
    25
390
0
  6
CONTINUOUS
 62
     7
100
AcDbLine
 10
431.602638
 20
997.198334
 30
0.0
 11
431.662315
 21
997.007401
 31
0.0
  0
LINE
  5
10BE
100
AcDbEntity
  8
10000_FRONT
370
    25
390
0
  6
CONTINUOUS
 62
     7
100
AcDbLine
 10
431.662315
 20
997.007401
 30
0.0
 11
431.712718
 21
996.81456
 31
0.0
  0
LINE
  5
10BF
100
AcDbEntity
  8
10000_FRONT
370
    25
390
0
  6
CONTINUOUS
 62
     7
100
AcDbLine
 10
431.712718
 20
996.81456
 30
0.0
 11
431.753705
 21
996.62059
 31
0.0
  0
LINE
  5
10C0
100
AcDbEntity
  8
10000_FRONT
370
    25
390
0
  6
CONTINUOUS
 62
     7
100
AcDbLine
 10
431.753705
 20
996.62059
 30
0.0
 11
431.785228
 21
996.4263
 31
0.0
  0
LINE
  5
10C1
100
AcDbEntity
  8
10000_FRONT
370
    25
390
0
  6
CONTINUOUS
 62
     7
100
AcDbLine
 10
431.785228
 20
996.4263
 30
0.0
 11
431.807473
 21
996.232544
 31
0.0
  0
LINE
  5
10C2
100
AcDbEntity
  8
10000_FRONT
370
    25
390
0
  6
CONTINUOUS
 62
     7
100
AcDbLine
 10
431.807473
 20
996.232544
 30
0.0
 11
431.820659
 21
996.040161
 31
0.0
  0
LINE
  5
10C3
100
AcDbEntity
  8
10000_FRONT
370
    25
390
0
  6
CONTINUOUS
 62
     7
100
AcDbLine
 10
431.820659
 20
996.040161
 30
0.0
 11
431.825005
 21
995.850006
 31
0.0
  0
LINE
  5
10C4
100
AcDbEntity
  8
10000_FRONT
370
    25
390
0
  6
CONTINUOUS
 62
     7
100
AcDbLine
 10
459.575006
 20
995.850006
 30
0.0
 11
459.579351
 21
996.040161
 31
0.0
  0
LINE
  5
10C5
100
AcDbEntity
  8
10000_FRONT
370
    25
390
0
  6
CONTINUOUS
 62
     7
100
AcDbLine
 10
459.579351
 20
996.040161
 30
0.0
 11
459.592538
 21
996.232544
 31
0.0
  0
LINE
  5
10C6
100
AcDbEntity
  8
10000_FRONT
370
    25
390
0
  6
CONTINUOUS
 62
     7
100
AcDbLine
 10
459.592538
 20
996.232544
 30
0.0
 11
459.614782
 21
996.4263
 31
0.0
  0
LINE
  5
10C7
100
AcDbEntity
  8
10000_FRONT
370
    25
390
0
  6
CONTINUOUS
 62
     7
100
AcDbLine
 10
459.614782
 20
996.4263
 30
0.0
 11
459.646306
 21
996.62059
 31
0.0
  0
LINE
  5
10C8
100
AcDbEntity
  8
10000_FRONT
370
    25
390
0
  6
CONTINUOUS
 62
     7
100
AcDbLine
 10
459.646306
 20
996.62059
 30
0.0
 11
459.687291
 21
996.81456
 31
0.0
  0
LINE
  5
10C9
100
AcDbEntity
  8
10000_FRONT
370
    25
390
0
  6
CONTINUOUS
 62
     7
100
AcDbLine
 10
459.687291
 20
996.81456
 30
0.0
 11
459.737695
 21
997.007401
 31
0.0
  0
LINE
  5
10CA
100
AcDbEntity
  8
10000_FRONT
370
    25
390
0
  6
CONTINUOUS
 62
     7
100
AcDbLine
 10
459.737695
 20
997.007401
 30
0.0
 11
459.797372
 21
997.198334
 31
0.0
  0
LINE
  5
10CB
100
AcDbEntity
  8
10000_FRONT
370
    25
390
0
  6
CONTINUOUS
 62
     7
100
AcDbLine
 10
459.797372
 20
997.198334
 30
0.0
 11
459.866182
 21
997.386566
 31
0.0
  0
LINE
  5
10CC
100
AcDbEntity
  8
10000_FRONT
370
    25
390
0
  6
CONTINUOUS
 62
     7
100
AcDbLine
 10
459.866182
 20
997.386566
 30
0.0
 11
459.943979
 21
997.571365
 31
0.0
  0
LINE
  5
10CD
100
AcDbEntity
  8
10000_FRONT
370
    25
390
0
  6
CONTINUOUS
 62
     7
100
AcDbLine
 10
459.943979
 20
997.571365
 30
0.0
 11
460.030484
 21
997.752106
 31
0.0
  0
LINE
  5
10CE
100
AcDbEntity
  8
10000_FRONT
370
    25
390
0
  6
CONTINUOUS
 62
     7
100
AcDbLine
 10
460.030484
 20
997.752106
 30
0.0
 11
460.125249
 21
997.928162
 31
0.0
  0
LINE
  5
10CF
100
AcDbEntity
  8
10000_FRONT
370
    25
390
0
  6
CONTINUOUS
 62
     7
100
AcDbLine
 10
460.125249
 20
997.928162
 30
0.0
 11
460.22783
 21
998.098877
 31
0.0
  0
LINE
  5
10D0
100
AcDbEntity
  8
10000_FRONT
370
    25
390
0
  6
CONTINUOUS
 62
     7
100
AcDbLine
 10
460.22783
 20
998.098877
 30
0.0
 11
460.337766
 21
998.263565
 31
0.0
  0
LINE
  5
10D1
100
AcDbEntity
  8
10000_FRONT
370
    25
390
0
  6
CONTINUOUS
 62
     7
100
AcDbLine
 10
460.337766
 20
998.263565
 30
0.0
 11
460.45448
 21
998.421692
 31
0.0
  0
LINE
  5
10D2
100
AcDbEntity
  8
10000_FRONT
370
    25
390
0
  6
CONTINUOUS
 62
     7
100
AcDbLine
 10
460.45448
 20
998.421692
 30
0.0
 11
460.577222
 21
998.572784
 31
0.0
  0
LINE
  5
10D3
100
AcDbEntity
  8
10000_FRONT
370
    25
390
0
  6
CONTINUOUS
 62
     7
100
AcDbLine
 10
460.577222
 20
998.572784
 30
0.0
 11
460.705236
 21
998.7164
 31
0.0
  0
LINE
  5
10D4
100
AcDbEntity
  8
10000_FRONT
370
    25
390
0
  6
CONTINUOUS
 62
     7
100
AcDbLine
 10
460.705236
 20
998.7164
 30
0.0
 11
460.837884
 21
998.852219
 31
0.0
  0
LINE
  5
10D5
100
AcDbEntity
  8
10000_FRONT
370
    25
390
0
  6
CONTINUOUS
 62
     7
100
AcDbLine
 10
460.837884
 20
998.852219
 30
0.0
 11
460.977479
 21
998.982635
 31
0.0
  0
LINE
  5
10D6
100
AcDbEntity
  8
10000_FRONT
370
    25
390
0
  6
CONTINUOUS
 62
     7
100
AcDbLine
 10
460.977479
 20
998.982635
 30
0.0
 11
461.124807
 21
999.1082
 31
0.0
  0
LINE
  5
10D7
100
AcDbEntity
  8
10000_FRONT
370
    25
390
0
  6
CONTINUOUS
 62
     7
100
AcDbLine
 10
461.124807
 20
999.1082
 30
0.0
 11
461.279424
 21
999.228134
 31
0.0
  0
LINE
  5
10D8
100
AcDbEntity
  8
10000_FRONT
370
    25
390
0
  6
CONTINUOUS
 62
     7
100
AcDbLine
 10
461.279424
 20
999.228134
 30
0.0
 11
461.440877
 21
999.34169
 31
0.0
  0
LINE
  5
10D9
100
AcDbEntity
  8
10000_FRONT
370
    25
390
0
  6
CONTINUOUS
 62
     7
100
AcDbLine
 10
461.440877
 20
999.34169
 30
0.0
 11
461.608674
 21
999.448151
 31
0.0
  0
LINE
  5
10DA
100
AcDbEntity
  8
10000_FRONT
370
    25
390
0
  6
CONTINUOUS
 62
     7
100
AcDbLine
 10
461.608674
 20
999.448151
 30
0.0
 11
461.782186
 21
999.547043
 31
0.0
  0
LINE
  5
10DB
100
AcDbEntity
  8
10000_FRONT
370
    25
390
0
  6
CONTINUOUS
 62
     7
100
AcDbLine
 10
461.782186
 20
999.547043
 30
0.0
 11
461.960748
 21
999.637894
 31
0.0
  0
LINE
  5
10DC
100
AcDbEntity
  8
10000_FRONT
370
    25
390
0
  6
CONTINUOUS
 62
     7
100
AcDbLine
 10
461.960748
 20
999.637894
 30
0.0
 11
462.143708
 21
999.720261
 31
0.0
  0
LINE
  5
10DD
100
AcDbEntity
  8
10000_FRONT
370
    25
390
0
  6
CONTINUOUS
 62
     7
100
AcDbLine
 10
462.143708
 20
999.720261
 30
0.0
 11
462.330449
 21
999.793732
 31
0.0
  0
LINE
  5
10DE
100
AcDbEntity
  8
10000_FRONT
370
    25
390
0
  6
CONTINUOUS
 62
     7
100
AcDbLine
 10
462.330449
 20
999.793732
 30
0.0
 11
462.520299
 21
999.858139
 31
0.0
  0
LINE
  5
10DF
100
AcDbEntity
  8
10000_FRONT
370
    25
390
0
  6
CONTINUOUS
 62
     7
100
AcDbLine
 10
462.520299
 20
999.858139
 30
0.0
 11
462.712476
 21
999.91333
 31
0.0
  0
LINE
  5
10E0
100
AcDbEntity
  8
10000_FRONT
370
    25
390
0
  6
CONTINUOUS
 62
     7
100
AcDbLine
 10
462.712476
 20
999.91333
 30
0.0
 11
462.90619
 21
999.959152
 31
0.0
  0
LINE
  5
10E1
100
AcDbEntity
  8
10000_FRONT
370
    25
390
0
  6
CONTINUOUS
 62
     7
100
AcDbLine
 10
462.90619
 20
999.959152
 30
0.0
 11
463.100652
 21
999.995483
 31
0.0
  0
LINE
  5
10E2
100
AcDbEntity
  8
10000_FRONT
370
    25
390
0
  6
CONTINUOUS
 62
     7
100
AcDbLine
 10
463.100652
 20
999.995483
 30
0.0
 11
463.295034
 21
1000.022415
 31
0.0
  0
LINE
  5
10E3
100
AcDbEntity
  8
10000_FRONT
370
    25
390
0
  6
CONTINUOUS
 62
     7
100
AcDbLine
 10
463.295034
 20
1000.022415
 30
0.0
 11
463.488477
 21
1000.040146
 31
0.0
  0
LINE
  5
10E4
100
AcDbEntity
  8
10000_FRONT
370
    25
390
0
  6
CONTINUOUS
 62
     7
100
AcDbLine
 10
463.488477
 20
1000.040146
 30
0.0
 11
463.680124
 21
1000.04892
 31
0.0
  0
LINE
  5
10E5
100
AcDbEntity
  8
10000_FRONT
370
    25
390
0
  6
CONTINUOUS
 62
     7
100
AcDbLine
 10
463.680124
 20
1000.04892
 30
0.0
 11
463.869886
 21
1000.04892
 31
0.0
  0
LINE
  5
10E6
100
AcDbEntity
  8
10000_FRONT
370
    25
390
0
  6
CONTINUOUS
 62
     7
100
AcDbLine
 10
463.869886
 20
1000.04892
 30
0.0
 11
464.061532
 21
1000.040146
 31
0.0
  0
LINE
  5
10E7
100
AcDbEntity
  8
10000_FRONT
370
    25
390
0
  6
CONTINUOUS
 62
     7
100
AcDbLine
 10
464.061532
 20
1000.040146
 30
0.0
 11
464.254976
 21
1000.022415
 31
0.0
  0
LINE
  5
10E8
100
AcDbEntity
  8
10000_FRONT
370
    25
390
0
  6
CONTINUOUS
 62
     7
100
AcDbLine
 10
464.254976
 20
1000.022415
 30
0.0
 11
464.449357
 21
999.995483
 31
0.0
  0
LINE
  5
10E9
100
AcDbEntity
  8
10000_FRONT
370
    25
390
0
  6
CONTINUOUS
 62
     7
100
AcDbLine
 10
464.449357
 20
999.995483
 30
0.0
 11
464.643823
 21
999.959152
 31
0.0
  0
LINE
  5
10EA
100
AcDbEntity
  8
10000_FRONT
370
    25
390
0
  6
CONTINUOUS
 62
     7
100
AcDbLine
 10
464.643823
 20
999.959152
 30
0.0
 11
464.837537
 21
999.91333
 31
0.0
  0
LINE
  5
10EB
100
AcDbEntity
  8
10000_FRONT
370
    25
390
0
  6
CONTINUOUS
 62
     7
100
AcDbLine
 10
464.837537
 20
999.91333
 30
0.0
 11
465.02971
 21
999.858139
 31
0.0
  0
LINE
  5
10EC
100
AcDbEntity
  8
10000_FRONT
370
    25
390
0
  6
CONTINUOUS
 62
     7
100
AcDbLine
 10
465.02971
 20
999.858139
 30
0.0
 11
465.21956
 21
999.793732
 31
0.0
  0
LINE
  5
10ED
100
AcDbEntity
  8
10000_FRONT
370
    25
390
0
  6
CONTINUOUS
 62
     7
100
AcDbLine
 10
465.21956
 20
999.793732
 30
0.0
 11
465.406301
 21
999.720261
 31
0.0
  0
LINE
  5
10EE
100
AcDbEntity
  8
10000_FRONT
370
    25
390
0
  6
CONTINUOUS
 62
     7
100
AcDbLine
 10
465.406301
 20
999.720261
 30
0.0
 11
465.589261
 21
999.637894
 31
0.0
  0
LINE
  5
10EF
100
AcDbEntity
  8
10000_FRONT
370
    25
390
0
  6
CONTINUOUS
 62
     7
100
AcDbLine
 10
465.589261
 20
999.637894
 30
0.0
 11
465.767823
 21
999.547043
 31
0.0
  0
LINE
  5
10F0
100
AcDbEntity
  8
10000_FRONT
370
    25
390
0
  6
CONTINUOUS
 62
     7
100
AcDbLine
 10
465.767823
 20
999.547043
 30
0.0
 11
465.941335
 21
999.448151
 31
0.0
  0
LINE
  5
10F1
100
AcDbEntity
  8
10000_FRONT
370
    25
390
0
  6
CONTINUOUS
 62
     7
100
AcDbLine
 10
465.941335
 20
999.448151
 30
0.0
 11
466.109132
 21
999.34169
 31
0.0
  0
LINE
  5
10F2
100
AcDbEntity
  8
10000_FRONT
370
    25
390
0
  6
CONTINUOUS
 62
     7
100
AcDbLine
 10
466.109132
 20
999.34169
 30
0.0
 11
466.270585
 21
999.228134
 31
0.0
  0
LINE
  5
10F3
100
AcDbEntity
  8
10000_FRONT
370
    25
390
0
  6
CONTINUOUS
 62
     7
100
AcDbLine
 10
466.270585
 20
999.228134
 30
0.0
 11
466.425203
 21
999.1082
 31
0.0
  0
LINE
  5
10F4
100
AcDbEntity
  8
10000_FRONT
370
    25
390
0
  6
CONTINUOUS
 62
     7
100
AcDbLine
 10
466.425203
 20
999.1082
 30
0.0
 11
466.572534
 21
998.982635
 31
0.0
  0
LINE
  5
10F5
100
AcDbEntity
  8
10000_FRONT
370
    25
390
0
  6
CONTINUOUS
 62
     7
100
AcDbLine
 10
466.572534
 20
998.982635
 30
0.0
 11
466.712125
 21
998.852219
 31
0.0
  0
LINE
  5
10F6
100
AcDbEntity
  8
10000_FRONT
370
    25
390
0
  6
CONTINUOUS
 62
     7
100
AcDbLine
 10
466.712125
 20
998.852219
 30
0.0
 11
466.844777
 21
998.7164
 31
0.0
  0
LINE
  5
10F7
100
AcDbEntity
  8
10000_FRONT
370
    25
390
0
  6
CONTINUOUS
 62
     7
100
AcDbLine
 10
466.844777
 20
998.7164
 30
0.0
 11
466.972787
 21
998.572784
 31
0.0
  0
LINE
  5
10F8
100
AcDbEntity
  8
10000_FRONT
370
    25
390
0
  6
CONTINUOUS
 62
     7
100
AcDbLine
 10
466.972787
 20
998.572784
 30
0.0
 11
467.095529
 21
998.421692
 31
0.0
  0
LINE
  5
10F9
100
AcDbEntity
  8
10000_FRONT
370
    25
390
0
  6
CONTINUOUS
 62
     7
100
AcDbLine
 10
467.095529
 20
998.421692
 30
0.0
 11
467.212243
 21
998.263565
 31
0.0
  0
LINE
  5
10FA
100
AcDbEntity
  8
10000_FRONT
370
    25
390
0
  6
CONTINUOUS
 62
     7
100
AcDbLine
 10
467.212243
 20
998.263565
 30
0.0
 11
467.322179
 21
998.098877
 31
0.0
  0
LINE
  5
10FB
100
AcDbEntity
  8
10000_FRONT
370
    25
390
0
  6
CONTINUOUS
 62
     7
100
AcDbLine
 10
467.322179
 20
998.098877
 30
0.0
 11
467.42476
 21
997.928162
 31
0.0
  0
LINE
  5
10FC
100
AcDbEntity
  8
10000_FRONT
370
    25
390
0
  6
CONTINUOUS
 62
     7
100
AcDbLine
 10
467.42476
 20
997.928162
 30
0.0
 11
467.519529
 21
997.752106
 31
0.0
  0
LINE
  5
10FD
100
AcDbEntity
  8
10000_FRONT
370
    25
390
0
  6
CONTINUOUS
 62
     7
100
AcDbLine
 10
467.519529
 20
997.752106
 30
0.0
 11
467.606031
 21
997.571365
 31
0.0
  0
LINE
  5
10FE
100
AcDbEntity
  8
10000_FRONT
370
    25
390
0
  6
CONTINUOUS
 62
     7
100
AcDbLine
 10
467.606031
 20
997.571365
 30
0.0
 11
467.683828
 21
997.386566
 31
0.0
  0
LINE
  5
10FF
100
AcDbEntity
  8
10000_FRONT
370
    25
390
0
  6
CONTINUOUS
 62
     7
100
AcDbLine
 10
467.683828
 20
997.386566
 30
0.0
 11
467.752637
 21
997.198334
 31
0.0
  0
LINE
  5
1100
100
AcDbEntity
  8
10000_FRONT
370
    25
390
0
  6
CONTINUOUS
 62
     7
100
AcDbLine
 10
467.752637
 20
997.198334
 30
0.0
 11
467.812314
 21
997.007401
 31
0.0
  0
LINE
  5
1101
100
AcDbEntity
  8
10000_FRONT
370
    25
390
0
  6
CONTINUOUS
 62
     7
100
AcDbLine
 10
467.812314
 20
997.007401
 30
0.0
 11
467.862718
 21
996.81456
 31
0.0
  0
LINE
  5
1102
100
AcDbEntity
  8
10000_FRONT
370
    25
390
0
  6
CONTINUOUS
 62
     7
100
AcDbLine
 10
467.862718
 20
996.81456
 30
0.0
 11
467.903707
 21
996.62059
 31
0.0
  0
LINE
  5
1103
100
AcDbEntity
  8
10000_FRONT
370
    25
390
0
  6
CONTINUOUS
 62
     7
100
AcDbLine
 10
467.903707
 20
996.62059
 30
0.0
 11
467.935228
 21
996.4263
 31
0.0
  0
LINE
  5
1104
100
AcDbEntity
  8
10000_FRONT
370
    25
390
0
  6
CONTINUOUS
 62
     7
100
AcDbLine
 10
467.935228
 20
996.4263
 30
0.0
 11
467.957471
 21
996.232544
 31
0.0
  0
LINE
  5
1105
100
AcDbEntity
  8
10000_FRONT
370
    25
390
0
  6
CONTINUOUS
 62
     7
100
AcDbLine
 10
467.957471
 20
996.232544
 30
0.0
 11
467.970659
 21
996.040161
 31
0.0
  0
LINE
  5
1106
100
AcDbEntity
  8
10000_FRONT
370
    25
390
0
  6
CONTINUOUS
 62
     7
100
AcDbLine
 10
467.970659
 20
996.040161
 30
0.0
 11
467.975003
 21
995.850006
 31
0.0
  0
LINE
  5
1107
100
AcDbEntity
  8
10000_FRONT
370
    25
390
0
  6
CONTINUOUS
 62
     7
100
AcDbLine
 10
459.575006
 20
1008.849998
 30
0.0
 11
459.579355
 21
1009.040245
 31
0.0
  0
LINE
  5
1108
100
AcDbEntity
  8
10000_FRONT
370
    25
390
0
  6
CONTINUOUS
 62
     7
100
AcDbLine
 10
459.579355
 20
1009.040245
 30
0.0
 11
459.592553
 21
1009.232719
 31
0.0
  0
LINE
  5
1109
100
AcDbEntity
  8
10000_FRONT
370
    25
390
0
  6
CONTINUOUS
 62
     7
100
AcDbLine
 10
459.592553
 20
1009.232719
 30
0.0
 11
459.614816
 21
1009.426559
 31
0.0
  0
LINE
  5
110A
100
AcDbEntity
  8
10000_FRONT
370
    25
390
0
  6
CONTINUOUS
 62
     7
100
AcDbLine
 10
459.614816
 20
1009.426559
 30
0.0
 11
459.646367
 21
1009.620926
 31
0.0
  0
LINE
  5
110B
100
AcDbEntity
  8
10000_FRONT
370
    25
390
0
  6
CONTINUOUS
 62
     7
100
AcDbLine
 10
459.646367
 20
1009.620926
 30
0.0
 11
459.687387
 21
1009.814964
 31
0.0
  0
LINE
  5
110C
100
AcDbEntity
  8
10000_FRONT
370
    25
390
0
  6
CONTINUOUS
 62
     7
100
AcDbLine
 10
459.687387
 20
1009.814964
 30
0.0
 11
459.737828
 21
1010.007866
 31
0.0
  0
LINE
  5
110D
100
AcDbEntity
  8
10000_FRONT
370
    25
390
0
  6
CONTINUOUS
 62
     7
100
AcDbLine
 10
459.737828
 20
1010.007866
 30
0.0
 11
459.797551
 21
1010.198853
 31
0.0
  0
LINE
  5
110E
100
AcDbEntity
  8
10000_FRONT
370
    25
390
0
  6
CONTINUOUS
 62
     7
100
AcDbLine
 10
459.797551
 20
1010.198853
 30
0.0
 11
459.866407
 21
1010.387138
 31
0.0
  0
LINE
  5
110F
100
AcDbEntity
  8
10000_FRONT
370
    25
390
0
  6
CONTINUOUS
 62
     7
100
AcDbLine
 10
459.866407
 20
1010.387138
 30
0.0
 11
459.944253
 21
1010.571976
 31
0.0
  0
LINE
  5
1110
100
AcDbEntity
  8
10000_FRONT
370
    25
390
0
  6
CONTINUOUS
 62
     7
100
AcDbLine
 10
459.944253
 20
1010.571976
 30
0.0
 11
460.030809
 21
1010.752754
 31
0.0
  0
LINE
  5
1111
100
AcDbEntity
  8
10000_FRONT
370
    25
390
0
  6
CONTINUOUS
 62
     7
100
AcDbLine
 10
460.030809
 20
1010.752754
 30
0.0
 11
460.125627
 21
1010.928825
 31
0.0
  0
LINE
  5
1112
100
AcDbEntity
  8
10000_FRONT
370
    25
390
0
  6
CONTINUOUS
 62
     7
100
AcDbLine
 10
460.125627
 20
1010.928825
 30
0.0
 11
460.228254
 21
1011.099541
 31
0.0
  0
LINE
  5
1113
100
AcDbEntity
  8
10000_FRONT
370
    25
390
0
  6
CONTINUOUS
 62
     7
100
AcDbLine
 10
460.228254
 20
1011.099541
 30
0.0
 11
460.338235
 21
1011.264236
 31
0.0
  0
LINE
  5
1114
100
AcDbEntity
  8
10000_FRONT
370
    25
390
0
  6
CONTINUOUS
 62
     7
100
AcDbLine
 10
460.338235
 20
1011.264236
 30
0.0
 11
460.454988
 21
1011.422348
 31
0.0
  0
LINE
  5
1115
100
AcDbEntity
  8
10000_FRONT
370
    25
390
0
  6
CONTINUOUS
 62
     7
100
AcDbLine
 10
460.454988
 20
1011.422348
 30
0.0
 11
460.57776
 21
1011.573418
 31
0.0
  0
LINE
  5
1116
100
AcDbEntity
  8
10000_FRONT
370
    25
390
0
  6
CONTINUOUS
 62
     7
100
AcDbLine
 10
460.57776
 20
1011.573418
 30
0.0
 11
460.705793
 21
1011.717003
 31
0.0
  0
LINE
  5
1117
100
AcDbEntity
  8
10000_FRONT
370
    25
390
0
  6
CONTINUOUS
 62
     7
100
AcDbLine
 10
460.705793
 20
1011.717003
 30
0.0
 11
460.83846
 21
1011.852776
 31
0.0
  0
LINE
  5
1118
100
AcDbEntity
  8
10000_FRONT
370
    25
390
0
  6
CONTINUOUS
 62
     7
100
AcDbLine
 10
460.83846
 20
1011.852776
 30
0.0
 11
460.978086
 21
1011.983177
 31
0.0
  0
LINE
  5
1119
100
AcDbEntity
  8
10000_FRONT
370
    25
390
0
  6
CONTINUOUS
 62
     7
100
AcDbLine
 10
460.978086
 20
1011.983177
 30
0.0
 11
461.12544
 21
1012.108711
 31
0.0
  0
LINE
  5
111A
100
AcDbEntity
  8
10000_FRONT
370
    25
390
0
  6
CONTINUOUS
 62
     7
100
AcDbLine
 10
461.12544
 20
1012.108711
 30
0.0
 11
461.280069
 21
1012.228607
 31
0.0
  0
LINE
  5
111B
100
AcDbEntity
  8
10000_FRONT
370
    25
390
0
  6
CONTINUOUS
 62
     7
100
AcDbLine
 10
461.280069
 20
1012.228607
 30
0.0
 11
461.441526
 21
1012.342117
 31
0.0
  0
LINE
  5
111C
100
AcDbEntity
  8
10000_FRONT
370
    25
390
0
  6
CONTINUOUS
 62
     7
100
AcDbLine
 10
461.441526
 20
1012.342117
 30
0.0
 11
461.609315
 21
1012.448532
 31
0.0
  0
LINE
  5
111D
100
AcDbEntity
  8
10000_FRONT
370
    25
390
0
  6
CONTINUOUS
 62
     7
100
AcDbLine
 10
461.609315
 20
1012.448532
 30
0.0
 11
461.782808
 21
1012.547371
 31
0.0
  0
LINE
  5
111E
100
AcDbEntity
  8
10000_FRONT
370
    25
390
0
  6
CONTINUOUS
 62
     7
100
AcDbLine
 10
461.782808
 20
1012.547371
 30
0.0
 11
461.961347
 21
1012.638176
 31
0.0
  0
LINE
  5
111F
100
AcDbEntity
  8
10000_FRONT
370
    25
390
0
  6
CONTINUOUS
 62
     7
100
AcDbLine
 10
461.961347
 20
1012.638176
 30
0.0
 11
462.144269
 21
1012.72049
 31
0.0
  0
LINE
  5
1120
100
AcDbEntity
  8
10000_FRONT
370
    25
390
0
  6
CONTINUOUS
 62
     7
100
AcDbLine
 10
462.144269
 20
1012.72049
 30
0.0
 11
462.330964
 21
1012.793922
 31
0.0
  0
LINE
  5
1121
100
AcDbEntity
  8
10000_FRONT
370
    25
390
0
  6
CONTINUOUS
 62
     7
100
AcDbLine
 10
462.330964
 20
1012.793922
 30
0.0
 11
462.520765
 21
1012.858276
 31
0.0
  0
LINE
  5
1122
100
AcDbEntity
  8
10000_FRONT
370
    25
390
0
  6
CONTINUOUS
 62
     7
100
AcDbLine
 10
462.520765
 20
1012.858276
 30
0.0
 11
462.71288
 21
1012.913429
 31
0.0
  0
LINE
  5
1123
100
AcDbEntity
  8
10000_FRONT
370
    25
390
0
  6
CONTINUOUS
 62
     7
100
AcDbLine
 10
462.71288
 20
1012.913429
 30
0.0
 11
462.906526
 21
1012.959221
 31
0.0
  0
LINE
  5
1124
100
AcDbEntity
  8
10000_FRONT
370
    25
390
0
  6
CONTINUOUS
 62
     7
100
AcDbLine
 10
462.906526
 20
1012.959221
 30
0.0
 11
463.100919
 21
1012.995529
 31
0.0
  0
LINE
  5
1125
100
AcDbEntity
  8
10000_FRONT
370
    25
390
0
  6
CONTINUOUS
 62
     7
100
AcDbLine
 10
463.100919
 20
1012.995529
 30
0.0
 11
463.295228
 21
1013.022438
 31
0.0
  0
LINE
  5
1126
100
AcDbEntity
  8
10000_FRONT
370
    25
390
0
  6
CONTINUOUS
 62
     7
100
AcDbLine
 10
463.295228
 20
1013.022438
 30
0.0
 11
463.488595
 21
1013.040161
 31
0.0
  0
LINE
  5
1127
100
AcDbEntity
  8
10000_FRONT
370
    25
390
0
  6
CONTINUOUS
 62
     7
100
AcDbLine
 10
463.488595
 20
1013.040161
 30
0.0
 11
463.680162
 21
1013.048912
 31
0.0
  0
LINE
  5
1128
100
AcDbEntity
  8
10000_FRONT
370
    25
390
0
  6
CONTINUOUS
 62
     7
100
AcDbLine
 10
463.680162
 20
1013.048912
 30
0.0
 11
463.869848
 21
1013.048912
 31
0.0
  0
LINE
  5
1129
100
AcDbEntity
  8
10000_FRONT
370
    25
390
0
  6
CONTINUOUS
 62
     7
100
AcDbLine
 10
463.869848
 20
1013.048912
 30
0.0
 11
464.061418
 21
1013.040161
 31
0.0
  0
LINE
  5
112A
100
AcDbEntity
  8
10000_FRONT
370
    25
390
0
  6
CONTINUOUS
 62
     7
100
AcDbLine
 10
464.061418
 20
1013.040161
 30
0.0
 11
464.254781
 21
1013.022438
 31
0.0
  0
LINE
  5
112B
100
AcDbEntity
  8
10000_FRONT
370
    25
390
0
  6
CONTINUOUS
 62
     7
100
AcDbLine
 10
464.254781
 20
1013.022438
 30
0.0
 11
464.44909
 21
1012.995529
 31
0.0
  0
LINE
  5
112C
100
AcDbEntity
  8
10000_FRONT
370
    25
390
0
  6
CONTINUOUS
 62
     7
100
AcDbLine
 10
464.44909
 20
1012.995529
 30
0.0
 11
464.643483
 21
1012.959221
 31
0.0
  0
LINE
  5
112D
100
AcDbEntity
  8
10000_FRONT
370
    25
390
0
  6
CONTINUOUS
 62
     7
100
AcDbLine
 10
464.643483
 20
1012.959221
 30
0.0
 11
464.837133
 21
1012.913429
 31
0.0
  0
LINE
  5
112E
100
AcDbEntity
  8
10000_FRONT
370
    25
390
0
  6
CONTINUOUS
 62
     7
100
AcDbLine
 10
464.837133
 20
1012.913429
 30
0.0
 11
465.029248
 21
1012.858276
 31
0.0
  0
LINE
  5
112F
100
AcDbEntity
  8
10000_FRONT
370
    25
390
0
  6
CONTINUOUS
 62
     7
100
AcDbLine
 10
465.029248
 20
1012.858276
 30
0.0
 11
465.219045
 21
1012.793922
 31
0.0
  0
LINE
  5
1130
100
AcDbEntity
  8
10000_FRONT
370
    25
390
0
  6
CONTINUOUS
 62
     7
100
AcDbLine
 10
465.219045
 20
1012.793922
 30
0.0
 11
465.40574
 21
1012.72049
 31
0.0
  0
LINE
  5
1131
100
AcDbEntity
  8
10000_FRONT
370
    25
390
0
  6
CONTINUOUS
 62
     7
100
AcDbLine
 10
465.40574
 20
1012.72049
 30
0.0
 11
465.588666
 21
1012.638176
 31
0.0
  0
LINE
  5
1132
100
AcDbEntity
  8
10000_FRONT
370
    25
390
0
  6
CONTINUOUS
 62
     7
100
AcDbLine
 10
465.588666
 20
1012.638176
 30
0.0
 11
465.767202
 21
1012.547371
 31
0.0
  0
LINE
  5
1133
100
AcDbEntity
  8
10000_FRONT
370
    25
390
0
  6
CONTINUOUS
 62
     7
100
AcDbLine
 10
465.767202
 20
1012.547371
 30
0.0
 11
465.940694
 21
1012.448532
 31
0.0
  0
LINE
  5
1134
100
AcDbEntity
  8
10000_FRONT
370
    25
390
0
  6
CONTINUOUS
 62
     7
100
AcDbLine
 10
465.940694
 20
1012.448532
 30
0.0
 11
466.108484
 21
1012.342117
 31
0.0
  0
LINE
  5
1135
100
AcDbEntity
  8
10000_FRONT
370
    25
390
0
  6
CONTINUOUS
 62
     7
100
AcDbLine
 10
466.108484
 20
1012.342117
 30
0.0
 11
466.269941
 21
1012.228607
 31
0.0
  0
LINE
  5
1136
100
AcDbEntity
  8
10000_FRONT
370
    25
390
0
  6
CONTINUOUS
 62
     7
100
AcDbLine
 10
466.269941
 20
1012.228607
 30
0.0
 11
466.424569
 21
1012.108711
 31
0.0
  0
LINE
  5
1137
100
AcDbEntity
  8
10000_FRONT
370
    25
390
0
  6
CONTINUOUS
 62
     7
100
AcDbLine
 10
466.424569
 20
1012.108711
 30
0.0
 11
466.571923
 21
1011.983177
 31
0.0
  0
LINE
  5
1138
100
AcDbEntity
  8
10000_FRONT
370
    25
390
0
  6
CONTINUOUS
 62
     7
100
AcDbLine
 10
466.571923
 20
1011.983177
 30
0.0
 11
466.711549
 21
1011.852776
 31
0.0
  0
LINE
  5
1139
100
AcDbEntity
  8
10000_FRONT
370
    25
390
0
  6
CONTINUOUS
 62
     7
100
AcDbLine
 10
466.711549
 20
1011.852776
 30
0.0
 11
466.844217
 21
1011.717003
 31
0.0
  0
LINE
  5
113A
100
AcDbEntity
  8
10000_FRONT
370
    25
390
0
  6
CONTINUOUS
 62
     7
100
AcDbLine
 10
466.844217
 20
1011.717003
 30
0.0
 11
466.972253
 21
1011.573418
 31
0.0
  0
LINE
  5
113B
100
AcDbEntity
  8
10000_FRONT
370
    25
390
0
  6
CONTINUOUS
 62
     7
100
AcDbLine
 10
466.972253
 20
1011.573418
 30
0.0
 11
467.095021
 21
1011.422348
 31
0.0
  0
LINE
  5
113C
100
AcDbEntity
  8
10000_FRONT
370
    25
390
0
  6
CONTINUOUS
 62
     7
100
AcDbLine
 10
467.095021
 20
1011.422348
 30
0.0
 11
467.211774
 21
1011.264236
 31
0.0
  0
LINE
  5
113D
100
AcDbEntity
  8
10000_FRONT
370
    25
390
0
  6
CONTINUOUS
 62
     7
100
AcDbLine
 10
467.211774
 20
1011.264236
 30
0.0
 11
467.321756
 21
1011.099541
 31
0.0
  0
LINE
  5
113E
100
AcDbEntity
  8
10000_FRONT
370
    25
390
0
  6
CONTINUOUS
 62
     7
100
AcDbLine
 10
467.321756
 20
1011.099541
 30
0.0
 11
467.424382
 21
1010.928825
 31
0.0
  0
LINE
  5
113F
100
AcDbEntity
  8
10000_FRONT
370
    25
390
0
  6
CONTINUOUS
 62
     7
100
AcDbLine
 10
467.424382
 20
1010.928825
 30
0.0
 11
467.519201
 21
1010.752754
 31
0.0
  0
LINE
  5
1140
100
AcDbEntity
  8
10000_FRONT
370
    25
390
0
  6
CONTINUOUS
 62
     7
100
AcDbLine
 10
467.519201
 20
1010.752754
 30
0.0
 11
467.605756
 21
1010.571976
 31
0.0
  0
LINE
  5
1141
100
AcDbEntity
  8
10000_FRONT
370
    25
390
0
  6
CONTINUOUS
 62
     7
100
AcDbLine
 10
467.605756
 20
1010.571976
 30
0.0
 11
467.683603
 21
1010.387138
 31
0.0
  0
LINE
  5
1142
100
AcDbEntity
  8
10000_FRONT
370
    25
390
0
  6
CONTINUOUS
 62
     7
100
AcDbLine
 10
467.683603
 20
1010.387138
 30
0.0
 11
467.752458
 21
1010.198853
 31
0.0
  0
LINE
  5
1143
100
AcDbEntity
  8
10000_FRONT
370
    25
390
0
  6
CONTINUOUS
 62
     7
100
AcDbLine
 10
467.752458
 20
1010.198853
 30
0.0
 11
467.812181
 21
1010.007866
 31
0.0
  0
LINE
  5
1144
100
AcDbEntity
  8
10000_FRONT
370
    25
390
0
  6
CONTINUOUS
 62
     7
100
AcDbLine
 10
467.812181
 20
1010.007866
 30
0.0
 11
467.862622
 21
1009.814964
 31
0.0
  0
LINE
  5
1145
100
AcDbEntity
  8
10000_FRONT
370
    25
390
0
  6
CONTINUOUS
 62
     7
100
AcDbLine
 10
467.862622
 20
1009.814964
 30
0.0
 11
467.903642
 21
1009.620926
 31
0.0
  0
LINE
  5
1146
100
AcDbEntity
  8
10000_FRONT
370
    25
390
0
  6
CONTINUOUS
 62
     7
100
AcDbLine
 10
467.903642
 20
1009.620926
 30
0.0
 11
467.935193
 21
1009.426559
 31
0.0
  0
LINE
  5
1147
100
AcDbEntity
  8
10000_FRONT
370
    25
390
0
  6
CONTINUOUS
 62
     7
100
AcDbLine
 10
467.935193
 20
1009.426559
 30
0.0
 11
467.957456
 21
1009.232719
 31
0.0
  0
LINE
  5
1148
100
AcDbEntity
  8
10000_FRONT
370
    25
390
0
  6
CONTINUOUS
 62
     7
100
AcDbLine
 10
467.957456
 20
1009.232719
 30
0.0
 11
467.970655
 21
1009.040245
 31
0.0
  0
LINE
  5
1149
100
AcDbEntity
  8
10000_FRONT
370
    25
390
0
  6
CONTINUOUS
 62
     7
100
AcDbLine
 10
467.970655
 20
1009.040245
 30
0.0
 11
467.975003
 21
1008.849998
 31
0.0
  0
LINE
  5
114A
100
AcDbEntity
  8
10000_FRONT
370
    25
390
0
  6
CONTINUOUS
 62
     7
100
AcDbLine
 10
459.575006
 20
1021.849998
 30
0.0
 11
459.579358
 21
1022.040291
 31
0.0
  0
LINE
  5
114B
100
AcDbEntity
  8
10000_FRONT
370
    25
390
0
  6
CONTINUOUS
 62
     7
100
AcDbLine
 10
459.579358
 20
1022.040291
 30
0.0
 11
459.592561
 21
1022.232811
 31
0.0
  0
LINE
  5
114C
100
AcDbEntity
  8
10000_FRONT
370
    25
390
0
  6
CONTINUOUS
 62
     7
100
AcDbLine
 10
459.592561
 20
1022.232811
 30
0.0
 11
459.614835
 21
1022.426704
 31
0.0
  0
LINE
  5
114D
100
AcDbEntity
  8
10000_FRONT
370
    25
390
0
  6
CONTINUOUS
 62
     7
100
AcDbLine
 10
459.614835
 20
1022.426704
 30
0.0
 11
459.646402
 21
1022.621109
 31
0.0
  0
LINE
  5
114E
100
AcDbEntity
  8
10000_FRONT
370
    25
390
0
  6
CONTINUOUS
 62
     7
100
AcDbLine
 10
459.646402
 20
1022.621109
 30
0.0
 11
459.68744
 21
1022.815186
 31
0.0
  0
LINE
  5
114F
100
AcDbEntity
  8
10000_FRONT
370
    25
390
0
  6
CONTINUOUS
 62
     7
100
AcDbLine
 10
459.68744
 20
1022.815186
 30
0.0
 11
459.737905
 21
1023.008125
 31
0.0
  0
LINE
  5
1150
100
AcDbEntity
  8
10000_FRONT
370
    25
390
0
  6
CONTINUOUS
 62
     7
100
AcDbLine
 10
459.737905
 20
1023.008125
 30
0.0
 11
459.797647
 21
1023.199142
 31
0.0
  0
LINE
  5
1151
100
AcDbEntity
  8
10000_FRONT
370
    25
390
0
  6
CONTINUOUS
 62
     7
100
AcDbLine
 10
459.797647
 20
1023.199142
 30
0.0
 11
459.866529
 21
1023.387451
 31
0.0
  0
LINE
  5
1152
100
AcDbEntity
  8
10000_FRONT
370
    25
390
0
  6
CONTINUOUS
 62
     7
100
AcDbLine
 10
459.866529
 20
1023.387451
 30
0.0
 11
459.944402
 21
1023.572304
 31
0.0
  0
LINE
  5
1153
100
AcDbEntity
  8
10000_FRONT
370
    25
390
0
  6
CONTINUOUS
 62
     7
100
AcDbLine
 10
459.944402
 20
1023.572304
 30
0.0
 11
460.030984
 21
1023.753098
 31
0.0
  0
LINE
  5
1154
100
AcDbEntity
  8
10000_FRONT
370
    25
390
0
  6
CONTINUOUS
 62
     7
100
AcDbLine
 10
460.030984
 20
1023.753098
 30
0.0
 11
460.125825
 21
1023.929176
 31
0.0
  0
LINE
  5
1155
100
AcDbEntity
  8
10000_FRONT
370
    25
390
0
  6
CONTINUOUS
 62
     7
100
AcDbLine
 10
460.125825
 20
1023.929176
 30
0.0
 11
460.228479
 21
1024.099892
 31
0.0
  0
LINE
  5
1156
100
AcDbEntity
  8
10000_FRONT
370
    25
390
0
  6
CONTINUOUS
 62
     7
100
AcDbLine
 10
460.228479
 20
1024.099892
 30
0.0
 11
460.338483
 21
1024.264587
 31
0.0
  0
LINE
  5
1157
100
AcDbEntity
  8
10000_FRONT
370
    25
390
0
  6
CONTINUOUS
 62
     7
100
AcDbLine
 10
460.338483
 20
1024.264587
 30
0.0
 11
460.455255
 21
1024.422691
 31
0.0
  0
LINE
  5
1158
100
AcDbEntity
  8
10000_FRONT
370
    25
390
0
  6
CONTINUOUS
 62
     7
100
AcDbLine
 10
460.455255
 20
1024.422691
 30
0.0
 11
460.578042
 21
1024.573753
 31
0.0
  0
LINE
  5
1159
100
AcDbEntity
  8
10000_FRONT
370
    25
390
0
  6
CONTINUOUS
 62
     7
100
AcDbLine
 10
460.578042
 20
1024.573753
 30
0.0
 11
460.706083
 21
1024.717316
 31
0.0
  0
LINE
  5
115A
100
AcDbEntity
  8
10000_FRONT
370
    25
390
0
  6
CONTINUOUS
 62
     7
100
AcDbLine
 10
460.706083
 20
1024.717316
 30
0.0
 11
460.838762
 21
1024.853073
 31
0.0
  0
LINE
  5
115B
100
AcDbEntity
  8
10000_FRONT
370
    25
390
0
  6
CONTINUOUS
 62
     7
100
AcDbLine
 10
460.838762
 20
1024.853073
 30
0.0
 11
460.978402
 21
1024.983459
 31
0.0
  0
LINE
  5
115C
100
AcDbEntity
  8
10000_FRONT
370
    25
390
0
  6
CONTINUOUS
 62
     7
100
AcDbLine
 10
460.978402
 20
1024.983459
 30
0.0
 11
461.125768
 21
1025.108978
 31
0.0
  0
LINE
  5
115D
100
AcDbEntity
  8
10000_FRONT
370
    25
390
0
  6
CONTINUOUS
 62
     7
100
AcDbLine
 10
461.125768
 20
1025.108978
 30
0.0
 11
461.280404
 21
1025.228851
 31
0.0
  0
LINE
  5
115E
100
AcDbEntity
  8
10000_FRONT
370
    25
390
0
  6
CONTINUOUS
 62
     7
100
AcDbLine
 10
461.280404
 20
1025.228851
 30
0.0
 11
461.441861
 21
1025.342339
 31
0.0
  0
LINE
  5
115F
100
AcDbEntity
  8
10000_FRONT
370
    25
390
0
  6
CONTINUOUS
 62
     7
100
AcDbLine
 10
461.441861
 20
1025.342339
 30
0.0
 11
461.609643
 21
1025.44873
 31
0.0
  0
LINE
  5
1160
100
AcDbEntity
  8
10000_FRONT
370
    25
390
0
  6
CONTINUOUS
 62
     7
100
AcDbLine
 10
461.609643
 20
1025.44873
 30
0.0
 11
461.783128
 21
1025.547546
 31
0.0
  0
LINE
  5
1161
100
AcDbEntity
  8
10000_FRONT
370
    25
390
0
  6
CONTINUOUS
 62
     7
100
AcDbLine
 10
461.783128
 20
1025.547546
 30
0.0
 11
461.961648
 21
1025.638321
 31
0.0
  0
LINE
  5
1162
100
AcDbEntity
  8
10000_FRONT
370
    25
390
0
  6
CONTINUOUS
 62
     7
100
AcDbLine
 10
461.961648
 20
1025.638321
 30
0.0
 11
462.144555
 21
1025.720612
 31
0.0
  0
LINE
  5
1163
100
AcDbEntity
  8
10000_FRONT
370
    25
390
0
  6
CONTINUOUS
 62
     7
100
AcDbLine
 10
462.144555
 20
1025.720612
 30
0.0
 11
462.331228
 21
1025.794014
 31
0.0
  0
LINE
  5
1164
100
AcDbEntity
  8
10000_FRONT
370
    25
390
0
  6
CONTINUOUS
 62
     7
100
AcDbLine
 10
462.331228
 20
1025.794014
 30
0.0
 11
462.520997
 21
1025.858353
 31
0.0
  0
LINE
  5
1165
100
AcDbEntity
  8
10000_FRONT
370
    25
390
0
  6
CONTINUOUS
 62
     7
100
AcDbLine
 10
462.520997
 20
1025.858353
 30
0.0
 11
462.713083
 21
1025.913483
 31
0.0
  0
LINE
  5
1166
100
AcDbEntity
  8
10000_FRONT
370
    25
390
0
  6
CONTINUOUS
 62
     7
100
AcDbLine
 10
462.713083
 20
1025.913483
 30
0.0
 11
462.906698
 21
1025.959259
 31
0.0
  0
LINE
  5
1167
100
AcDbEntity
  8
10000_FRONT
370
    25
390
0
  6
CONTINUOUS
 62
     7
100
AcDbLine
 10
462.906698
 20
1025.959259
 30
0.0
 11
463.101056
 21
1025.995552
 31
0.0
  0
LINE
  5
1168
100
AcDbEntity
  8
10000_FRONT
370
    25
390
0
  6
CONTINUOUS
 62
     7
100
AcDbLine
 10
463.101056
 20
1025.995552
 30
0.0
 11
463.295327
 21
1026.022446
 31
0.0
  0
LINE
  5
1169
100
AcDbEntity
  8
10000_FRONT
370
    25
390
0
  6
CONTINUOUS
 62
     7
100
AcDbLine
 10
463.295327
 20
1026.022446
 30
0.0
 11
463.488652
 21
1026.040161
 31
0.0
  0
LINE
  5
116A
100
AcDbEntity
  8
10000_FRONT
370
    25
390
0
  6
CONTINUOUS
 62
     7
100
AcDbLine
 10
463.488652
 20
1026.040161
 30
0.0
 11
463.680181
 21
1026.04892
 31
0.0
  0
LINE
  5
116B
100
AcDbEntity
  8
10000_FRONT
370
    25
390
0
  6
CONTINUOUS
 62
     7
100
AcDbLine
 10
463.680181
 20
1026.04892
 30
0.0
 11
463.869828
 21
1026.04892
 31
0.0
  0
LINE
  5
116C
100
AcDbEntity
  8
10000_FRONT
370
    25
390
0
  6
CONTINUOUS
 62
     7
100
AcDbLine
 10
463.869828
 20
1026.04892
 30
0.0
 11
464.061357
 21
1026.040161
 31
0.0
  0
LINE
  5
116D
100
AcDbEntity
  8
10000_FRONT
370
    25
390
0
  6
CONTINUOUS
 62
     7
100
AcDbLine
 10
464.061357
 20
1026.040161
 30
0.0
 11
464.254686
 21
1026.022446
 31
0.0
  0
LINE
  5
116E
100
AcDbEntity
  8
10000_FRONT
370
    25
390
0
  6
CONTINUOUS
 62
     7
100
AcDbLine
 10
464.254686
 20
1026.022446
 30
0.0
 11
464.448953
 21
1025.995552
 31
0.0
  0
LINE
  5
116F
100
AcDbEntity
  8
10000_FRONT
370
    25
390
0
  6
CONTINUOUS
 62
     7
100
AcDbLine
 10
464.448953
 20
1025.995552
 30
0.0
 11
464.643312
 21
1025.959259
 31
0.0
  0
LINE
  5
1170
100
AcDbEntity
  8
10000_FRONT
370
    25
390
0
  6
CONTINUOUS
 62
     7
100
AcDbLine
 10
464.643312
 20
1025.959259
 30
0.0
 11
464.836927
 21
1025.913483
 31
0.0
  0
LINE
  5
1171
100
AcDbEntity
  8
10000_FRONT
370
    25
390
0
  6
CONTINUOUS
 62
     7
100
AcDbLine
 10
464.836927
 20
1025.913483
 30
0.0
 11
465.029012
 21
1025.858353
 31
0.0
  0
LINE
  5
1172
100
AcDbEntity
  8
10000_FRONT
370
    25
390
0
  6
CONTINUOUS
 62
     7
100
AcDbLine
 10
465.029012
 20
1025.858353
 30
0.0
 11
465.218782
 21
1025.794014
 31
0.0
  0
LINE
  5
1173
100
AcDbEntity
  8
10000_FRONT
370
    25
390
0
  6
CONTINUOUS
 62
     7
100
AcDbLine
 10
465.218782
 20
1025.794014
 30
0.0
 11
465.405454
 21
1025.720612
 31
0.0
  0
LINE
  5
1174
100
AcDbEntity
  8
10000_FRONT
370
    25
390
0
  6
CONTINUOUS
 62
     7
100
AcDbLine
 10
465.405454
 20
1025.720612
 30
0.0
 11
465.588361
 21
1025.638321
 31
0.0
  0
LINE
  5
1175
100
AcDbEntity
  8
10000_FRONT
370
    25
390
0
  6
CONTINUOUS
 62
     7
100
AcDbLine
 10
465.588361
 20
1025.638321
 30
0.0
 11
465.766881
 21
1025.547546
 31
0.0
  0
LINE
  5
1176
100
AcDbEntity
  8
10000_FRONT
370
    25
390
0
  6
CONTINUOUS
 62
     7
100
AcDbLine
 10
465.766881
 20
1025.547546
 30
0.0
 11
465.940366
 21
1025.44873
 31
0.0
  0
LINE
  5
1177
100
AcDbEntity
  8
10000_FRONT
370
    25
390
0
  6
CONTINUOUS
 62
     7
100
AcDbLine
 10
465.940366
 20
1025.44873
 30
0.0
 11
466.108152
 21
1025.342339
 31
0.0
  0
LINE
  5
1178
100
AcDbEntity
  8
10000_FRONT
370
    25
390
0
  6
CONTINUOUS
 62
     7
100
AcDbLine
 10
466.108152
 20
1025.342339
 30
0.0
 11
466.269609
 21
1025.228851
 31
0.0
  0
LINE
  5
1179
100
AcDbEntity
  8
10000_FRONT
370
    25
390
0
  6
CONTINUOUS
 62
     7
100
AcDbLine
 10
466.269609
 20
1025.228851
 30
0.0
 11
466.424241
 21
1025.108978
 31
0.0
  0
LINE
  5
117A
100
AcDbEntity
  8
10000_FRONT
370
    25
390
0
  6
CONTINUOUS
 62
     7
100
AcDbLine
 10
466.424241
 20
1025.108978
 30
0.0
 11
466.571607
 21
1024.983459
 31
0.0
  0
LINE
  5
117B
100
AcDbEntity
  8
10000_FRONT
370
    25
390
0
  6
CONTINUOUS
 62
     7
100
AcDbLine
 10
466.571607
 20
1024.983459
 30
0.0
 11
466.711251
 21
1024.853073
 31
0.0
  0
LINE
  5
117C
100
AcDbEntity
  8
10000_FRONT
370
    25
390
0
  6
CONTINUOUS
 62
     7
100
AcDbLine
 10
466.711251
 20
1024.853073
 30
0.0
 11
466.843927
 21
1024.717316
 31
0.0
  0
LINE
  5
117D
100
AcDbEntity
  8
10000_FRONT
370
    25
390
0
  6
CONTINUOUS
 62
     7
100
AcDbLine
 10
466.843927
 20
1024.717316
 30
0.0
 11
466.971971
 21
1024.573753
 31
0.0
  0
LINE
  5
117E
100
AcDbEntity
  8
10000_FRONT
370
    25
390
0
  6
CONTINUOUS
 62
     7
100
AcDbLine
 10
466.971971
 20
1024.573753
 30
0.0
 11
467.094754
 21
1024.422691
 31
0.0
  0
LINE
  5
117F
100
AcDbEntity
  8
10000_FRONT
370
    25
390
0
  6
CONTINUOUS
 62
     7
100
AcDbLine
 10
467.094754
 20
1024.422691
 30
0.0
 11
467.211526
 21
1024.264587
 31
0.0
  0
LINE
  5
1180
100
AcDbEntity
  8
10000_FRONT
370
    25
390
0
  6
CONTINUOUS
 62
     7
100
AcDbLine
 10
467.211526
 20
1024.264587
 30
0.0
 11
467.321531
 21
1024.099892
 31
0.0
  0
LINE
  5
1181
100
AcDbEntity
  8
10000_FRONT
370
    25
390
0
  6
CONTINUOUS
 62
     7
100
AcDbLine
 10
467.321531
 20
1024.099892
 30
0.0
 11
467.424184
 21
1023.929176
 31
0.0
  0
LINE
  5
1182
100
AcDbEntity
  8
10000_FRONT
370
    25
390
0
  6
CONTINUOUS
 62
     7
100
AcDbLine
 10
467.424184
 20
1023.929176
 30
0.0
 11
467.519025
 21
1023.753098
 31
0.0
  0
LINE
  5
1183
100
AcDbEntity
  8
10000_FRONT
370
    25
390
0
  6
CONTINUOUS
 62
     7
100
AcDbLine
 10
467.519025
 20
1023.753098
 30
0.0
 11
467.605607
 21
1023.572304
 31
0.0
  0
LINE
  5
1184
100
AcDbEntity
  8
10000_FRONT
370
    25
390
0
  6
CONTINUOUS
 62
     7
100
AcDbLine
 10
467.605607
 20
1023.572304
 30
0.0
 11
467.68348
 21
1023.387451
 31
0.0
  0
LINE
  5
1185
100
AcDbEntity
  8
10000_FRONT
370
    25
390
0
  6
CONTINUOUS
 62
     7
100
AcDbLine
 10
467.68348
 20
1023.387451
 30
0.0
 11
467.752362
 21
1023.199142
 31
0.0
  0
LINE
  5
1186
100
AcDbEntity
  8
10000_FRONT
370
    25
390
0
  6
CONTINUOUS
 62
     7
100
AcDbLine
 10
467.752362
 20
1023.199142
 30
0.0
 11
467.812108
 21
1023.008125
 31
0.0
  0
LINE
  5
1187
100
AcDbEntity
  8
10000_FRONT
370
    25
390
0
  6
CONTINUOUS
 62
     7
100
AcDbLine
 10
467.812108
 20
1023.008125
 30
0.0
 11
467.862569
 21
1022.815186
 31
0.0
  0
LINE
  5
1188
100
AcDbEntity
  8
10000_FRONT
370
    25
390
0
  6
CONTINUOUS
 62
     7
100
AcDbLine
 10
467.862569
 20
1022.815186
 30
0.0
 11
467.903608
 21
1022.621109
 31
0.0
  0
LINE
  5
1189
100
AcDbEntity
  8
10000_FRONT
370
    25
390
0
  6
CONTINUOUS
 62
     7
100
AcDbLine
 10
467.903608
 20
1022.621109
 30
0.0
 11
467.935174
 21
1022.426704
 31
0.0
  0
LINE
  5
118A
100
AcDbEntity
  8
10000_FRONT
370
    25
390
0
  6
CONTINUOUS
 62
     7
100
AcDbLine
 10
467.935174
 20
1022.426704
 30
0.0
 11
467.957448
 21
1022.232811
 31
0.0
  0
LINE
  5
118B
100
AcDbEntity
  8
10000_FRONT
370
    25
390
0
  6
CONTINUOUS
 62
     7
100
AcDbLine
 10
467.957448
 20
1022.232811
 30
0.0
 11
467.970651
 21
1022.040291
 31
0.0
  0
LINE
  5
118C
100
AcDbEntity
  8
10000_FRONT
370
    25
390
0
  6
CONTINUOUS
 62
     7
100
AcDbLine
 10
467.970651
 20
1022.040291
 30
0.0
 11
467.975003
 21
1021.849998
 31
0.0
  0
LINE
  5
118D
100
AcDbEntity
  8
10000_FRONT
370
    25
390
0
  6
CONTINUOUS
 62
     7
100
AcDbLine
 10
459.575006
 20
1034.849998
 30
0.0
 11
459.579358
 21
1035.040306
 31
0.0
  0
LINE
  5
118E
100
AcDbEntity
  8
10000_FRONT
370
    25
390
0
  6
CONTINUOUS
 62
     7
100
AcDbLine
 10
459.579358
 20
1035.040306
 30
0.0
 11
459.592565
 21
1035.232834
 31
0.0
  0
LINE
  5
118F
100
AcDbEntity
  8
10000_FRONT
370
    25
390
0
  6
CONTINUOUS
 62
     7
100
AcDbLine
 10
459.592565
 20
1035.232834
 30
0.0
 11
459.614839
 21
1035.426735
 31
0.0
  0
LINE
  5
1190
100
AcDbEntity
  8
10000_FRONT
370
    25
390
0
  6
CONTINUOUS
 62
     7
100
AcDbLine
 10
459.614839
 20
1035.426735
 30
0.0
 11
459.646409
 21
1035.621147
 31
0.0
  0
LINE
  5
1191
100
AcDbEntity
  8
10000_FRONT
370
    25
390
0
  6
CONTINUOUS
 62
     7
100
AcDbLine
 10
459.646409
 20
1035.621147
 30
0.0
 11
459.687448
 21
1035.815224
 31
0.0
  0
LINE
  5
1192
100
AcDbEntity
  8
10000_FRONT
370
    25
390
0
  6
CONTINUOUS
 62
     7
100
AcDbLine
 10
459.687448
 20
1035.815224
 30
0.0
 11
459.737916
 21
1036.008163
 31
0.0
  0
LINE
  5
1193
100
AcDbEntity
  8
10000_FRONT
370
    25
390
0
  6
CONTINUOUS
 62
     7
100
AcDbLine
 10
459.737916
 20
1036.008163
 30
0.0
 11
459.797662
 21
1036.199188
 31
0.0
  0
LINE
  5
1194
100
AcDbEntity
  8
10000_FRONT
370
    25
390
0
  6
CONTINUOUS
 62
     7
100
AcDbLine
 10
459.797662
 20
1036.199188
 30
0.0
 11
459.866548
 21
1036.387497
 31
0.0
  0
LINE
  5
1195
100
AcDbEntity
  8
10000_FRONT
370
    25
390
0
  6
CONTINUOUS
 62
     7
100
AcDbLine
 10
459.866548
 20
1036.387497
 30
0.0
 11
459.944425
 21
1036.57235
 31
0.0
  0
LINE
  5
1196
100
AcDbEntity
  8
10000_FRONT
370
    25
390
0
  6
CONTINUOUS
 62
     7
100
AcDbLine
 10
459.944425
 20
1036.57235
 30
0.0
 11
460.031007
 21
1036.753143
 31
0.0
  0
LINE
  5
1197
100
AcDbEntity
  8
10000_FRONT
370
    25
390
0
  6
CONTINUOUS
 62
     7
100
AcDbLine
 10
460.031007
 20
1036.753143
 30
0.0
 11
460.125852
 21
1036.929222
 31
0.0
  0
LINE
  5
1198
100
AcDbEntity
  8
10000_FRONT
370
    25
390
0
  6
CONTINUOUS
 62
     7
100
AcDbLine
 10
460.125852
 20
1036.929222
 30
0.0
 11
460.228505
 21
1037.099937
 31
0.0
  0
LINE
  5
1199
100
AcDbEntity
  8
10000_FRONT
370
    25
390
0
  6
CONTINUOUS
 62
     7
100
AcDbLine
 10
460.228505
 20
1037.099937
 30
0.0
 11
460.33851
 21
1037.264626
 31
0.0
  0
LINE
  5
119A
100
AcDbEntity
  8
10000_FRONT
370
    25
390
0
  6
CONTINUOUS
 62
     7
100
AcDbLine
 10
460.33851
 20
1037.264626
 30
0.0
 11
460.455281
 21
1037.422729
 31
0.0
  0
LINE
  5
119B
100
AcDbEntity
  8
10000_FRONT
370
    25
390
0
  6
CONTINUOUS
 62
     7
100
AcDbLine
 10
460.455281
 20
1037.422729
 30
0.0
 11
460.578069
 21
1037.573784
 31
0.0
  0
LINE
  5
119C
100
AcDbEntity
  8
10000_FRONT
370
    25
390
0
  6
CONTINUOUS
 62
     7
100
AcDbLine
 10
460.578069
 20
1037.573784
 30
0.0
 11
460.706113
 21
1037.717346
 31
0.0
  0
LINE
  5
119D
100
AcDbEntity
  8
10000_FRONT
370
    25
390
0
  6
CONTINUOUS
 62
     7
100
AcDbLine
 10
460.706113
 20
1037.717346
 30
0.0
 11
460.838784
 21
1037.853096
 31
0.0
  0
LINE
  5
119E
100
AcDbEntity
  8
10000_FRONT
370
    25
390
0
  6
CONTINUOUS
 62
     7
100
AcDbLine
 10
460.838784
 20
1037.853096
 30
0.0
 11
460.978429
 21
1037.983482
 31
0.0
  0
LINE
  5
119F
100
AcDbEntity
  8
10000_FRONT
370
    25
390
0
  6
CONTINUOUS
 62
     7
100
AcDbLine
 10
460.978429
 20
1037.983482
 30
0.0
 11
461.125791
 21
1038.108994
 31
0.0
  0
LINE
  5
11A0
100
AcDbEntity
  8
10000_FRONT
370
    25
390
0
  6
CONTINUOUS
 62
     7
100
AcDbLine
 10
461.125791
 20
1038.108994
 30
0.0
 11
461.280423
 21
1038.228874
 31
0.0
  0
LINE
  5
11A1
100
AcDbEntity
  8
10000_FRONT
370
    25
390
0
  6
CONTINUOUS
 62
     7
100
AcDbLine
 10
461.280423
 20
1038.228874
 30
0.0
 11
461.44188
 21
1038.342354
 31
0.0
  0
LINE
  5
11A2
100
AcDbEntity
  8
10000_FRONT
370
    25
390
0
  6
CONTINUOUS
 62
     7
100
AcDbLine
 10
461.44188
 20
1038.342354
 30
0.0
 11
461.609662
 21
1038.448746
 31
0.0
  0
LINE
  5
11A3
100
AcDbEntity
  8
10000_FRONT
370
    25
390
0
  6
CONTINUOUS
 62
     7
100
AcDbLine
 10
461.609662
 20
1038.448746
 30
0.0
 11
461.783143
 21
1038.547554
 31
0.0
  0
LINE
  5
11A4
100
AcDbEntity
  8
10000_FRONT
370
    25
390
0
  6
CONTINUOUS
 62
     7
100
AcDbLine
 10
461.783143
 20
1038.547554
 30
0.0
 11
461.961663
 21
1038.638329
 31
0.0
  0
LINE
  5
11A5
100
AcDbEntity
  8
10000_FRONT
370
    25
390
0
  6
CONTINUOUS
 62
     7
100
AcDbLine
 10
461.961663
 20
1038.638329
 30
0.0
 11
462.144567
 21
1038.720619
 31
0.0
  0
LINE
  5
11A6
100
AcDbEntity
  8
10000_FRONT
370
    25
390
0
  6
CONTINUOUS
 62
     7
100
AcDbLine
 10
462.144567
 20
1038.720619
 30
0.0
 11
462.331239
 21
1038.794022
 31
0.0
  0
LINE
  5
11A7
100
AcDbEntity
  8
10000_FRONT
370
    25
390
0
  6
CONTINUOUS
 62
     7
100
AcDbLine
 10
462.331239
 20
1038.794022
 30
0.0
 11
462.521005
 21
1038.858353
 31
0.0
  0
LINE
  5
11A8
100
AcDbEntity
  8
10000_FRONT
370
    25
390
0
  6
CONTINUOUS
 62
     7
100
AcDbLine
 10
462.521005
 20
1038.858353
 30
0.0
 11
462.71309
 21
1038.913483
 31
0.0
  0
LINE
  5
11A9
100
AcDbEntity
  8
10000_FRONT
370
    25
390
0
  6
CONTINUOUS
 62
     7
100
AcDbLine
 10
462.71309
 20
1038.913483
 30
0.0
 11
462.906701
 21
1038.959259
 31
0.0
  0
LINE
  5
11AA
100
AcDbEntity
  8
10000_FRONT
370
    25
390
0
  6
CONTINUOUS
 62
     7
100
AcDbLine
 10
462.906701
 20
1038.959259
 30
0.0
 11
463.10106
 21
1038.995552
 31
0.0
  0
LINE
  5
11AB
100
AcDbEntity
  8
10000_FRONT
370
    25
390
0
  6
CONTINUOUS
 62
     7
100
AcDbLine
 10
463.10106
 20
1038.995552
 30
0.0
 11
463.295327
 21
1039.022446
 31
0.0
  0
LINE
  5
11AC
100
AcDbEntity
  8
10000_FRONT
370
    25
390
0
  6
CONTINUOUS
 62
     7
100
AcDbLine
 10
463.295327
 20
1039.022446
 30
0.0
 11
463.488652
 21
1039.040161
 31
0.0
  0
LINE
  5
11AD
100
AcDbEntity
  8
10000_FRONT
370
    25
390
0
  6
CONTINUOUS
 62
     7
100
AcDbLine
 10
463.488652
 20
1039.040161
 30
0.0
 11
463.680181
 21
1039.04892
 31
0.0
  0
LINE
  5
11AE
100
AcDbEntity
  8
10000_FRONT
370
    25
390
0
  6
CONTINUOUS
 62
     7
100
AcDbLine
 10
463.680181
 20
1039.04892
 30
0.0
 11
463.869828
 21
1039.04892
 31
0.0
  0
LINE
  5
11AF
100
AcDbEntity
  8
10000_FRONT
370
    25
390
0
  6
CONTINUOUS
 62
     7
100
AcDbLine
 10
463.869828
 20
1039.04892
 30
0.0
 11
464.061357
 21
1039.040161
 31
0.0
  0
LINE
  5
11B0
100
AcDbEntity
  8
10000_FRONT
370
    25
390
0
  6
CONTINUOUS
 62
     7
100
AcDbLine
 10
464.061357
 20
1039.040161
 30
0.0
 11
464.254682
 21
1039.022446
 31
0.0
  0
LINE
  5
11B1
100
AcDbEntity
  8
10000_FRONT
370
    25
390
0
  6
CONTINUOUS
 62
     7
100
AcDbLine
 10
464.254682
 20
1039.022446
 30
0.0
 11
464.448953
 21
1038.995552
 31
0.0
  0
LINE
  5
11B2
100
AcDbEntity
  8
10000_FRONT
370
    25
390
0
  6
CONTINUOUS
 62
     7
100
AcDbLine
 10
464.448953
 20
1038.995552
 30
0.0
 11
464.643308
 21
1038.959259
 31
0.0
  0
LINE
  5
11B3
100
AcDbEntity
  8
10000_FRONT
370
    25
390
0
  6
CONTINUOUS
 62
     7
100
AcDbLine
 10
464.643308
 20
1038.959259
 30
0.0
 11
464.836919
 21
1038.913483
 31
0.0
  0
LINE
  5
11B4
100
AcDbEntity
  8
10000_FRONT
370
    25
390
0
  6
CONTINUOUS
 62
     7
100
AcDbLine
 10
464.836919
 20
1038.913483
 30
0.0
 11
465.029004
 21
1038.858353
 31
0.0
  0
LINE
  5
11B5
100
AcDbEntity
  8
10000_FRONT
370
    25
390
0
  6
CONTINUOUS
 62
     7
100
AcDbLine
 10
465.029004
 20
1038.858353
 30
0.0
 11
465.218774
 21
1038.794022
 31
0.0
  0
LINE
  5
11B6
100
AcDbEntity
  8
10000_FRONT
370
    25
390
0
  6
CONTINUOUS
 62
     7
100
AcDbLine
 10
465.218774
 20
1038.794022
 30
0.0
 11
465.405442
 21
1038.720619
 31
0.0
  0
LINE
  5
11B7
100
AcDbEntity
  8
10000_FRONT
370
    25
390
0
  6
CONTINUOUS
 62
     7
100
AcDbLine
 10
465.405442
 20
1038.720619
 30
0.0
 11
465.588346
 21
1038.638329
 31
0.0
  0
LINE
  5
11B8
100
AcDbEntity
  8
10000_FRONT
370
    25
390
0
  6
CONTINUOUS
 62
     7
100
AcDbLine
 10
465.588346
 20
1038.638329
 30
0.0
 11
465.766866
 21
1038.547554
 31
0.0
  0
LINE
  5
11B9
100
AcDbEntity
  8
10000_FRONT
370
    25
390
0
  6
CONTINUOUS
 62
     7
100
AcDbLine
 10
465.766866
 20
1038.547554
 30
0.0
 11
465.940347
 21
1038.448746
 31
0.0
  0
LINE
  5
11BA
100
AcDbEntity
  8
10000_FRONT
370
    25
390
0
  6
CONTINUOUS
 62
     7
100
AcDbLine
 10
465.940347
 20
1038.448746
 30
0.0
 11
466.108129
 21
1038.342354
 31
0.0
  0
LINE
  5
11BB
100
AcDbEntity
  8
10000_FRONT
370
    25
390
0
  6
CONTINUOUS
 62
     7
100
AcDbLine
 10
466.108129
 20
1038.342354
 30
0.0
 11
466.269586
 21
1038.228874
 31
0.0
  0
LINE
  5
11BC
100
AcDbEntity
  8
10000_FRONT
370
    25
390
0
  6
CONTINUOUS
 62
     7
100
AcDbLine
 10
466.269586
 20
1038.228874
 30
0.0
 11
466.424218
 21
1038.108994
 31
0.0
  0
LINE
  5
11BD
100
AcDbEntity
  8
10000_FRONT
370
    25
390
0
  6
CONTINUOUS
 62
     7
100
AcDbLine
 10
466.424218
 20
1038.108994
 30
0.0
 11
466.571584
 21
1037.983482
 31
0.0
  0
LINE
  5
11BE
100
AcDbEntity
  8
10000_FRONT
370
    25
390
0
  6
CONTINUOUS
 62
     7
100
AcDbLine
 10
466.571584
 20
1037.983482
 30
0.0
 11
466.711225
 21
1037.853096
 31
0.0
  0
LINE
  5
11BF
100
AcDbEntity
  8
10000_FRONT
370
    25
390
0
  6
CONTINUOUS
 62
     7
100
AcDbLine
 10
466.711225
 20
1037.853096
 30
0.0
 11
466.8439
 21
1037.717346
 31
0.0
  0
LINE
  5
11C0
100
AcDbEntity
  8
10000_FRONT
370
    25
390
0
  6
CONTINUOUS
 62
     7
100
AcDbLine
 10
466.8439
 20
1037.717346
 30
0.0
 11
466.97194
 21
1037.573784
 31
0.0
  0
LINE
  5
11C1
100
AcDbEntity
  8
10000_FRONT
370
    25
390
0
  6
CONTINUOUS
 62
     7
100
AcDbLine
 10
466.97194
 20
1037.573784
 30
0.0
 11
467.094728
 21
1037.422729
 31
0.0
  0
LINE
  5
11C2
100
AcDbEntity
  8
10000_FRONT
370
    25
390
0
  6
CONTINUOUS
 62
     7
100
AcDbLine
 10
467.094728
 20
1037.422729
 30
0.0
 11
467.211499
 21
1037.264626
 31
0.0
  0
LINE
  5
11C3
100
AcDbEntity
  8
10000_FRONT
370
    25
390
0
  6
CONTINUOUS
 62
     7
100
AcDbLine
 10
467.211499
 20
1037.264626
 30
0.0
 11
467.321504
 21
1037.099937
 31
0.0
  0
LINE
  5
11C4
100
AcDbEntity
  8
10000_FRONT
370
    25
390
0
  6
CONTINUOUS
 62
     7
100
AcDbLine
 10
467.321504
 20
1037.099937
 30
0.0
 11
467.424157
 21
1036.929222
 31
0.0
  0
LINE
  5
11C5
100
AcDbEntity
  8
10000_FRONT
370
    25
390
0
  6
CONTINUOUS
 62
     7
100
AcDbLine
 10
467.424157
 20
1036.929222
 30
0.0
 11
467.519002
 21
1036.753143
 31
0.0
  0
LINE
  5
11C6
100
AcDbEntity
  8
10000_FRONT
370
    25
390
0
  6
CONTINUOUS
 62
     7
100
AcDbLine
 10
467.519002
 20
1036.753143
 30
0.0
 11
467.605584
 21
1036.57235
 31
0.0
  0
LINE
  5
11C7
100
AcDbEntity
  8
10000_FRONT
370
    25
390
0
  6
CONTINUOUS
 62
     7
100
AcDbLine
 10
467.605584
 20
1036.57235
 30
0.0
 11
467.683461
 21
1036.387497
 31
0.0
  0
LINE
  5
11C8
100
AcDbEntity
  8
10000_FRONT
370
    25
390
0
  6
CONTINUOUS
 62
     7
100
AcDbLine
 10
467.683461
 20
1036.387497
 30
0.0
 11
467.752347
 21
1036.199188
 31
0.0
  0
LINE
  5
11C9
100
AcDbEntity
  8
10000_FRONT
370
    25
390
0
  6
CONTINUOUS
 62
     7
100
AcDbLine
 10
467.752347
 20
1036.199188
 30
0.0
 11
467.812093
 21
1036.008163
 31
0.0
  0
LINE
  5
11CA
100
AcDbEntity
  8
10000_FRONT
370
    25
390
0
  6
CONTINUOUS
 62
     7
100
AcDbLine
 10
467.812093
 20
1036.008163
 30
0.0
 11
467.862561
 21
1035.815224
 31
0.0
  0
LINE
  5
11CB
100
AcDbEntity
  8
10000_FRONT
370
    25
390
0
  6
CONTINUOUS
 62
     7
100
AcDbLine
 10
467.862561
 20
1035.815224
 30
0.0
 11
467.903604
 21
1035.621147
 31
0.0
  0
LINE
  5
11CC
100
AcDbEntity
  8
10000_FRONT
370
    25
390
0
  6
CONTINUOUS
 62
     7
100
AcDbLine
 10
467.903604
 20
1035.621147
 30
0.0
 11
467.93517
 21
1035.426735
 31
0.0
  0
LINE
  5
11CD
100
AcDbEntity
  8
10000_FRONT
370
    25
390
0
  6
CONTINUOUS
 62
     7
100
AcDbLine
 10
467.93517
 20
1035.426735
 30
0.0
 11
467.957448
 21
1035.232834
 31
0.0
  0
LINE
  5
11CE
100
AcDbEntity
  8
10000_FRONT
370
    25
390
0
  6
CONTINUOUS
 62
     7
100
AcDbLine
 10
467.957448
 20
1035.232834
 30
0.0
 11
467.970651
 21
1035.040306
 31
0.0
  0
LINE
  5
11CF
100
AcDbEntity
  8
10000_FRONT
370
    25
390
0
  6
CONTINUOUS
 62
     7
100
AcDbLine
 10
467.970651
 20
1035.040306
 30
0.0
 11
467.975003
 21
1034.849998
 31
0.0
  0
LINE
  5
11D0
100
AcDbEntity
  8
10000_FRONT
370
    25
390
0
  6
CONTINUOUS
 62
     7
100
AcDbLine
 10
415.625005
 20
1024.25
 30
0.0
 11
409.625005
 21
1024.25
 31
0.0
  0
LINE
  5
11D1
100
AcDbEntity
  8
10000_FRONT
370
    25
390
0
  6
CONTINUOUS
 62
     7
100
AcDbLine
 10
409.271451
 20
1023.896446
 30
0.0
 11
409.625005
 21
1024.25
 31
0.0
  0
ARC
  5
11D2
100
AcDbEntity
  8
10000_FRONT
370
    25
390
0
  6
CONTINUOUS
 62
     7
100
AcDbCircle
 10
409.625005
 20
1024.25
 30
0.0
 40
0.5
100
AcDbArc
 50
225.0
 51
270.0
  0
LINE
  5
11D3
100
AcDbEntity
  8
10000_FRONT
370
    25
390
0
  6
CONTINUOUS
 62
     7
100
AcDbLine
 10
415.625005
 20
1023.75
 30
0.0
 11
409.625005
 21
1023.75
 31
0.0
  0
ARC
  5
11D4
100
AcDbEntity
  8
10000_FRONT
370
    25
390
0
  6
CONTINUOUS
 62
     7
100
AcDbCircle
 10
415.625005
 20
1024.25
 30
0.0
 40
0.5
100
AcDbArc
 50
270.0
 51
314.999961
  0
LINE
  5
11D5
100
AcDbEntity
  8
10000_FRONT
370
    25
390
0
  6
CONTINUOUS
 62
     7
100
AcDbLine
 10
415.625005
 20
1024.25
 30
0.0
 11
415.978558
 21
1023.896446
 31
0.0
  0
ARC
  5
11D6
100
AcDbEntity
  8
10000_FRONT
370
    25
390
0
  6
CONTINUOUS
 62
     7
100
AcDbCircle
 10
409.625005
 20
1024.25
 30
0.0
 40
0.5
100
AcDbArc
 50
180.0
 51
225.0
  0
LINE
  5
11D7
100
AcDbEntity
  8
10000_FRONT
370
    25
390
0
  6
CONTINUOUS
 62
     7
100
AcDbLine
 10
409.625005
 20
1024.25
 30
0.0
 11
409.625005
 21
1030.25
 31
0.0
  0
LINE
  5
11D8
100
AcDbEntity
  8
10000_FRONT
370
    25
390
0
  6
CONTINUOUS
 62
     7
100
AcDbLine
 10
409.271451
 20
1030.603554
 30
0.0
 11
409.625005
 21
1030.25
 31
0.0
  0
ARC
  5
11D9
100
AcDbEntity
  8
10000_FRONT
370
    25
390
0
  6
CONTINUOUS
 62
     7
100
AcDbCircle
 10
409.625005
 20
1030.25
 30
0.0
 40
0.5
100
AcDbArc
 50
135.0
 51
180.0
  0
LINE
  5
11DA
100
AcDbEntity
  8
10000_FRONT
370
    25
390
0
  6
CONTINUOUS
 62
     7
100
AcDbLine
 10
409.125005
 20
1024.25
 30
0.0
 11
409.125005
 21
1030.25
 31
0.0
  0
LINE
  5
11DB
100
AcDbEntity
  8
10000_FRONT
370
    25
390
0
  6
CONTINUOUS
 62
     7
100
AcDbLine
 10
415.625005
 20
1024.25
 30
0.0
 11
415.625005
 21
1030.25
 31
0.0
  0
LINE
  5
11DC
100
AcDbEntity
  8
10000_FRONT
370
    25
390
0
  6
CONTINUOUS
 62
     7
100
AcDbLine
 10
415.625005
 20
1030.25
 30
0.0
 11
409.625005
 21
1030.25
 31
0.0
  0
ARC
  5
11DD
100
AcDbEntity
  8
10000_FRONT
370
    25
390
0
  6
CONTINUOUS
 62
     7
100
AcDbCircle
 10
415.625005
 20
1024.25
 30
0.0
 40
0.5
100
AcDbArc
 50
314.999961
 51
0.0
  0
LINE
  5
11DE
100
AcDbEntity
  8
10000_FRONT
370
    25
390
0
  6
CONTINUOUS
 62
     7
100
AcDbLine
 10
416.125005
 20
1024.25
 30
0.0
 11
416.125005
 21
1030.25
 31
0.0
  0
ARC
  5
11DF
100
AcDbEntity
  8
10000_FRONT
370
    25
390
0
  6
CONTINUOUS
 62
     7
100
AcDbCircle
 10
415.625005
 20
1030.25
 30
0.0
 40
0.5
100
AcDbArc
 50
0.0
 51
45.000039
  0
LINE
  5
11E0
100
AcDbEntity
  8
10000_FRONT
370
    25
390
0
  6
CONTINUOUS
 62
     7
100
AcDbLine
 10
415.625005
 20
1030.25
 30
0.0
 11
415.978558
 21
1030.603554
 31
0.0
  0
ARC
  5
11E1
100
AcDbEntity
  8
10000_FRONT
370
    25
390
0
  6
CONTINUOUS
 62
     7
100
AcDbCircle
 10
415.625005
 20
1030.25
 30
0.0
 40
0.5
100
AcDbArc
 50
45.000039
 51
90.0
  0
LINE
  5
11E2
100
AcDbEntity
  8
10000_FRONT
370
    25
390
0
  6
CONTINUOUS
 62
     7
100
AcDbLine
 10
415.625005
 20
1030.75
 30
0.0
 11
409.625005
 21
1030.75
 31
0.0
  0
ARC
  5
11E3
100
AcDbEntity
  8
10000_FRONT
370
    25
390
0
  6
CONTINUOUS
 62
     7
100
AcDbCircle
 10
409.625005
 20
1030.25
 30
0.0
 40
0.5
100
AcDbArc
 50
90.0
 51
135.0
  0
LINE
  5
11E4
100
AcDbEntity
  8
10000_FRONT
370
    25
390
0
  6
CONTINUOUS
 62
     7
100
AcDbLine
 10
409.025005
 20
1024.150002
 30
0.0
 11
409.025005
 21
1030.349998
 31
0.0
  0
LINE
  5
11E5
100
AcDbEntity
  8
10000_FRONT
370
    25
390
0
  6
CONTINUOUS
 62
     7
100
AcDbLine
 10
409.025005
 20
1030.349998
 30
0.0
 11
409.025498
 21
1030.371674
 31
0.0
  0
LINE
  5
11E6
100
AcDbEntity
  8
10000_FRONT
370
    25
390
0
  6
CONTINUOUS
 62
     7
100
AcDbLine
 10
409.025498
 20
1030.371674
 30
0.0
 11
409.026977
 21
1030.393593
 31
0.0
  0
LINE
  5
11E7
100
AcDbEntity
  8
10000_FRONT
370
    25
390
0
  6
CONTINUOUS
 62
     7
100
AcDbLine
 10
409.026977
 20
1030.393593
 30
0.0
 11
409.029447
 21
1030.415665
 31
0.0
  0
LINE
  5
11E8
100
AcDbEntity
  8
10000_FRONT
370
    25
390
0
  6
CONTINUOUS
 62
     7
100
AcDbLine
 10
409.029447
 20
1030.415665
 30
0.0
 11
409.032912
 21
1030.437813
 31
0.0
  0
LINE
  5
11E9
100
AcDbEntity
  8
10000_FRONT
370
    25
390
0
  6
CONTINUOUS
 62
     7
100
AcDbLine
 10
409.032912
 20
1030.437813
 30
0.0
 11
409.037374
 21
1030.459938
 31
0.0
  0
LINE
  5
11EA
100
AcDbEntity
  8
10000_FRONT
370
    25
390
0
  6
CONTINUOUS
 62
     7
100
AcDbLine
 10
409.037374
 20
1030.459938
 30
0.0
 11
409.042839
 21
1030.481972
 31
0.0
  0
LINE
  5
11EB
100
AcDbEntity
  8
10000_FRONT
370
    25
390
0
  6
CONTINUOUS
 62
     7
100
AcDbLine
 10
409.042839
 20
1030.481972
 30
0.0
 11
409.04931
 21
1030.503815
 31
0.0
  0
LINE
  5
11EC
100
AcDbEntity
  8
10000_FRONT
370
    25
390
0
  6
CONTINUOUS
 62
     7
100
AcDbLine
 10
409.04931
 20
1030.503815
 30
0.0
 11
409.056791
 21
1030.525391
 31
0.0
  0
LINE
  5
11ED
100
AcDbEntity
  8
10000_FRONT
370
    25
390
0
  6
CONTINUOUS
 62
     7
100
AcDbLine
 10
409.056791
 20
1030.525391
 30
0.0
 11
409.065284
 21
1030.546608
 31
0.0
  0
LINE
  5
11EE
100
AcDbEntity
  8
10000_FRONT
370
    25
390
0
  6
CONTINUOUS
 62
     7
100
AcDbLine
 10
409.065284
 20
1030.546608
 30
0.0
 11
409.074773
 21
1030.56739
 31
0.0
  0
LINE
  5
11EF
100
AcDbEntity
  8
10000_FRONT
370
    25
390
0
  6
CONTINUOUS
 62
     7
100
AcDbLine
 10
409.074773
 20
1030.56739
 30
0.0
 11
409.0852
 21
1030.587685
 31
0.0
  0
LINE
  5
11F0
100
AcDbEntity
  8
10000_FRONT
370
    25
390
0
  6
CONTINUOUS
 62
     7
100
AcDbLine
 10
409.0852
 20
1030.587685
 30
0.0
 11
409.0965
 21
1030.607422
 31
0.0
  0
LINE
  5
11F1
100
AcDbEntity
  8
10000_FRONT
370
    25
390
0
  6
CONTINUOUS
 62
     7
100
AcDbLine
 10
409.0965
 20
1030.607422
 30
0.0
 11
409.10861
 21
1030.626556
 31
0.0
  0
LINE
  5
11F2
100
AcDbEntity
  8
10000_FRONT
370
    25
390
0
  6
CONTINUOUS
 62
     7
100
AcDbLine
 10
409.10861
 20
1030.626556
 30
0.0
 11
409.12147
 21
1030.64502
 31
0.0
  0
LINE
  5
11F3
100
AcDbEntity
  8
10000_FRONT
370
    25
390
0
  6
CONTINUOUS
 62
     7
100
AcDbLine
 10
409.12147
 20
1030.64502
 30
0.0
 11
409.135013
 21
1030.662758
 31
0.0
  0
LINE
  5
11F4
100
AcDbEntity
  8
10000_FRONT
370
    25
390
0
  6
CONTINUOUS
 62
     7
100
AcDbLine
 10
409.135013
 20
1030.662758
 30
0.0
 11
409.149178
 21
1030.67971
 31
0.0
  0
LINE
  5
11F5
100
AcDbEntity
  8
10000_FRONT
370
    25
390
0
  6
CONTINUOUS
 62
     7
100
AcDbLine
 10
409.149178
 20
1030.67971
 30
0.0
 11
409.163901
 21
1030.695831
 31
0.0
  0
LINE
  5
11F6
100
AcDbEntity
  8
10000_FRONT
370
    25
390
0
  6
CONTINUOUS
 62
     7
100
AcDbLine
 10
409.163901
 20
1030.695831
 30
0.0
 11
409.179177
 21
1030.711105
 31
0.0
  0
LINE
  5
11F7
100
AcDbEntity
  8
10000_FRONT
370
    25
390
0
  6
CONTINUOUS
 62
     7
100
AcDbLine
 10
409.179177
 20
1030.711105
 30
0.0
 11
409.195293
 21
1030.72583
 31
0.0
  0
LINE
  5
11F8
100
AcDbEntity
  8
10000_FRONT
370
    25
390
0
  6
CONTINUOUS
 62
     7
100
AcDbLine
 10
409.195293
 20
1030.72583
 30
0.0
 11
409.212249
 21
1030.73999
 31
0.0
  0
LINE
  5
11F9
100
AcDbEntity
  8
10000_FRONT
370
    25
390
0
  6
CONTINUOUS
 62
     7
100
AcDbLine
 10
409.212249
 20
1030.73999
 30
0.0
 11
409.229988
 21
1030.753532
 31
0.0
  0
LINE
  5
11FA
100
AcDbEntity
  8
10000_FRONT
370
    25
390
0
  6
CONTINUOUS
 62
     7
100
AcDbLine
 10
409.229988
 20
1030.753532
 30
0.0
 11
409.248452
 21
1030.766396
 31
0.0
  0
LINE
  5
11FB
100
AcDbEntity
  8
10000_FRONT
370
    25
390
0
  6
CONTINUOUS
 62
     7
100
AcDbLine
 10
409.248452
 20
1030.766396
 30
0.0
 11
409.267583
 21
1030.778503
 31
0.0
  0
LINE
  5
11FC
100
AcDbEntity
  8
10000_FRONT
370
    25
390
0
  6
CONTINUOUS
 62
     7
100
AcDbLine
 10
409.267583
 20
1030.778503
 30
0.0
 11
409.287322
 21
1030.789803
 31
0.0
  0
LINE
  5
11FD
100
AcDbEntity
  8
10000_FRONT
370
    25
390
0
  6
CONTINUOUS
 62
     7
100
AcDbLine
 10
409.287322
 20
1030.789803
 30
0.0
 11
409.307614
 21
1030.800232
 31
0.0
  0
LINE
  5
11FE
100
AcDbEntity
  8
10000_FRONT
370
    25
390
0
  6
CONTINUOUS
 62
     7
100
AcDbLine
 10
409.307614
 20
1030.800232
 30
0.0
 11
409.328397
 21
1030.809723
 31
0.0
  0
LINE
  5
11FF
100
AcDbEntity
  8
10000_FRONT
370
    25
390
0
  6
CONTINUOUS
 62
     7
100
AcDbLine
 10
409.328397
 20
1030.809723
 30
0.0
 11
409.349614
 21
1030.818214
 31
0.0
  0
LINE
  5
1200
100
AcDbEntity
  8
10000_FRONT
370
    25
390
0
  6
CONTINUOUS
 62
     7
100
AcDbLine
 10
409.349614
 20
1030.818214
 30
0.0
 11
409.371188
 21
1030.825699
 31
0.0
  0
LINE
  5
1201
100
AcDbEntity
  8
10000_FRONT
370
    25
390
0
  6
CONTINUOUS
 62
     7
100
AcDbLine
 10
409.371188
 20
1030.825699
 30
0.0
 11
409.393033
 21
1030.832169
 31
0.0
  0
LINE
  5
1202
100
AcDbEntity
  8
10000_FRONT
370
    25
390
0
  6
CONTINUOUS
 62
     7
100
AcDbLine
 10
409.393033
 20
1030.832169
 30
0.0
 11
409.415064
 21
1030.837631
 31
0.0
  0
LINE
  5
1203
100
AcDbEntity
  8
10000_FRONT
370
    25
390
0
  6
CONTINUOUS
 62
     7
100
AcDbLine
 10
409.415064
 20
1030.837631
 30
0.0
 11
409.437194
 21
1030.842094
 31
0.0
  0
LINE
  5
1204
100
AcDbEntity
  8
10000_FRONT
370
    25
390
0
  6
CONTINUOUS
 62
     7
100
AcDbLine
 10
409.437194
 20
1030.842094
 30
0.0
 11
409.459339
 21
1030.845558
 31
0.0
  0
LINE
  5
1205
100
AcDbEntity
  8
10000_FRONT
370
    25
390
0
  6
CONTINUOUS
 62
     7
100
AcDbLine
 10
409.459339
 20
1030.845558
 30
0.0
 11
409.481413
 21
1030.84803
 31
0.0
  0
LINE
  5
1206
100
AcDbEntity
  8
10000_FRONT
370
    25
390
0
  6
CONTINUOUS
 62
     7
100
AcDbLine
 10
409.481413
 20
1030.84803
 30
0.0
 11
409.50333
 21
1030.84951
 31
0.0
  0
LINE
  5
1207
100
AcDbEntity
  8
10000_FRONT
370
    25
390
0
  6
CONTINUOUS
 62
     7
100
AcDbLine
 10
409.50333
 20
1030.84951
 30
0.0
 11
409.525005
 21
1030.849998
 31
0.0
  0
LINE
  5
1208
100
AcDbEntity
  8
10000_FRONT
370
    25
390
0
  6
CONTINUOUS
 62
     7
100
AcDbLine
 10
409.525005
 20
1030.849998
 30
0.0
 11
415.725005
 21
1030.849998
 31
0.0
  0
LINE
  5
1209
100
AcDbEntity
  8
10000_FRONT
370
    25
390
0
  6
CONTINUOUS
 62
     7
100
AcDbLine
 10
415.725005
 20
1030.849998
 30
0.0
 11
415.74668
 21
1030.84951
 31
0.0
  0
LINE
  5
120A
100
AcDbEntity
  8
10000_FRONT
370
    25
390
0
  6
CONTINUOUS
 62
     7
100
AcDbLine
 10
415.74668
 20
1030.84951
 30
0.0
 11
415.768597
 21
1030.84803
 31
0.0
  0
LINE
  5
120B
100
AcDbEntity
  8
10000_FRONT
370
    25
390
0
  6
CONTINUOUS
 62
     7
100
AcDbLine
 10
415.768597
 20
1030.84803
 30
0.0
 11
415.79067
 21
1030.845558
 31
0.0
  0
LINE
  5
120C
100
AcDbEntity
  8
10000_FRONT
370
    25
390
0
  6
CONTINUOUS
 62
     7
100
AcDbLine
 10
415.79067
 20
1030.845558
 30
0.0
 11
415.812815
 21
1030.842094
 31
0.0
  0
LINE
  5
120D
100
AcDbEntity
  8
10000_FRONT
370
    25
390
0
  6
CONTINUOUS
 62
     7
100
AcDbLine
 10
415.812815
 20
1030.842094
 30
0.0
 11
415.834946
 21
1030.837631
 31
0.0
  0
LINE
  5
120E
100
AcDbEntity
  8
10000_FRONT
370
    25
390
0
  6
CONTINUOUS
 62
     7
100
AcDbLine
 10
415.834946
 20
1030.837631
 30
0.0
 11
415.856977
 21
1030.832169
 31
0.0
  0
LINE
  5
120F
100
AcDbEntity
  8
10000_FRONT
370
    25
390
0
  6
CONTINUOUS
 62
     7
100
AcDbLine
 10
415.856977
 20
1030.832169
 30
0.0
 11
415.878822
 21
1030.825699
 31
0.0
  0
LINE
  5
1210
100
AcDbEntity
  8
10000_FRONT
370
    25
390
0
  6
CONTINUOUS
 62
     7
100
AcDbLine
 10
415.878822
 20
1030.825699
 30
0.0
 11
415.900396
 21
1030.818214
 31
0.0
  0
LINE
  5
1211
100
AcDbEntity
  8
10000_FRONT
370
    25
390
0
  6
CONTINUOUS
 62
     7
100
AcDbLine
 10
415.900396
 20
1030.818214
 30
0.0
 11
415.921613
 21
1030.809723
 31
0.0
  0
LINE
  5
1212
100
AcDbEntity
  8
10000_FRONT
370
    25
390
0
  6
CONTINUOUS
 62
     7
100
AcDbLine
 10
415.921613
 20
1030.809723
 30
0.0
 11
415.942397
 21
1030.800232
 31
0.0
  0
LINE
  5
1213
100
AcDbEntity
  8
10000_FRONT
370
    25
390
0
  6
CONTINUOUS
 62
     7
100
AcDbLine
 10
415.942397
 20
1030.800232
 30
0.0
 11
415.962687
 21
1030.789803
 31
0.0
  0
LINE
  5
1214
100
AcDbEntity
  8
10000_FRONT
370
    25
390
0
  6
CONTINUOUS
 62
     7
100
AcDbLine
 10
415.962687
 20
1030.789803
 30
0.0
 11
415.982427
 21
1030.778503
 31
0.0
  0
LINE
  5
1215
100
AcDbEntity
  8
10000_FRONT
370
    25
390
0
  6
CONTINUOUS
 62
     7
100
AcDbLine
 10
415.982427
 20
1030.778503
 30
0.0
 11
416.001558
 21
1030.766396
 31
0.0
  0
LINE
  5
1216
100
AcDbEntity
  8
10000_FRONT
370
    25
390
0
  6
CONTINUOUS
 62
     7
100
AcDbLine
 10
416.001558
 20
1030.766396
 30
0.0
 11
416.020021
 21
1030.753532
 31
0.0
  0
LINE
  5
1217
100
AcDbEntity
  8
10000_FRONT
370
    25
390
0
  6
CONTINUOUS
 62
     7
100
AcDbLine
 10
416.020021
 20
1030.753532
 30
0.0
 11
416.03776
 21
1030.73999
 31
0.0
  0
LINE
  5
1218
100
AcDbEntity
  8
10000_FRONT
370
    25
390
0
  6
CONTINUOUS
 62
     7
100
AcDbLine
 10
416.03776
 20
1030.73999
 30
0.0
 11
416.054717
 21
1030.72583
 31
0.0
  0
LINE
  5
1219
100
AcDbEntity
  8
10000_FRONT
370
    25
390
0
  6
CONTINUOUS
 62
     7
100
AcDbLine
 10
416.054717
 20
1030.72583
 30
0.0
 11
416.070833
 21
1030.711105
 31
0.0
  0
LINE
  5
121A
100
AcDbEntity
  8
10000_FRONT
370
    25
390
0
  6
CONTINUOUS
 62
     7
100
AcDbLine
 10
416.070833
 20
1030.711105
 30
0.0
 11
416.086109
 21
1030.695831
 31
0.0
  0
LINE
  5
121B
100
AcDbEntity
  8
10000_FRONT
370
    25
390
0
  6
CONTINUOUS
 62
     7
100
AcDbLine
 10
416.086109
 20
1030.695831
 30
0.0
 11
416.100832
 21
1030.67971
 31
0.0
  0
LINE
  5
121C
100
AcDbEntity
  8
10000_FRONT
370
    25
390
0
  6
CONTINUOUS
 62
     7
100
AcDbLine
 10
416.100832
 20
1030.67971
 30
0.0
 11
416.114997
 21
1030.662758
 31
0.0
  0
LINE
  5
121D
100
AcDbEntity
  8
10000_FRONT
370
    25
390
0
  6
CONTINUOUS
 62
     7
100
AcDbLine
 10
416.114997
 20
1030.662758
 30
0.0
 11
416.12854
 21
1030.64502
 31
0.0
  0
LINE
  5
121E
100
AcDbEntity
  8
10000_FRONT
370
    25
390
0
  6
CONTINUOUS
 62
     7
100
AcDbLine
 10
416.12854
 20
1030.64502
 30
0.0
 11
416.141399
 21
1030.626556
 31
0.0
  0
LINE
  5
121F
100
AcDbEntity
  8
10000_FRONT
370
    25
390
0
  6
CONTINUOUS
 62
     7
100
AcDbLine
 10
416.141399
 20
1030.626556
 30
0.0
 11
416.15351
 21
1030.607422
 31
0.0
  0
LINE
  5
1220
100
AcDbEntity
  8
10000_FRONT
370
    25
390
0
  6
CONTINUOUS
 62
     7
100
AcDbLine
 10
416.15351
 20
1030.607422
 30
0.0
 11
416.164811
 21
1030.587685
 31
0.0
  0
LINE
  5
1221
100
AcDbEntity
  8
10000_FRONT
370
    25
390
0
  6
CONTINUOUS
 62
     7
100
AcDbLine
 10
416.164811
 20
1030.587685
 30
0.0
 11
416.175237
 21
1030.56739
 31
0.0
  0
LINE
  5
1222
100
AcDbEntity
  8
10000_FRONT
370
    25
390
0
  6
CONTINUOUS
 62
     7
100
AcDbLine
 10
416.175237
 20
1030.56739
 30
0.0
 11
416.184726
 21
1030.546608
 31
0.0
  0
LINE
  5
1223
100
AcDbEntity
  8
10000_FRONT
370
    25
390
0
  6
CONTINUOUS
 62
     7
100
AcDbLine
 10
416.184726
 20
1030.546608
 30
0.0
 11
416.19322
 21
1030.525391
 31
0.0
  0
LINE
  5
1224
100
AcDbEntity
  8
10000_FRONT
370
    25
390
0
  6
CONTINUOUS
 62
     7
100
AcDbLine
 10
416.19322
 20
1030.525391
 30
0.0
 11
416.2007
 21
1030.503815
 31
0.0
  0
LINE
  5
1225
100
AcDbEntity
  8
10000_FRONT
370
    25
390
0
  6
CONTINUOUS
 62
     7
100
AcDbLine
 10
416.2007
 20
1030.503815
 30
0.0
 11
416.207171
 21
1030.481972
 31
0.0
  0
LINE
  5
1226
100
AcDbEntity
  8
10000_FRONT
370
    25
390
0
  6
CONTINUOUS
 62
     7
100
AcDbLine
 10
416.207171
 20
1030.481972
 30
0.0
 11
416.212636
 21
1030.459938
 31
0.0
  0
LINE
  5
1227
100
AcDbEntity
  8
10000_FRONT
370
    25
390
0
  6
CONTINUOUS
 62
     7
100
AcDbLine
 10
416.212636
 20
1030.459938
 30
0.0
 11
416.217099
 21
1030.437813
 31
0.0
  0
LINE
  5
1228
100
AcDbEntity
  8
10000_FRONT
370
    25
390
0
  6
CONTINUOUS
 62
     7
100
AcDbLine
 10
416.217099
 20
1030.437813
 30
0.0
 11
416.220563
 21
1030.415665
 31
0.0
  0
LINE
  5
1229
100
AcDbEntity
  8
10000_FRONT
370
    25
390
0
  6
CONTINUOUS
 62
     7
100
AcDbLine
 10
416.220563
 20
1030.415665
 30
0.0
 11
416.223033
 21
1030.393593
 31
0.0
  0
LINE
  5
122A
100
AcDbEntity
  8
10000_FRONT
370
    25
390
0
  6
CONTINUOUS
 62
     7
100
AcDbLine
 10
416.223033
 20
1030.393593
 30
0.0
 11
416.224513
 21
1030.371674
 31
0.0
  0
LINE
  5
122B
100
AcDbEntity
  8
10000_FRONT
370
    25
390
0
  6
CONTINUOUS
 62
     7
100
AcDbLine
 10
416.224513
 20
1030.371674
 30
0.0
 11
416.225005
 21
1030.349998
 31
0.0
  0
LINE
  5
122C
100
AcDbEntity
  8
10000_FRONT
370
    25
390
0
  6
CONTINUOUS
 62
     7
100
AcDbLine
 10
416.225005
 20
1024.150002
 30
0.0
 11
416.225005
 21
1030.349998
 31
0.0
  0
LINE
  5
122D
100
AcDbEntity
  8
10000_FRONT
370
    25
390
0
  6
CONTINUOUS
 62
     7
100
AcDbLine
 10
416.225005
 20
1024.150002
 30
0.0
 11
416.224513
 21
1024.128326
 31
0.0
  0
LINE
  5
122E
100
AcDbEntity
  8
10000_FRONT
370
    25
390
0
  6
CONTINUOUS
 62
     7
100
AcDbLine
 10
416.224513
 20
1024.128326
 30
0.0
 11
416.223034
 21
1024.106407
 31
0.0
  0
LINE
  5
122F
100
AcDbEntity
  8
10000_FRONT
370
    25
390
0
  6
CONTINUOUS
 62
     7
100
AcDbLine
 10
416.223034
 20
1024.106407
 30
0.0
 11
416.220564
 21
1024.084335
 31
0.0
  0
LINE
  5
1230
100
AcDbEntity
  8
10000_FRONT
370
    25
390
0
  6
CONTINUOUS
 62
     7
100
AcDbLine
 10
416.220564
 20
1024.084335
 30
0.0
 11
416.217099
 21
1024.062195
 31
0.0
  0
LINE
  5
1231
100
AcDbEntity
  8
10000_FRONT
370
    25
390
0
  6
CONTINUOUS
 62
     7
100
AcDbLine
 10
416.217099
 20
1024.062195
 30
0.0
 11
416.212636
 21
1024.040062
 31
0.0
  0
LINE
  5
1232
100
AcDbEntity
  8
10000_FRONT
370
    25
390
0
  6
CONTINUOUS
 62
     7
100
AcDbLine
 10
416.212636
 20
1024.040062
 30
0.0
 11
416.207172
 21
1024.018028
 31
0.0
  0
LINE
  5
1233
100
AcDbEntity
  8
10000_FRONT
370
    25
390
0
  6
CONTINUOUS
 62
     7
100
AcDbLine
 10
416.207172
 20
1024.018028
 30
0.0
 11
416.200701
 21
1023.996185
 31
0.0
  0
LINE
  5
1234
100
AcDbEntity
  8
10000_FRONT
370
    25
390
0
  6
CONTINUOUS
 62
     7
100
AcDbLine
 10
416.200701
 20
1023.996185
 30
0.0
 11
416.193221
 21
1023.974609
 31
0.0
  0
LINE
  5
1235
100
AcDbEntity
  8
10000_FRONT
370
    25
390
0
  6
CONTINUOUS
 62
     7
100
AcDbLine
 10
416.193221
 20
1023.974609
 30
0.0
 11
416.184728
 21
1023.953392
 31
0.0
  0
LINE
  5
1236
100
AcDbEntity
  8
10000_FRONT
370
    25
390
0
  6
CONTINUOUS
 62
     7
100
AcDbLine
 10
416.184728
 20
1023.953392
 30
0.0
 11
416.175239
 21
1023.93261
 31
0.0
  0
LINE
  5
1237
100
AcDbEntity
  8
10000_FRONT
370
    25
390
0
  6
CONTINUOUS
 62
     7
100
AcDbLine
 10
416.175239
 20
1023.93261
 30
0.0
 11
416.164813
 21
1023.912323
 31
0.0
  0
LINE
  5
1238
100
AcDbEntity
  8
10000_FRONT
370
    25
390
0
  6
CONTINUOUS
 62
     7
100
AcDbLine
 10
416.164813
 20
1023.912323
 30
0.0
 11
416.153513
 21
1023.892578
 31
0.0
  0
LINE
  5
1239
100
AcDbEntity
  8
10000_FRONT
370
    25
390
0
  6
CONTINUOUS
 62
     7
100
AcDbLine
 10
416.153513
 20
1023.892578
 30
0.0
 11
416.141402
 21
1023.873451
 31
0.0
  0
LINE
  5
123A
100
AcDbEntity
  8
10000_FRONT
370
    25
390
0
  6
CONTINUOUS
 62
     7
100
AcDbLine
 10
416.141402
 20
1023.873451
 30
0.0
 11
416.128543
 21
1023.854988
 31
0.0
  0
LINE
  5
123B
100
AcDbEntity
  8
10000_FRONT
370
    25
390
0
  6
CONTINUOUS
 62
     7
100
AcDbLine
 10
416.128543
 20
1023.854988
 30
0.0
 11
416.115
 21
1023.83725
 31
0.0
  0
LINE
  5
123C
100
AcDbEntity
  8
10000_FRONT
370
    25
390
0
  6
CONTINUOUS
 62
     7
100
AcDbLine
 10
416.115
 20
1023.83725
 30
0.0
 11
416.100836
 21
1023.82029
 31
0.0
  0
LINE
  5
123D
100
AcDbEntity
  8
10000_FRONT
370
    25
390
0
  6
CONTINUOUS
 62
     7
100
AcDbLine
 10
416.100836
 20
1023.82029
 30
0.0
 11
416.086113
 21
1023.804176
 31
0.0
  0
LINE
  5
123E
100
AcDbEntity
  8
10000_FRONT
370
    25
390
0
  6
CONTINUOUS
 62
     7
100
AcDbLine
 10
416.086113
 20
1023.804176
 30
0.0
 11
416.070837
 21
1023.788902
 31
0.0
  0
LINE
  5
123F
100
AcDbEntity
  8
10000_FRONT
370
    25
390
0
  6
CONTINUOUS
 62
     7
100
AcDbLine
 10
416.070837
 20
1023.788902
 30
0.0
 11
416.054721
 21
1023.774178
 31
0.0
  0
LINE
  5
1240
100
AcDbEntity
  8
10000_FRONT
370
    25
390
0
  6
CONTINUOUS
 62
     7
100
AcDbLine
 10
416.054721
 20
1023.774178
 30
0.0
 11
416.037765
 21
1023.76001
 31
0.0
  0
LINE
  5
1241
100
AcDbEntity
  8
10000_FRONT
370
    25
390
0
  6
CONTINUOUS
 62
     7
100
AcDbLine
 10
416.037765
 20
1023.76001
 30
0.0
 11
416.020025
 21
1023.746468
 31
0.0
  0
LINE
  5
1242
100
AcDbEntity
  8
10000_FRONT
370
    25
390
0
  6
CONTINUOUS
 62
     7
100
AcDbLine
 10
416.020025
 20
1023.746468
 30
0.0
 11
416.001562
 21
1023.733612
 31
0.0
  0
LINE
  5
1243
100
AcDbEntity
  8
10000_FRONT
370
    25
390
0
  6
CONTINUOUS
 62
     7
100
AcDbLine
 10
416.001562
 20
1023.733612
 30
0.0
 11
415.982431
 21
1023.721497
 31
0.0
  0
LINE
  5
1244
100
AcDbEntity
  8
10000_FRONT
370
    25
390
0
  6
CONTINUOUS
 62
     7
100
AcDbLine
 10
415.982431
 20
1023.721497
 30
0.0
 11
415.962692
 21
1023.710197
 31
0.0
  0
LINE
  5
1245
100
AcDbEntity
  8
10000_FRONT
370
    25
390
0
  6
CONTINUOUS
 62
     7
100
AcDbLine
 10
415.962692
 20
1023.710197
 30
0.0
 11
415.942401
 21
1023.699768
 31
0.0
  0
LINE
  5
1246
100
AcDbEntity
  8
10000_FRONT
370
    25
390
0
  6
CONTINUOUS
 62
     7
100
AcDbLine
 10
415.942401
 20
1023.699768
 30
0.0
 11
415.921617
 21
1023.690277
 31
0.0
  0
LINE
  5
1247
100
AcDbEntity
  8
10000_FRONT
370
    25
390
0
  6
CONTINUOUS
 62
     7
100
AcDbLine
 10
415.921617
 20
1023.690277
 30
0.0
 11
415.900399
 21
1023.681786
 31
0.0
  0
LINE
  5
1248
100
AcDbEntity
  8
10000_FRONT
370
    25
390
0
  6
CONTINUOUS
 62
     7
100
AcDbLine
 10
415.900399
 20
1023.681786
 30
0.0
 11
415.878825
 21
1023.674309
 31
0.0
  0
LINE
  5
1249
100
AcDbEntity
  8
10000_FRONT
370
    25
390
0
  6
CONTINUOUS
 62
     7
100
AcDbLine
 10
415.878825
 20
1023.674309
 30
0.0
 11
415.856979
 21
1023.667831
 31
0.0
  0
LINE
  5
124A
100
AcDbEntity
  8
10000_FRONT
370
    25
390
0
  6
CONTINUOUS
 62
     7
100
AcDbLine
 10
415.856979
 20
1023.667831
 30
0.0
 11
415.834949
 21
1023.662369
 31
0.0
  0
LINE
  5
124B
100
AcDbEntity
  8
10000_FRONT
370
    25
390
0
  6
CONTINUOUS
 62
     7
100
AcDbLine
 10
415.834949
 20
1023.662369
 30
0.0
 11
415.812817
 21
1023.657906
 31
0.0
  0
LINE
  5
124C
100
AcDbEntity
  8
10000_FRONT
370
    25
390
0
  6
CONTINUOUS
 62
     7
100
AcDbLine
 10
415.812817
 20
1023.657906
 30
0.0
 11
415.790672
 21
1023.654442
 31
0.0
  0
LINE
  5
124D
100
AcDbEntity
  8
10000_FRONT
370
    25
390
0
  6
CONTINUOUS
 62
     7
100
AcDbLine
 10
415.790672
 20
1023.654442
 30
0.0
 11
415.768598
 21
1023.65197
 31
0.0
  0
LINE
  5
124E
100
AcDbEntity
  8
10000_FRONT
370
    25
390
0
  6
CONTINUOUS
 62
     7
100
AcDbLine
 10
415.768598
 20
1023.65197
 30
0.0
 11
415.74668
 21
1023.65049
 31
0.0
  0
LINE
  5
124F
100
AcDbEntity
  8
10000_FRONT
370
    25
390
0
  6
CONTINUOUS
 62
     7
100
AcDbLine
 10
415.74668
 20
1023.65049
 30
0.0
 11
415.725005
 21
1023.650002
 31
0.0
  0
LINE
  5
1250
100
AcDbEntity
  8
10000_FRONT
370
    25
390
0
  6
CONTINUOUS
 62
     7
100
AcDbLine
 10
415.725005
 20
1023.650002
 30
0.0
 11
409.525005
 21
1023.650002
 31
0.0
  0
LINE
  5
1251
100
AcDbEntity
  8
10000_FRONT
370
    25
390
0
  6
CONTINUOUS
 62
     7
100
AcDbLine
 10
409.525005
 20
1023.650002
 30
0.0
 11
409.50333
 21
1023.65049
 31
0.0
  0
LINE
  5
1252
100
AcDbEntity
  8
10000_FRONT
370
    25
390
0
  6
CONTINUOUS
 62
     7
100
AcDbLine
 10
409.50333
 20
1023.65049
 30
0.0
 11
409.481412
 21
1023.65197
 31
0.0
  0
LINE
  5
1253
100
AcDbEntity
  8
10000_FRONT
370
    25
390
0
  6
CONTINUOUS
 62
     7
100
AcDbLine
 10
409.481412
 20
1023.65197
 30
0.0
 11
409.459338
 21
1023.654442
 31
0.0
  0
LINE
  5
1254
100
AcDbEntity
  8
10000_FRONT
370
    25
390
0
  6
CONTINUOUS
 62
     7
100
AcDbLine
 10
409.459338
 20
1023.654442
 30
0.0
 11
409.437192
 21
1023.657906
 31
0.0
  0
LINE
  5
1255
100
AcDbEntity
  8
10000_FRONT
370
    25
390
0
  6
CONTINUOUS
 62
     7
100
AcDbLine
 10
409.437192
 20
1023.657906
 30
0.0
 11
409.415061
 21
1023.662369
 31
0.0
  0
LINE
  5
1256
100
AcDbEntity
  8
10000_FRONT
370
    25
390
0
  6
CONTINUOUS
 62
     7
100
AcDbLine
 10
409.415061
 20
1023.662369
 30
0.0
 11
409.39303
 21
1023.667831
 31
0.0
  0
LINE
  5
1257
100
AcDbEntity
  8
10000_FRONT
370
    25
390
0
  6
CONTINUOUS
 62
     7
100
AcDbLine
 10
409.39303
 20
1023.667831
 30
0.0
 11
409.371186
 21
1023.674309
 31
0.0
  0
LINE
  5
1258
100
AcDbEntity
  8
10000_FRONT
370
    25
390
0
  6
CONTINUOUS
 62
     7
100
AcDbLine
 10
409.371186
 20
1023.674309
 30
0.0
 11
409.349611
 21
1023.681786
 31
0.0
  0
LINE
  5
1259
100
AcDbEntity
  8
10000_FRONT
370
    25
390
0
  6
CONTINUOUS
 62
     7
100
AcDbLine
 10
409.349611
 20
1023.681786
 30
0.0
 11
409.328393
 21
1023.690277
 31
0.0
  0
LINE
  5
125A
100
AcDbEntity
  8
10000_FRONT
370
    25
390
0
  6
CONTINUOUS
 62
     7
100
AcDbLine
 10
409.328393
 20
1023.690277
 30
0.0
 11
409.30761
 21
1023.699768
 31
0.0
  0
LINE
  5
125B
100
AcDbEntity
  8
10000_FRONT
370
    25
390
0
  6
CONTINUOUS
 62
     7
100
AcDbLine
 10
409.30761
 20
1023.699768
 30
0.0
 11
409.287318
 21
1023.710197
 31
0.0
  0
LINE
  5
125C
100
AcDbEntity
  8
10000_FRONT
370
    25
390
0
  6
CONTINUOUS
 62
     7
100
AcDbLine
 10
409.287318
 20
1023.710197
 30
0.0
 11
409.267579
 21
1023.721497
 31
0.0
  0
LINE
  5
125D
100
AcDbEntity
  8
10000_FRONT
370
    25
390
0
  6
CONTINUOUS
 62
     7
100
AcDbLine
 10
409.267579
 20
1023.721497
 30
0.0
 11
409.248449
 21
1023.733612
 31
0.0
  0
LINE
  5
125E
100
AcDbEntity
  8
10000_FRONT
370
    25
390
0
  6
CONTINUOUS
 62
     7
100
AcDbLine
 10
409.248449
 20
1023.733612
 30
0.0
 11
409.229985
 21
1023.746468
 31
0.0
  0
LINE
  5
125F
100
AcDbEntity
  8
10000_FRONT
370
    25
390
0
  6
CONTINUOUS
 62
     7
100
AcDbLine
 10
409.229985
 20
1023.746468
 30
0.0
 11
409.212245
 21
1023.76001
 31
0.0
  0
LINE
  5
1260
100
AcDbEntity
  8
10000_FRONT
370
    25
390
0
  6
CONTINUOUS
 62
     7
100
AcDbLine
 10
409.212245
 20
1023.76001
 30
0.0
 11
409.195289
 21
1023.774178
 31
0.0
  0
LINE
  5
1261
100
AcDbEntity
  8
10000_FRONT
370
    25
390
0
  6
CONTINUOUS
 62
     7
100
AcDbLine
 10
409.195289
 20
1023.774178
 30
0.0
 11
409.179173
 21
1023.788902
 31
0.0
  0
LINE
  5
1262
100
AcDbEntity
  8
10000_FRONT
370
    25
390
0
  6
CONTINUOUS
 62
     7
100
AcDbLine
 10
409.179173
 20
1023.788902
 30
0.0
 11
409.163897
 21
1023.804176
 31
0.0
  0
LINE
  5
1263
100
AcDbEntity
  8
10000_FRONT
370
    25
390
0
  6
CONTINUOUS
 62
     7
100
AcDbLine
 10
409.163897
 20
1023.804176
 30
0.0
 11
409.149174
 21
1023.82029
 31
0.0
  0
LINE
  5
1264
100
AcDbEntity
  8
10000_FRONT
370
    25
390
0
  6
CONTINUOUS
 62
     7
100
AcDbLine
 10
409.149174
 20
1023.82029
 30
0.0
 11
409.13501
 21
1023.83725
 31
0.0
  0
LINE
  5
1265
100
AcDbEntity
  8
10000_FRONT
370
    25
390
0
  6
CONTINUOUS
 62
     7
100
AcDbLine
 10
409.13501
 20
1023.83725
 30
0.0
 11
409.121467
 21
1023.854988
 31
0.0
  0
LINE
  5
1266
100
AcDbEntity
  8
10000_FRONT
370
    25
390
0
  6
CONTINUOUS
 62
     7
100
AcDbLine
 10
409.121467
 20
1023.854988
 30
0.0
 11
409.108608
 21
1023.873451
 31
0.0
  0
LINE
  5
1267
100
AcDbEntity
  8
10000_FRONT
370
    25
390
0
  6
CONTINUOUS
 62
     7
100
AcDbLine
 10
409.108608
 20
1023.873451
 30
0.0
 11
409.096497
 21
1023.892578
 31
0.0
  0
LINE
  5
1268
100
AcDbEntity
  8
10000_FRONT
370
    25
390
0
  6
CONTINUOUS
 62
     7
100
AcDbLine
 10
409.096497
 20
1023.892578
 30
0.0
 11
409.085197
 21
1023.912323
 31
0.0
  0
LINE
  5
1269
100
AcDbEntity
  8
10000_FRONT
370
    25
390
0
  6
CONTINUOUS
 62
     7
100
AcDbLine
 10
409.085197
 20
1023.912323
 30
0.0
 11
409.074771
 21
1023.93261
 31
0.0
  0
LINE
  5
126A
100
AcDbEntity
  8
10000_FRONT
370
    25
390
0
  6
CONTINUOUS
 62
     7
100
AcDbLine
 10
409.074771
 20
1023.93261
 30
0.0
 11
409.065282
 21
1023.953392
 31
0.0
  0
LINE
  5
126B
100
AcDbEntity
  8
10000_FRONT
370
    25
390
0
  6
CONTINUOUS
 62
     7
100
AcDbLine
 10
409.065282
 20
1023.953392
 30
0.0
 11
409.056789
 21
1023.974609
 31
0.0
  0
LINE
  5
126C
100
AcDbEntity
  8
10000_FRONT
370
    25
390
0
  6
CONTINUOUS
 62
     7
100
AcDbLine
 10
409.056789
 20
1023.974609
 30
0.0
 11
409.049309
 21
1023.996185
 31
0.0
  0
LINE
  5
126D
100
AcDbEntity
  8
10000_FRONT
370
    25
390
0
  6
CONTINUOUS
 62
     7
100
AcDbLine
 10
409.049309
 20
1023.996185
 30
0.0
 11
409.042838
 21
1024.018028
 31
0.0
  0
LINE
  5
126E
100
AcDbEntity
  8
10000_FRONT
370
    25
390
0
  6
CONTINUOUS
 62
     7
100
AcDbLine
 10
409.042838
 20
1024.018028
 30
0.0
 11
409.037374
 21
1024.040062
 31
0.0
  0
LINE
  5
126F
100
AcDbEntity
  8
10000_FRONT
370
    25
390
0
  6
CONTINUOUS
 62
     7
100
AcDbLine
 10
409.037374
 20
1024.040062
 30
0.0
 11
409.032911
 21
1024.062195
 31
0.0
  0
LINE
  5
1270
100
AcDbEntity
  8
10000_FRONT
370
    25
390
0
  6
CONTINUOUS
 62
     7
100
AcDbLine
 10
409.032911
 20
1024.062195
 30
0.0
 11
409.029447
 21
1024.084335
 31
0.0
  0
LINE
  5
1271
100
AcDbEntity
  8
10000_FRONT
370
    25
390
0
  6
CONTINUOUS
 62
     7
100
AcDbLine
 10
409.029447
 20
1024.084335
 30
0.0
 11
409.026977
 21
1024.106407
 31
0.0
  0
LINE
  5
1272
100
AcDbEntity
  8
10000_FRONT
370
    25
390
0
  6
CONTINUOUS
 62
     7
100
AcDbLine
 10
409.026977
 20
1024.106407
 30
0.0
 11
409.025498
 21
1024.128326
 31
0.0
  0
LINE
  5
1273
100
AcDbEntity
  8
10000_FRONT
370
    25
390
0
  6
CONTINUOUS
 62
     7
100
AcDbLine
 10
409.025498
 20
1024.128326
 30
0.0
 11
409.025005
 21
1024.150002
 31
0.0
  0
LINE
  5
1274
100
AcDbEntity
  8
10000_FRONT
370
    25
390
0
  6
CONTINUOUS
 62
     7
100
AcDbLine
 10
467.975003
 20
1034.849998
 30
0.0
 11
467.971017
 21
1034.667908
 31
0.0
  0
LINE
  5
1275
100
AcDbEntity
  8
10000_FRONT
370
    25
390
0
  6
CONTINUOUS
 62
     7
100
AcDbLine
 10
467.971017
 20
1034.667908
 30
0.0
 11
467.958932
 21
1034.483742
 31
0.0
  0
LINE
  5
1276
100
AcDbEntity
  8
10000_FRONT
370
    25
390
0
  6
CONTINUOUS
 62
     7
100
AcDbLine
 10
467.958932
 20
1034.483742
 30
0.0
 11
467.93855
 21
1034.298248
 31
0.0
  0
LINE
  5
1277
100
AcDbEntity
  8
10000_FRONT
370
    25
390
0
  6
CONTINUOUS
 62
     7
100
AcDbLine
 10
467.93855
 20
1034.298248
 30
0.0
 11
467.909684
 21
1034.11219
 31
0.0
  0
LINE
  5
1278
100
AcDbEntity
  8
10000_FRONT
370
    25
390
0
  6
CONTINUOUS
 62
     7
100
AcDbLine
 10
467.909684
 20
1034.11219
 30
0.0
 11
467.872155
 21
1033.9263
 31
0.0
  0
LINE
  5
1279
100
AcDbEntity
  8
10000_FRONT
370
    25
390
0
  6
CONTINUOUS
 62
     7
100
AcDbLine
 10
467.872155
 20
1033.9263
 30
0.0
 11
467.825967
 21
1033.741302
 31
0.0
  0
LINE
  5
127A
100
AcDbEntity
  8
10000_FRONT
370
    25
390
0
  6
CONTINUOUS
 62
     7
100
AcDbLine
 10
467.825967
 20
1033.741302
 30
0.0
 11
467.771238
 21
1033.557877
 31
0.0
  0
LINE
  5
127B
100
AcDbEntity
  8
10000_FRONT
370
    25
390
0
  6
CONTINUOUS
 62
     7
100
AcDbLine
 10
467.771238
 20
1033.557877
 30
0.0
 11
467.708101
 21
1033.376717
 31
0.0
  0
LINE
  5
127C
100
AcDbEntity
  8
10000_FRONT
370
    25
390
0
  6
CONTINUOUS
 62
     7
100
AcDbLine
 10
467.708101
 20
1033.376717
 30
0.0
 11
467.636682
 21
1033.198502
 31
0.0
  0
LINE
  5
127D
100
AcDbEntity
  8
10000_FRONT
370
    25
390
0
  6
CONTINUOUS
 62
     7
100
AcDbLine
 10
467.636682
 20
1033.198502
 30
0.0
 11
467.557149
 21
1033.023804
 31
0.0
  0
LINE
  5
127E
100
AcDbEntity
  8
10000_FRONT
370
    25
390
0
  6
CONTINUOUS
 62
     7
100
AcDbLine
 10
467.557149
 20
1033.023804
 30
0.0
 11
467.469873
 21
1032.853157
 31
0.0
  0
LINE
  5
127F
100
AcDbEntity
  8
10000_FRONT
370
    25
390
0
  6
CONTINUOUS
 62
     7
100
AcDbLine
 10
467.469873
 20
1032.853157
 30
0.0
 11
467.375245
 21
1032.687149
 31
0.0
  0
LINE
  5
1280
100
AcDbEntity
  8
10000_FRONT
370
    25
390
0
  6
CONTINUOUS
 62
     7
100
AcDbLine
 10
467.375245
 20
1032.687149
 30
0.0
 11
467.273664
 21
1032.526344
 31
0.0
  0
LINE
  5
1281
100
AcDbEntity
  8
10000_FRONT
370
    25
390
0
  6
CONTINUOUS
 62
     7
100
AcDbLine
 10
467.273664
 20
1032.526344
 30
0.0
 11
467.165555
 21
1032.371307
 31
0.0
  0
LINE
  5
1282
100
AcDbEntity
  8
10000_FRONT
370
    25
390
0
  6
CONTINUOUS
 62
     7
100
AcDbLine
 10
467.165555
 20
1032.371307
 30
0.0
 11
467.051522
 21
1032.222481
 31
0.0
  0
LINE
  5
1283
100
AcDbEntity
  8
10000_FRONT
370
    25
390
0
  6
CONTINUOUS
 62
     7
100
AcDbLine
 10
467.051522
 20
1032.222481
 30
0.0
 11
466.932222
 21
1032.080261
 31
0.0
  0
LINE
  5
1284
100
AcDbEntity
  8
10000_FRONT
370
    25
390
0
  6
CONTINUOUS
 62
     7
100
AcDbLine
 10
466.932222
 20
1032.080261
 30
0.0
 11
466.808328
 21
1031.94503
 31
0.0
  0
LINE
  5
1285
100
AcDbEntity
  8
10000_FRONT
370
    25
390
0
  6
CONTINUOUS
 62
     7
100
AcDbLine
 10
466.808328
 20
1031.94503
 30
0.0
 11
466.679998
 21
1031.816704
 31
0.0
  0
LINE
  5
1286
100
AcDbEntity
  8
10000_FRONT
370
    25
390
0
  6
CONTINUOUS
 62
     7
100
AcDbLine
 10
466.679998
 20
1031.816704
 30
0.0
 11
466.544774
 21
1031.692802
 31
0.0
  0
LINE
  5
1287
100
AcDbEntity
  8
10000_FRONT
370
    25
390
0
  6
CONTINUOUS
 62
     7
100
AcDbLine
 10
466.544774
 20
1031.692802
 30
0.0
 11
466.402547
 21
1031.573509
 31
0.0
  0
LINE
  5
1288
100
AcDbEntity
  8
10000_FRONT
370
    25
390
0
  6
CONTINUOUS
 62
     7
100
AcDbLine
 10
466.402547
 20
1031.573509
 30
0.0
 11
466.253724
 21
1031.459465
 31
0.0
  0
LINE
  5
1289
100
AcDbEntity
  8
10000_FRONT
370
    25
390
0
  6
CONTINUOUS
 62
     7
100
AcDbLine
 10
466.253724
 20
1031.459465
 30
0.0
 11
466.098687
 21
1031.351357
 31
0.0
  0
LINE
  5
128A
100
AcDbEntity
  8
10000_FRONT
370
    25
390
0
  6
CONTINUOUS
 62
     7
100
AcDbLine
 10
466.098687
 20
1031.351357
 30
0.0
 11
465.937886
 21
1031.249779
 31
0.0
  0
LINE
  5
128B
100
AcDbEntity
  8
10000_FRONT
370
    25
390
0
  6
CONTINUOUS
 62
     7
100
AcDbLine
 10
465.937886
 20
1031.249779
 30
0.0
 11
465.771878
 21
1031.155151
 31
0.0
  0
LINE
  5
128C
100
AcDbEntity
  8
10000_FRONT
370
    25
390
0
  6
CONTINUOUS
 62
     7
100
AcDbLine
 10
465.771878
 20
1031.155151
 30
0.0
 11
465.601232
 21
1031.067871
 31
0.0
  0
LINE
  5
128D
100
AcDbEntity
  8
10000_FRONT
370
    25
390
0
  6
CONTINUOUS
 62
     7
100
AcDbLine
 10
465.601232
 20
1031.067871
 30
0.0
 11
465.426526
 21
1030.988335
 31
0.0
  0
LINE
  5
128E
100
AcDbEntity
  8
10000_FRONT
370
    25
390
0
  6
CONTINUOUS
 62
     7
100
AcDbLine
 10
465.426526
 20
1030.988335
 30
0.0
 11
465.248311
 21
1030.916916
 31
0.0
  0
LINE
  5
128F
100
AcDbEntity
  8
10000_FRONT
370
    25
390
0
  6
CONTINUOUS
 62
     7
100
AcDbLine
 10
465.248311
 20
1030.916916
 30
0.0
 11
465.067151
 21
1030.853775
 31
0.0
  0
LINE
  5
1290
100
AcDbEntity
  8
10000_FRONT
370
    25
390
0
  6
CONTINUOUS
 62
     7
100
AcDbLine
 10
465.067151
 20
1030.853775
 30
0.0
 11
464.883722
 21
1030.799042
 31
0.0
  0
LINE
  5
1291
100
AcDbEntity
  8
10000_FRONT
370
    25
390
0
  6
CONTINUOUS
 62
     7
100
AcDbLine
 10
464.883722
 20
1030.799042
 30
0.0
 11
464.69872
 21
1030.752853
 31
0.0
  0
LINE
  5
1292
100
AcDbEntity
  8
10000_FRONT
370
    25
390
0
  6
CONTINUOUS
 62
     7
100
AcDbLine
 10
464.69872
 20
1030.752853
 30
0.0
 11
464.51283
 21
1030.715324
 31
0.0
  0
LINE
  5
1293
100
AcDbEntity
  8
10000_FRONT
370
    25
390
0
  6
CONTINUOUS
 62
     7
100
AcDbLine
 10
464.51283
 20
1030.715324
 30
0.0
 11
464.326764
 21
1030.686455
 31
0.0
  0
LINE
  5
1294
100
AcDbEntity
  8
10000_FRONT
370
    25
390
0
  6
CONTINUOUS
 62
     7
100
AcDbLine
 10
464.326764
 20
1030.686455
 30
0.0
 11
464.141271
 21
1030.666077
 31
0.0
  0
LINE
  5
1295
100
AcDbEntity
  8
10000_FRONT
370
    25
390
0
  6
CONTINUOUS
 62
     7
100
AcDbLine
 10
464.141271
 20
1030.666077
 30
0.0
 11
463.957101
 21
1030.653984
 31
0.0
  0
LINE
  5
1296
100
AcDbEntity
  8
10000_FRONT
370
    25
390
0
  6
CONTINUOUS
 62
     7
100
AcDbLine
 10
463.957101
 20
1030.653984
 30
0.0
 11
463.775007
 21
1030.650002
 31
0.0
  0
LINE
  5
1297
100
AcDbEntity
  8
10000_FRONT
370
    25
390
0
  6
CONTINUOUS
 62
     7
100
AcDbLine
 10
463.775007
 20
1030.650002
 30
0.0
 11
463.592908
 21
1030.653984
 31
0.0
  0
LINE
  5
1298
100
AcDbEntity
  8
10000_FRONT
370
    25
390
0
  6
CONTINUOUS
 62
     7
100
AcDbLine
 10
463.592908
 20
1030.653984
 30
0.0
 11
463.408738
 21
1030.666077
 31
0.0
  0
LINE
  5
1299
100
AcDbEntity
  8
10000_FRONT
370
    25
390
0
  6
CONTINUOUS
 62
     7
100
AcDbLine
 10
463.408738
 20
1030.666077
 30
0.0
 11
463.223245
 21
1030.686455
 31
0.0
  0
LINE
  5
129A
100
AcDbEntity
  8
10000_FRONT
370
    25
390
0
  6
CONTINUOUS
 62
     7
100
AcDbLine
 10
463.223245
 20
1030.686455
 30
0.0
 11
463.037179
 21
1030.715324
 31
0.0
  0
LINE
  5
129B
100
AcDbEntity
  8
10000_FRONT
370
    25
390
0
  6
CONTINUOUS
 62
     7
100
AcDbLine
 10
463.037179
 20
1030.715324
 30
0.0
 11
462.851289
 21
1030.752853
 31
0.0
  0
LINE
  5
129C
100
AcDbEntity
  8
10000_FRONT
370
    25
390
0
  6
CONTINUOUS
 62
     7
100
AcDbLine
 10
462.851289
 20
1030.752853
 30
0.0
 11
462.666288
 21
1030.799042
 31
0.0
  0
LINE
  5
129D
100
AcDbEntity
  8
10000_FRONT
370
    25
390
0
  6
CONTINUOUS
 62
     7
100
AcDbLine
 10
462.666288
 20
1030.799042
 30
0.0
 11
462.482862
 21
1030.853775
 31
0.0
  0
LINE
  5
129E
100
AcDbEntity
  8
10000_FRONT
370
    25
390
0
  6
CONTINUOUS
 62
     7
100
AcDbLine
 10
462.482862
 20
1030.853775
 30
0.0
 11
462.301698
 21
1030.916916
 31
0.0
  0
LINE
  5
129F
100
AcDbEntity
  8
10000_FRONT
370
    25
390
0
  6
CONTINUOUS
 62
     7
100
AcDbLine
 10
462.301698
 20
1030.916916
 30
0.0
 11
462.123483
 21
1030.988335
 31
0.0
  0
LINE
  5
12A0
100
AcDbEntity
  8
10000_FRONT
370
    25
390
0
  6
CONTINUOUS
 62
     7
100
AcDbLine
 10
462.123483
 20
1030.988335
 30
0.0
 11
461.948777
 21
1031.067871
 31
0.0
  0
LINE
  5
12A1
100
AcDbEntity
  8
10000_FRONT
370
    25
390
0
  6
CONTINUOUS
 62
     7
100
AcDbLine
 10
461.948777
 20
1031.067871
 30
0.0
 11
461.778135
 21
1031.155151
 31
0.0
  0
LINE
  5
12A2
100
AcDbEntity
  8
10000_FRONT
370
    25
390
0
  6
CONTINUOUS
 62
     7
100
AcDbLine
 10
461.778135
 20
1031.155151
 30
0.0
 11
461.612123
 21
1031.249779
 31
0.0
  0
LINE
  5
12A3
100
AcDbEntity
  8
10000_FRONT
370
    25
390
0
  6
CONTINUOUS
 62
     7
100
AcDbLine
 10
461.612123
 20
1031.249779
 30
0.0
 11
461.451322
 21
1031.351357
 31
0.0
  0
LINE
  5
12A4
100
AcDbEntity
  8
10000_FRONT
370
    25
390
0
  6
CONTINUOUS
 62
     7
100
AcDbLine
 10
461.451322
 20
1031.351357
 30
0.0
 11
461.296289
 21
1031.459465
 31
0.0
  0
LINE
  5
12A5
100
AcDbEntity
  8
10000_FRONT
370
    25
390
0
  6
CONTINUOUS
 62
     7
100
AcDbLine
 10
461.296289
 20
1031.459465
 30
0.0
 11
461.147462
 21
1031.573509
 31
0.0
  0
LINE
  5
12A6
100
AcDbEntity
  8
10000_FRONT
370
    25
390
0
  6
CONTINUOUS
 62
     7
100
AcDbLine
 10
461.147462
 20
1031.573509
 30
0.0
 11
461.005239
 21
1031.692802
 31
0.0
  0
LINE
  5
12A7
100
AcDbEntity
  8
10000_FRONT
370
    25
390
0
  6
CONTINUOUS
 62
     7
100
AcDbLine
 10
461.005239
 20
1031.692802
 30
0.0
 11
460.870012
 21
1031.816704
 31
0.0
  0
LINE
  5
12A8
100
AcDbEntity
  8
10000_FRONT
370
    25
390
0
  6
CONTINUOUS
 62
     7
100
AcDbLine
 10
460.870012
 20
1031.816704
 30
0.0
 11
460.741681
 21
1031.94503
 31
0.0
  0
LINE
  5
12A9
100
AcDbEntity
  8
10000_FRONT
370
    25
390
0
  6
CONTINUOUS
 62
     7
100
AcDbLine
 10
460.741681
 20
1031.94503
 30
0.0
 11
460.617788
 21
1032.080261
 31
0.0
  0
LINE
  5
12AA
100
AcDbEntity
  8
10000_FRONT
370
    25
390
0
  6
CONTINUOUS
 62
     7
100
AcDbLine
 10
460.617788
 20
1032.080261
 30
0.0
 11
460.498491
 21
1032.222481
 31
0.0
  0
LINE
  5
12AB
100
AcDbEntity
  8
10000_FRONT
370
    25
390
0
  6
CONTINUOUS
 62
     7
100
AcDbLine
 10
460.498491
 20
1032.222481
 30
0.0
 11
460.384454
 21
1032.371307
 31
0.0
  0
LINE
  5
12AC
100
AcDbEntity
  8
10000_FRONT
370
    25
390
0
  6
CONTINUOUS
 62
     7
100
AcDbLine
 10
460.384454
 20
1032.371307
 30
0.0
 11
460.276345
 21
1032.526344
 31
0.0
  0
LINE
  5
12AD
100
AcDbEntity
  8
10000_FRONT
370
    25
390
0
  6
CONTINUOUS
 62
     7
100
AcDbLine
 10
460.276345
 20
1032.526344
 30
0.0
 11
460.174768
 21
1032.687149
 31
0.0
  0
LINE
  5
12AE
100
AcDbEntity
  8
10000_FRONT
370
    25
390
0
  6
CONTINUOUS
 62
     7
100
AcDbLine
 10
460.174768
 20
1032.687149
 30
0.0
 11
460.08014
 21
1032.853157
 31
0.0
  0
LINE
  5
12AF
100
AcDbEntity
  8
10000_FRONT
370
    25
390
0
  6
CONTINUOUS
 62
     7
100
AcDbLine
 10
460.08014
 20
1032.853157
 30
0.0
 11
459.99286
 21
1033.023804
 31
0.0
  0
LINE
  5
12B0
100
AcDbEntity
  8
10000_FRONT
370
    25
390
0
  6
CONTINUOUS
 62
     7
100
AcDbLine
 10
459.99286
 20
1033.023804
 30
0.0
 11
459.913331
 21
1033.198502
 31
0.0
  0
LINE
  5
12B1
100
AcDbEntity
  8
10000_FRONT
370
    25
390
0
  6
CONTINUOUS
 62
     7
100
AcDbLine
 10
459.913331
 20
1033.198502
 30
0.0
 11
459.841909
 21
1033.376717
 31
0.0
  0
LINE
  5
12B2
100
AcDbEntity
  8
10000_FRONT
370
    25
390
0
  6
CONTINUOUS
 62
     7
100
AcDbLine
 10
459.841909
 20
1033.376717
 30
0.0
 11
459.778772
 21
1033.557877
 31
0.0
  0
LINE
  5
12B3
100
AcDbEntity
  8
10000_FRONT
370
    25
390
0
  6
CONTINUOUS
 62
     7
100
AcDbLine
 10
459.778772
 20
1033.557877
 30
0.0
 11
459.724042
 21
1033.741302
 31
0.0
  0
LINE
  5
12B4
100
AcDbEntity
  8
10000_FRONT
370
    25
390
0
  6
CONTINUOUS
 62
     7
100
AcDbLine
 10
459.724042
 20
1033.741302
 30
0.0
 11
459.677854
 21
1033.9263
 31
0.0
  0
LINE
  5
12B5
100
AcDbEntity
  8
10000_FRONT
370
    25
390
0
  6
CONTINUOUS
 62
     7
100
AcDbLine
 10
459.677854
 20
1033.9263
 30
0.0
 11
459.640325
 21
1034.11219
 31
0.0
  0
LINE
  5
12B6
100
AcDbEntity
  8
10000_FRONT
370
    25
390
0
  6
CONTINUOUS
 62
     7
100
AcDbLine
 10
459.640325
 20
1034.11219
 30
0.0
 11
459.611459
 21
1034.298248
 31
0.0
  0
LINE
  5
12B7
100
AcDbEntity
  8
10000_FRONT
370
    25
390
0
  6
CONTINUOUS
 62
     7
100
AcDbLine
 10
459.611459
 20
1034.298248
 30
0.0
 11
459.591077
 21
1034.483742
 31
0.0
  0
LINE
  5
12B8
100
AcDbEntity
  8
10000_FRONT
370
    25
390
0
  6
CONTINUOUS
 62
     7
100
AcDbLine
 10
459.591077
 20
1034.483742
 30
0.0
 11
459.578992
 21
1034.667908
 31
0.0
  0
LINE
  5
12B9
100
AcDbEntity
  8
10000_FRONT
370
    25
390
0
  6
CONTINUOUS
 62
     7
100
AcDbLine
 10
459.578992
 20
1034.667908
 30
0.0
 11
459.575006
 21
1034.849998
 31
0.0
  0
LINE
  5
12BA
100
AcDbEntity
  8
10000_FRONT
370
    25
390
0
  6
CONTINUOUS
 62
     7
100
AcDbLine
 10
467.975003
 20
1021.849998
 30
0.0
 11
467.971017
 21
1021.667908
 31
0.0
  0
LINE
  5
12BB
100
AcDbEntity
  8
10000_FRONT
370
    25
390
0
  6
CONTINUOUS
 62
     7
100
AcDbLine
 10
467.971017
 20
1021.667908
 30
0.0
 11
467.958932
 21
1021.483742
 31
0.0
  0
LINE
  5
12BC
100
AcDbEntity
  8
10000_FRONT
370
    25
390
0
  6
CONTINUOUS
 62
     7
100
AcDbLine
 10
467.958932
 20
1021.483742
 30
0.0
 11
467.93855
 21
1021.298256
 31
0.0
  0
LINE
  5
12BD
100
AcDbEntity
  8
10000_FRONT
370
    25
390
0
  6
CONTINUOUS
 62
     7
100
AcDbLine
 10
467.93855
 20
1021.298256
 30
0.0
 11
467.909684
 21
1021.112198
 31
0.0
  0
LINE
  5
12BE
100
AcDbEntity
  8
10000_FRONT
370
    25
390
0
  6
CONTINUOUS
 62
     7
100
AcDbLine
 10
467.909684
 20
1021.112198
 30
0.0
 11
467.872159
 21
1020.926315
 31
0.0
  0
LINE
  5
12BF
100
AcDbEntity
  8
10000_FRONT
370
    25
390
0
  6
CONTINUOUS
 62
     7
100
AcDbLine
 10
467.872159
 20
1020.926315
 30
0.0
 11
467.825971
 21
1020.741325
 31
0.0
  0
LINE
  5
12C0
100
AcDbEntity
  8
10000_FRONT
370
    25
390
0
  6
CONTINUOUS
 62
     7
100
AcDbLine
 10
467.825971
 20
1020.741325
 30
0.0
 11
467.771245
 21
1020.557899
 31
0.0
  0
LINE
  5
12C1
100
AcDbEntity
  8
10000_FRONT
370
    25
390
0
  6
CONTINUOUS
 62
     7
100
AcDbLine
 10
467.771245
 20
1020.557899
 30
0.0
 11
467.708112
 21
1020.376747
 31
0.0
  0
LINE
  5
12C2
100
AcDbEntity
  8
10000_FRONT
370
    25
390
0
  6
CONTINUOUS
 62
     7
100
AcDbLine
 10
467.708112
 20
1020.376747
 30
0.0
 11
467.636693
 21
1020.19854
 31
0.0
  0
LINE
  5
12C3
100
AcDbEntity
  8
10000_FRONT
370
    25
390
0
  6
CONTINUOUS
 62
     7
100
AcDbLine
 10
467.636693
 20
1020.19854
 30
0.0
 11
467.557168
 21
1020.023842
 31
0.0
  0
LINE
  5
12C4
100
AcDbEntity
  8
10000_FRONT
370
    25
390
0
  6
CONTINUOUS
 62
     7
100
AcDbLine
 10
467.557168
 20
1020.023842
 30
0.0
 11
467.469896
 21
1019.853203
 31
0.0
  0
LINE
  5
12C5
100
AcDbEntity
  8
10000_FRONT
370
    25
390
0
  6
CONTINUOUS
 62
     7
100
AcDbLine
 10
467.469896
 20
1019.853203
 30
0.0
 11
467.375272
 21
1019.687195
 31
0.0
  0
LINE
  5
12C6
100
AcDbEntity
  8
10000_FRONT
370
    25
390
0
  6
CONTINUOUS
 62
     7
100
AcDbLine
 10
467.375272
 20
1019.687195
 30
0.0
 11
467.273698
 21
1019.526398
 31
0.0
  0
LINE
  5
12C7
100
AcDbEntity
  8
10000_FRONT
370
    25
390
0
  6
CONTINUOUS
 62
     7
100
AcDbLine
 10
467.273698
 20
1019.526398
 30
0.0
 11
467.165597
 21
1019.371361
 31
0.0
  0
LINE
  5
12C8
100
AcDbEntity
  8
10000_FRONT
370
    25
390
0
  6
CONTINUOUS
 62
     7
100
AcDbLine
 10
467.165597
 20
1019.371361
 30
0.0
 11
467.051564
 21
1019.222534
 31
0.0
  0
LINE
  5
12C9
100
AcDbEntity
  8
10000_FRONT
370
    25
390
0
  6
CONTINUOUS
 62
     7
100
AcDbLine
 10
467.051564
 20
1019.222534
 30
0.0
 11
466.932271
 21
1019.080315
 31
0.0
  0
LINE
  5
12CA
100
AcDbEntity
  8
10000_FRONT
370
    25
390
0
  6
CONTINUOUS
 62
     7
100
AcDbLine
 10
466.932271
 20
1019.080315
 30
0.0
 11
466.808377
 21
1018.945084
 31
0.0
  0
LINE
  5
12CB
100
AcDbEntity
  8
10000_FRONT
370
    25
390
0
  6
CONTINUOUS
 62
     7
100
AcDbLine
 10
466.808377
 20
1018.945084
 30
0.0
 11
466.680055
 21
1018.816757
 31
0.0
  0
LINE
  5
12CC
100
AcDbEntity
  8
10000_FRONT
370
    25
390
0
  6
CONTINUOUS
 62
     7
100
AcDbLine
 10
466.680055
 20
1018.816757
 30
0.0
 11
466.544835
 21
1018.692856
 31
0.0
  0
LINE
  5
12CD
100
AcDbEntity
  8
10000_FRONT
370
    25
390
0
  6
CONTINUOUS
 62
     7
100
AcDbLine
 10
466.544835
 20
1018.692856
 30
0.0
 11
466.402616
 21
1018.573563
 31
0.0
  0
LINE
  5
12CE
100
AcDbEntity
  8
10000_FRONT
370
    25
390
0
  6
CONTINUOUS
 62
     7
100
AcDbLine
 10
466.402616
 20
1018.573563
 30
0.0
 11
466.253793
 21
1018.459518
 31
0.0
  0
LINE
  5
12CF
100
AcDbEntity
  8
10000_FRONT
370
    25
390
0
  6
CONTINUOUS
 62
     7
100
AcDbLine
 10
466.253793
 20
1018.459518
 30
0.0
 11
466.09876
 21
1018.35141
 31
0.0
  0
LINE
  5
12D0
100
AcDbEntity
  8
10000_FRONT
370
    25
390
0
  6
CONTINUOUS
 62
     7
100
AcDbLine
 10
466.09876
 20
1018.35141
 30
0.0
 11
465.937963
 21
1018.249825
 31
0.0
  0
LINE
  5
12D1
100
AcDbEntity
  8
10000_FRONT
370
    25
390
0
  6
CONTINUOUS
 62
     7
100
AcDbLine
 10
465.937963
 20
1018.249825
 30
0.0
 11
465.771951
 21
1018.15519
 31
0.0
  0
LINE
  5
12D2
100
AcDbEntity
  8
10000_FRONT
370
    25
390
0
  6
CONTINUOUS
 62
     7
100
AcDbLine
 10
465.771951
 20
1018.15519
 30
0.0
 11
465.601304
 21
1018.067902
 31
0.0
  0
LINE
  5
12D3
100
AcDbEntity
  8
10000_FRONT
370
    25
390
0
  6
CONTINUOUS
 62
     7
100
AcDbLine
 10
465.601304
 20
1018.067902
 30
0.0
 11
465.426595
 21
1017.988365
 31
0.0
  0
LINE
  5
12D4
100
AcDbEntity
  8
10000_FRONT
370
    25
390
0
  6
CONTINUOUS
 62
     7
100
AcDbLine
 10
465.426595
 20
1017.988365
 30
0.0
 11
465.248376
 21
1017.916939
 31
0.0
  0
LINE
  5
12D5
100
AcDbEntity
  8
10000_FRONT
370
    25
390
0
  6
CONTINUOUS
 62
     7
100
AcDbLine
 10
465.248376
 20
1017.916939
 30
0.0
 11
465.067209
 21
1017.85379
 31
0.0
  0
LINE
  5
12D6
100
AcDbEntity
  8
10000_FRONT
370
    25
390
0
  6
CONTINUOUS
 62
     7
100
AcDbLine
 10
465.067209
 20
1017.85379
 30
0.0
 11
464.883779
 21
1017.799057
 31
0.0
  0
LINE
  5
12D7
100
AcDbEntity
  8
10000_FRONT
370
    25
390
0
  6
CONTINUOUS
 62
     7
100
AcDbLine
 10
464.883779
 20
1017.799057
 30
0.0
 11
464.698766
 21
1017.752861
 31
0.0
  0
LINE
  5
12D8
100
AcDbEntity
  8
10000_FRONT
370
    25
390
0
  6
CONTINUOUS
 62
     7
100
AcDbLine
 10
464.698766
 20
1017.752861
 30
0.0
 11
464.512868
 21
1017.715332
 31
0.0
  0
LINE
  5
12D9
100
AcDbEntity
  8
10000_FRONT
370
    25
390
0
  6
CONTINUOUS
 62
     7
100
AcDbLine
 10
464.512868
 20
1017.715332
 30
0.0
 11
464.326795
 21
1017.686462
 31
0.0
  0
LINE
  5
12DA
100
AcDbEntity
  8
10000_FRONT
370
    25
390
0
  6
CONTINUOUS
 62
     7
100
AcDbLine
 10
464.326795
 20
1017.686462
 30
0.0
 11
464.141294
 21
1017.666077
 31
0.0
  0
LINE
  5
12DB
100
AcDbEntity
  8
10000_FRONT
370
    25
390
0
  6
CONTINUOUS
 62
     7
100
AcDbLine
 10
464.141294
 20
1017.666077
 30
0.0
 11
463.957113
 21
1017.653984
 31
0.0
  0
LINE
  5
12DC
100
AcDbEntity
  8
10000_FRONT
370
    25
390
0
  6
CONTINUOUS
 62
     7
100
AcDbLine
 10
463.957113
 20
1017.653984
 30
0.0
 11
463.775007
 21
1017.650002
 31
0.0
  0
LINE
  5
12DD
100
AcDbEntity
  8
10000_FRONT
370
    25
390
0
  6
CONTINUOUS
 62
     7
100
AcDbLine
 10
463.775007
 20
1017.650002
 30
0.0
 11
463.592897
 21
1017.653984
 31
0.0
  0
LINE
  5
12DE
100
AcDbEntity
  8
10000_FRONT
370
    25
390
0
  6
CONTINUOUS
 62
     7
100
AcDbLine
 10
463.592897
 20
1017.653984
 30
0.0
 11
463.408715
 21
1017.666077
 31
0.0
  0
LINE
  5
12DF
100
AcDbEntity
  8
10000_FRONT
370
    25
390
0
  6
CONTINUOUS
 62
     7
100
AcDbLine
 10
463.408715
 20
1017.666077
 30
0.0
 11
463.223214
 21
1017.686462
 31
0.0
  0
LINE
  5
12E0
100
AcDbEntity
  8
10000_FRONT
370
    25
390
0
  6
CONTINUOUS
 62
     7
100
AcDbLine
 10
463.223214
 20
1017.686462
 30
0.0
 11
463.037141
 21
1017.715332
 31
0.0
  0
LINE
  5
12E1
100
AcDbEntity
  8
10000_FRONT
370
    25
390
0
  6
CONTINUOUS
 62
     7
100
AcDbLine
 10
463.037141
 20
1017.715332
 30
0.0
 11
462.851243
 21
1017.752861
 31
0.0
  0
LINE
  5
12E2
100
AcDbEntity
  8
10000_FRONT
370
    25
390
0
  6
CONTINUOUS
 62
     7
100
AcDbLine
 10
462.851243
 20
1017.752861
 30
0.0
 11
462.666234
 21
1017.799057
 31
0.0
  0
LINE
  5
12E3
100
AcDbEntity
  8
10000_FRONT
370
    25
390
0
  6
CONTINUOUS
 62
     7
100
AcDbLine
 10
462.666234
 20
1017.799057
 30
0.0
 11
462.482801
 21
1017.85379
 31
0.0
  0
LINE
  5
12E4
100
AcDbEntity
  8
10000_FRONT
370
    25
390
0
  6
CONTINUOUS
 62
     7
100
AcDbLine
 10
462.482801
 20
1017.85379
 30
0.0
 11
462.301633
 21
1017.916939
 31
0.0
  0
LINE
  5
12E5
100
AcDbEntity
  8
10000_FRONT
370
    25
390
0
  6
CONTINUOUS
 62
     7
100
AcDbLine
 10
462.301633
 20
1017.916939
 30
0.0
 11
462.123414
 21
1017.988365
 31
0.0
  0
LINE
  5
12E6
100
AcDbEntity
  8
10000_FRONT
370
    25
390
0
  6
CONTINUOUS
 62
     7
100
AcDbLine
 10
462.123414
 20
1017.988365
 30
0.0
 11
461.948709
 21
1018.067902
 31
0.0
  0
LINE
  5
12E7
100
AcDbEntity
  8
10000_FRONT
370
    25
390
0
  6
CONTINUOUS
 62
     7
100
AcDbLine
 10
461.948709
 20
1018.067902
 30
0.0
 11
461.778062
 21
1018.15519
 31
0.0
  0
LINE
  5
12E8
100
AcDbEntity
  8
10000_FRONT
370
    25
390
0
  6
CONTINUOUS
 62
     7
100
AcDbLine
 10
461.778062
 20
1018.15519
 30
0.0
 11
461.61205
 21
1018.249825
 31
0.0
  0
LINE
  5
12E9
100
AcDbEntity
  8
10000_FRONT
370
    25
390
0
  6
CONTINUOUS
 62
     7
100
AcDbLine
 10
461.61205
 20
1018.249825
 30
0.0
 11
461.451249
 21
1018.35141
 31
0.0
  0
LINE
  5
12EA
100
AcDbEntity
  8
10000_FRONT
370
    25
390
0
  6
CONTINUOUS
 62
     7
100
AcDbLine
 10
461.451249
 20
1018.35141
 30
0.0
 11
461.296216
 21
1018.459518
 31
0.0
  0
LINE
  5
12EB
100
AcDbEntity
  8
10000_FRONT
370
    25
390
0
  6
CONTINUOUS
 62
     7
100
AcDbLine
 10
461.296216
 20
1018.459518
 30
0.0
 11
461.147393
 21
1018.573563
 31
0.0
  0
LINE
  5
12EC
100
AcDbEntity
  8
10000_FRONT
370
    25
390
0
  6
CONTINUOUS
 62
     7
100
AcDbLine
 10
461.147393
 20
1018.573563
 30
0.0
 11
461.005178
 21
1018.692856
 31
0.0
  0
LINE
  5
12ED
100
AcDbEntity
  8
10000_FRONT
370
    25
390
0
  6
CONTINUOUS
 62
     7
100
AcDbLine
 10
461.005178
 20
1018.692856
 30
0.0
 11
460.869954
 21
1018.816757
 31
0.0
  0
LINE
  5
12EE
100
AcDbEntity
  8
10000_FRONT
370
    25
390
0
  6
CONTINUOUS
 62
     7
100
AcDbLine
 10
460.869954
 20
1018.816757
 30
0.0
 11
460.741632
 21
1018.945084
 31
0.0
  0
LINE
  5
12EF
100
AcDbEntity
  8
10000_FRONT
370
    25
390
0
  6
CONTINUOUS
 62
     7
100
AcDbLine
 10
460.741632
 20
1018.945084
 30
0.0
 11
460.617738
 21
1019.080315
 31
0.0
  0
LINE
  5
12F0
100
AcDbEntity
  8
10000_FRONT
370
    25
390
0
  6
CONTINUOUS
 62
     7
100
AcDbLine
 10
460.617738
 20
1019.080315
 30
0.0
 11
460.498445
 21
1019.222534
 31
0.0
  0
LINE
  5
12F1
100
AcDbEntity
  8
10000_FRONT
370
    25
390
0
  6
CONTINUOUS
 62
     7
100
AcDbLine
 10
460.498445
 20
1019.222534
 30
0.0
 11
460.384416
 21
1019.371361
 31
0.0
  0
LINE
  5
12F2
100
AcDbEntity
  8
10000_FRONT
370
    25
390
0
  6
CONTINUOUS
 62
     7
100
AcDbLine
 10
460.384416
 20
1019.371361
 30
0.0
 11
460.276311
 21
1019.526398
 31
0.0
  0
LINE
  5
12F3
100
AcDbEntity
  8
10000_FRONT
370
    25
390
0
  6
CONTINUOUS
 62
     7
100
AcDbLine
 10
460.276311
 20
1019.526398
 30
0.0
 11
460.174737
 21
1019.687195
 31
0.0
  0
LINE
  5
12F4
100
AcDbEntity
  8
10000_FRONT
370
    25
390
0
  6
CONTINUOUS
 62
     7
100
AcDbLine
 10
460.174737
 20
1019.687195
 30
0.0
 11
460.080114
 21
1019.853203
 31
0.0
  0
LINE
  5
12F5
100
AcDbEntity
  8
10000_FRONT
370
    25
390
0
  6
CONTINUOUS
 62
     7
100
AcDbLine
 10
460.080114
 20
1019.853203
 30
0.0
 11
459.992841
 21
1020.023842
 31
0.0
  0
LINE
  5
12F6
100
AcDbEntity
  8
10000_FRONT
370
    25
390
0
  6
CONTINUOUS
 62
     7
100
AcDbLine
 10
459.992841
 20
1020.023842
 30
0.0
 11
459.913316
 21
1020.19854
 31
0.0
  0
LINE
  5
12F7
100
AcDbEntity
  8
10000_FRONT
370
    25
390
0
  6
CONTINUOUS
 62
     7
100
AcDbLine
 10
459.913316
 20
1020.19854
 30
0.0
 11
459.841897
 21
1020.376747
 31
0.0
  0
LINE
  5
12F8
100
AcDbEntity
  8
10000_FRONT
370
    25
390
0
  6
CONTINUOUS
 62
     7
100
AcDbLine
 10
459.841897
 20
1020.376747
 30
0.0
 11
459.778764
 21
1020.557899
 31
0.0
  0
LINE
  5
12F9
100
AcDbEntity
  8
10000_FRONT
370
    25
390
0
  6
CONTINUOUS
 62
     7
100
AcDbLine
 10
459.778764
 20
1020.557899
 30
0.0
 11
459.724038
 21
1020.741325
 31
0.0
  0
LINE
  5
12FA
100
AcDbEntity
  8
10000_FRONT
370
    25
390
0
  6
CONTINUOUS
 62
     7
100
AcDbLine
 10
459.724038
 20
1020.741325
 30
0.0
 11
459.67785
 21
1020.926315
 31
0.0
  0
LINE
  5
12FB
100
AcDbEntity
  8
10000_FRONT
370
    25
390
0
  6
CONTINUOUS
 62
     7
100
AcDbLine
 10
459.67785
 20
1020.926315
 30
0.0
 11
459.640325
 21
1021.112198
 31
0.0
  0
LINE
  5
12FC
100
AcDbEntity
  8
10000_FRONT
370
    25
390
0
  6
CONTINUOUS
 62
     7
100
AcDbLine
 10
459.640325
 20
1021.112198
 30
0.0
 11
459.611459
 21
1021.298256
 31
0.0
  0
LINE
  5
12FD
100
AcDbEntity
  8
10000_FRONT
370
    25
390
0
  6
CONTINUOUS
 62
     7
100
AcDbLine
 10
459.611459
 20
1021.298256
 30
0.0
 11
459.591077
 21
1021.483742
 31
0.0
  0
LINE
  5
12FE
100
AcDbEntity
  8
10000_FRONT
370
    25
390
0
  6
CONTINUOUS
 62
     7
100
AcDbLine
 10
459.591077
 20
1021.483742
 30
0.0
 11
459.578992
 21
1021.667908
 31
0.0
  0
LINE
  5
12FF
100
AcDbEntity
  8
10000_FRONT
370
    25
390
0
  6
CONTINUOUS
 62
     7
100
AcDbLine
 10
459.578992
 20
1021.667908
 30
0.0
 11
459.575006
 21
1021.849998
 31
0.0
  0
LINE
  5
1300
100
AcDbEntity
  8
10000_FRONT
370
    25
390
0
  6
CONTINUOUS
 62
     7
100
AcDbLine
 10
467.975003
 20
1008.849998
 30
0.0
 11
467.971021
 21
1008.667946
 31
0.0
  0
LINE
  5
1301
100
AcDbEntity
  8
10000_FRONT
370
    25
390
0
  6
CONTINUOUS
 62
     7
100
AcDbLine
 10
467.971021
 20
1008.667946
 30
0.0
 11
467.95894
 21
1008.483818
 31
0.0
  0
LINE
  5
1302
100
AcDbEntity
  8
10000_FRONT
370
    25
390
0
  6
CONTINUOUS
 62
     7
100
AcDbLine
 10
467.95894
 20
1008.483818
 30
0.0
 11
467.938565
 21
1008.29837
 31
0.0
  0
LINE
  5
1303
100
AcDbEntity
  8
10000_FRONT
370
    25
390
0
  6
CONTINUOUS
 62
     7
100
AcDbLine
 10
467.938565
 20
1008.29837
 30
0.0
 11
467.909715
 21
1008.11235
 31
0.0
  0
LINE
  5
1304
100
AcDbEntity
  8
10000_FRONT
370
    25
390
0
  6
CONTINUOUS
 62
     7
100
AcDbLine
 10
467.909715
 20
1008.11235
 30
0.0
 11
467.872201
 21
1007.926506
 31
0.0
  0
LINE
  5
1305
100
AcDbEntity
  8
10000_FRONT
370
    25
390
0
  6
CONTINUOUS
 62
     7
100
AcDbLine
 10
467.872201
 20
1007.926506
 30
0.0
 11
467.826032
 21
1007.741547
 31
0.0
  0
LINE
  5
1306
100
AcDbEntity
  8
10000_FRONT
370
    25
390
0
  6
CONTINUOUS
 62
     7
100
AcDbLine
 10
467.826032
 20
1007.741547
 30
0.0
 11
467.771329
 21
1007.558159
 31
0.0
  0
LINE
  5
1307
100
AcDbEntity
  8
10000_FRONT
370
    25
390
0
  6
CONTINUOUS
 62
     7
100
AcDbLine
 10
467.771329
 20
1007.558159
 30
0.0
 11
467.708219
 21
1007.377029
 31
0.0
  0
LINE
  5
1308
100
AcDbEntity
  8
10000_FRONT
370
    25
390
0
  6
CONTINUOUS
 62
     7
100
AcDbLine
 10
467.708219
 20
1007.377029
 30
0.0
 11
467.636827
 21
1007.198853
 31
0.0
  0
LINE
  5
1309
100
AcDbEntity
  8
10000_FRONT
370
    25
390
0
  6
CONTINUOUS
 62
     7
100
AcDbLine
 10
467.636827
 20
1007.198853
 30
0.0
 11
467.557328
 21
1007.02417
 31
0.0
  0
LINE
  5
130A
100
AcDbEntity
  8
10000_FRONT
370
    25
390
0
  6
CONTINUOUS
 62
     7
100
AcDbLine
 10
467.557328
 20
1007.02417
 30
0.0
 11
467.470083
 21
1006.853546
 31
0.0
  0
LINE
  5
130B
100
AcDbEntity
  8
10000_FRONT
370
    25
390
0
  6
CONTINUOUS
 62
     7
100
AcDbLine
 10
467.470083
 20
1006.853546
 30
0.0
 11
467.375486
 21
1006.687546
 31
0.0
  0
LINE
  5
130C
100
AcDbEntity
  8
10000_FRONT
370
    25
390
0
  6
CONTINUOUS
 62
     7
100
AcDbLine
 10
467.375486
 20
1006.687546
 30
0.0
 11
467.273938
 21
1006.526764
 31
0.0
  0
LINE
  5
130D
100
AcDbEntity
  8
10000_FRONT
370
    25
390
0
  6
CONTINUOUS
 62
     7
100
AcDbLine
 10
467.273938
 20
1006.526764
 30
0.0
 11
467.16586
 21
1006.371719
 31
0.0
  0
LINE
  5
130E
100
AcDbEntity
  8
10000_FRONT
370
    25
390
0
  6
CONTINUOUS
 62
     7
100
AcDbLine
 10
467.16586
 20
1006.371719
 30
0.0
 11
467.051851
 21
1006.2229
 31
0.0
  0
LINE
  5
130F
100
AcDbEntity
  8
10000_FRONT
370
    25
390
0
  6
CONTINUOUS
 62
     7
100
AcDbLine
 10
467.051851
 20
1006.2229
 30
0.0
 11
466.932576
 21
1006.080658
 31
0.0
  0
LINE
  5
1310
100
AcDbEntity
  8
10000_FRONT
370
    25
390
0
  6
CONTINUOUS
 62
     7
100
AcDbLine
 10
466.932576
 20
1006.080658
 30
0.0
 11
466.808698
 21
1005.945419
 31
0.0
  0
LINE
  5
1311
100
AcDbEntity
  8
10000_FRONT
370
    25
390
0
  6
CONTINUOUS
 62
     7
100
AcDbLine
 10
466.808698
 20
1005.945419
 30
0.0
 11
466.680391
 21
1005.817078
 31
0.0
  0
LINE
  5
1312
100
AcDbEntity
  8
10000_FRONT
370
    25
390
0
  6
CONTINUOUS
 62
     7
100
AcDbLine
 10
466.680391
 20
1005.817078
 30
0.0
 11
466.54519
 21
1005.693176
 31
0.0
  0
LINE
  5
1313
100
AcDbEntity
  8
10000_FRONT
370
    25
390
0
  6
CONTINUOUS
 62
     7
100
AcDbLine
 10
466.54519
 20
1005.693176
 30
0.0
 11
466.402986
 21
1005.573853
 31
0.0
  0
LINE
  5
1314
100
AcDbEntity
  8
10000_FRONT
370
    25
390
0
  6
CONTINUOUS
 62
     7
100
AcDbLine
 10
466.402986
 20
1005.573853
 30
0.0
 11
466.254174
 21
1005.459793
 31
0.0
  0
LINE
  5
1315
100
AcDbEntity
  8
10000_FRONT
370
    25
390
0
  6
CONTINUOUS
 62
     7
100
AcDbLine
 10
466.254174
 20
1005.459793
 30
0.0
 11
466.099145
 21
1005.351669
 31
0.0
  0
LINE
  5
1316
100
AcDbEntity
  8
10000_FRONT
370
    25
390
0
  6
CONTINUOUS
 62
     7
100
AcDbLine
 10
466.099145
 20
1005.351669
 30
0.0
 11
465.938344
 21
1005.250046
 31
0.0
  0
LINE
  5
1317
100
AcDbEntity
  8
10000_FRONT
370
    25
390
0
  6
CONTINUOUS
 62
     7
100
AcDbLine
 10
465.938344
 20
1005.250046
 30
0.0
 11
465.772325
 21
1005.155396
 31
0.0
  0
LINE
  5
1318
100
AcDbEntity
  8
10000_FRONT
370
    25
390
0
  6
CONTINUOUS
 62
     7
100
AcDbLine
 10
465.772325
 20
1005.155396
 30
0.0
 11
465.601667
 21
1005.068085
 31
0.0
  0
LINE
  5
1319
100
AcDbEntity
  8
10000_FRONT
370
    25
390
0
  6
CONTINUOUS
 62
     7
100
AcDbLine
 10
465.601667
 20
1005.068085
 30
0.0
 11
465.426942
 21
1004.98851
 31
0.0
  0
LINE
  5
131A
100
AcDbEntity
  8
10000_FRONT
370
    25
390
0
  6
CONTINUOUS
 62
     7
100
AcDbLine
 10
465.426942
 20
1004.98851
 30
0.0
 11
465.2487
 21
1004.917053
 31
0.0
  0
LINE
  5
131B
100
AcDbEntity
  8
10000_FRONT
370
    25
390
0
  6
CONTINUOUS
 62
     7
100
AcDbLine
 10
465.2487
 20
1004.917053
 30
0.0
 11
465.067502
 21
1004.853882
 31
0.0
  0
LINE
  5
131C
100
AcDbEntity
  8
10000_FRONT
370
    25
390
0
  6
CONTINUOUS
 62
     7
100
AcDbLine
 10
465.067502
 20
1004.853882
 30
0.0
 11
464.884038
 21
1004.799133
 31
0.0
  0
LINE
  5
131D
100
AcDbEntity
  8
10000_FRONT
370
    25
390
0
  6
CONTINUOUS
 62
     7
100
AcDbLine
 10
464.884038
 20
1004.799133
 30
0.0
 11
464.698991
 21
1004.752914
 31
0.0
  0
LINE
  5
131E
100
AcDbEntity
  8
10000_FRONT
370
    25
390
0
  6
CONTINUOUS
 62
     7
100
AcDbLine
 10
464.698991
 20
1004.752914
 30
0.0
 11
464.513051
 21
1004.715363
 31
0.0
  0
LINE
  5
131F
100
AcDbEntity
  8
10000_FRONT
370
    25
390
0
  6
CONTINUOUS
 62
     7
100
AcDbLine
 10
464.513051
 20
1004.715363
 30
0.0
 11
464.326936
 21
1004.686478
 31
0.0
  0
LINE
  5
1320
100
AcDbEntity
  8
10000_FRONT
370
    25
390
0
  6
CONTINUOUS
 62
     7
100
AcDbLine
 10
464.326936
 20
1004.686478
 30
0.0
 11
464.141389
 21
1004.666092
 31
0.0
  0
LINE
  5
1321
100
AcDbEntity
  8
10000_FRONT
370
    25
390
0
  6
CONTINUOUS
 62
     7
100
AcDbLine
 10
464.141389
 20
1004.666092
 30
0.0
 11
463.957162
 21
1004.653992
 31
0.0
  0
LINE
  5
1322
100
AcDbEntity
  8
10000_FRONT
370
    25
390
0
  6
CONTINUOUS
 62
     7
100
AcDbLine
 10
463.957162
 20
1004.653992
 30
0.0
 11
463.775007
 21
1004.649994
 31
0.0
  0
LINE
  5
1323
100
AcDbEntity
  8
10000_FRONT
370
    25
390
0
  6
CONTINUOUS
 62
     7
100
AcDbLine
 10
463.775007
 20
1004.649994
 30
0.0
 11
463.592851
 21
1004.653992
 31
0.0
  0
LINE
  5
1324
100
AcDbEntity
  8
10000_FRONT
370
    25
390
0
  6
CONTINUOUS
 62
     7
100
AcDbLine
 10
463.592851
 20
1004.653992
 30
0.0
 11
463.408624
 21
1004.666092
 31
0.0
  0
LINE
  5
1325
100
AcDbEntity
  8
10000_FRONT
370
    25
390
0
  6
CONTINUOUS
 62
     7
100
AcDbLine
 10
463.408624
 20
1004.666092
 30
0.0
 11
463.223073
 21
1004.686478
 31
0.0
  0
LINE
  5
1326
100
AcDbEntity
  8
10000_FRONT
370
    25
390
0
  6
CONTINUOUS
 62
     7
100
AcDbLine
 10
463.223073
 20
1004.686478
 30
0.0
 11
463.036958
 21
1004.715363
 31
0.0
  0
LINE
  5
1327
100
AcDbEntity
  8
10000_FRONT
370
    25
390
0
  6
CONTINUOUS
 62
     7
100
AcDbLine
 10
463.036958
 20
1004.715363
 30
0.0
 11
462.851018
 21
1004.752914
 31
0.0
  0
LINE
  5
1328
100
AcDbEntity
  8
10000_FRONT
370
    25
390
0
  6
CONTINUOUS
 62
     7
100
AcDbLine
 10
462.851018
 20
1004.752914
 30
0.0
 11
462.665971
 21
1004.799133
 31
0.0
  0
LINE
  5
1329
100
AcDbEntity
  8
10000_FRONT
370
    25
390
0
  6
CONTINUOUS
 62
     7
100
AcDbLine
 10
462.665971
 20
1004.799133
 30
0.0
 11
462.482507
 21
1004.853882
 31
0.0
  0
LINE
  5
132A
100
AcDbEntity
  8
10000_FRONT
370
    25
390
0
  6
CONTINUOUS
 62
     7
100
AcDbLine
 10
462.482507
 20
1004.853882
 30
0.0
 11
462.301313
 21
1004.917053
 31
0.0
  0
LINE
  5
132B
100
AcDbEntity
  8
10000_FRONT
370
    25
390
0
  6
CONTINUOUS
 62
     7
100
AcDbLine
 10
462.301313
 20
1004.917053
 30
0.0
 11
462.123071
 21
1004.98851
 31
0.0
  0
LINE
  5
132C
100
AcDbEntity
  8
10000_FRONT
370
    25
390
0
  6
CONTINUOUS
 62
     7
100
AcDbLine
 10
462.123071
 20
1004.98851
 30
0.0
 11
461.948343
 21
1005.068085
 31
0.0
  0
LINE
  5
132D
100
AcDbEntity
  8
10000_FRONT
370
    25
390
0
  6
CONTINUOUS
 62
     7
100
AcDbLine
 10
461.948343
 20
1005.068085
 30
0.0
 11
461.777684
 21
1005.155396
 31
0.0
  0
LINE
  5
132E
100
AcDbEntity
  8
10000_FRONT
370
    25
390
0
  6
CONTINUOUS
 62
     7
100
AcDbLine
 10
461.777684
 20
1005.155396
 30
0.0
 11
461.611665
 21
1005.250046
 31
0.0
  0
LINE
  5
132F
100
AcDbEntity
  8
10000_FRONT
370
    25
390
0
  6
CONTINUOUS
 62
     7
100
AcDbLine
 10
461.611665
 20
1005.250046
 30
0.0
 11
461.450864
 21
1005.351669
 31
0.0
  0
LINE
  5
1330
100
AcDbEntity
  8
10000_FRONT
370
    25
390
0
  6
CONTINUOUS
 62
     7
100
AcDbLine
 10
461.450864
 20
1005.351669
 30
0.0
 11
461.295835
 21
1005.459793
 31
0.0
  0
LINE
  5
1331
100
AcDbEntity
  8
10000_FRONT
370
    25
390
0
  6
CONTINUOUS
 62
     7
100
AcDbLine
 10
461.295835
 20
1005.459793
 30
0.0
 11
461.147023
 21
1005.573853
 31
0.0
  0
LINE
  5
1332
100
AcDbEntity
  8
10000_FRONT
370
    25
390
0
  6
CONTINUOUS
 62
     7
100
AcDbLine
 10
461.147023
 20
1005.573853
 30
0.0
 11
461.004819
 21
1005.693176
 31
0.0
  0
LINE
  5
1333
100
AcDbEntity
  8
10000_FRONT
370
    25
390
0
  6
CONTINUOUS
 62
     7
100
AcDbLine
 10
461.004819
 20
1005.693176
 30
0.0
 11
460.869619
 21
1005.817078
 31
0.0
  0
LINE
  5
1334
100
AcDbEntity
  8
10000_FRONT
370
    25
390
0
  6
CONTINUOUS
 62
     7
100
AcDbLine
 10
460.869619
 20
1005.817078
 30
0.0
 11
460.741311
 21
1005.945419
 31
0.0
  0
LINE
  5
1335
100
AcDbEntity
  8
10000_FRONT
370
    25
390
0
  6
CONTINUOUS
 62
     7
100
AcDbLine
 10
460.741311
 20
1005.945419
 30
0.0
 11
460.617433
 21
1006.080658
 31
0.0
  0
LINE
  5
1336
100
AcDbEntity
  8
10000_FRONT
370
    25
390
0
  6
CONTINUOUS
 62
     7
100
AcDbLine
 10
460.617433
 20
1006.080658
 30
0.0
 11
460.498159
 21
1006.2229
 31
0.0
  0
LINE
  5
1337
100
AcDbEntity
  8
10000_FRONT
370
    25
390
0
  6
CONTINUOUS
 62
     7
100
AcDbLine
 10
460.498159
 20
1006.2229
 30
0.0
 11
460.384149
 21
1006.371719
 31
0.0
  0
LINE
  5
1338
100
AcDbEntity
  8
10000_FRONT
370
    25
390
0
  6
CONTINUOUS
 62
     7
100
AcDbLine
 10
460.384149
 20
1006.371719
 30
0.0
 11
460.276071
 21
1006.526764
 31
0.0
  0
LINE
  5
1339
100
AcDbEntity
  8
10000_FRONT
370
    25
390
0
  6
CONTINUOUS
 62
     7
100
AcDbLine
 10
460.276071
 20
1006.526764
 30
0.0
 11
460.174524
 21
1006.687546
 31
0.0
  0
LINE
  5
133A
100
AcDbEntity
  8
10000_FRONT
370
    25
390
0
  6
CONTINUOUS
 62
     7
100
AcDbLine
 10
460.174524
 20
1006.687546
 30
0.0
 11
460.079927
 21
1006.853546
 31
0.0
  0
LINE
  5
133B
100
AcDbEntity
  8
10000_FRONT
370
    25
390
0
  6
CONTINUOUS
 62
     7
100
AcDbLine
 10
460.079927
 20
1006.853546
 30
0.0
 11
459.992685
 21
1007.02417
 31
0.0
  0
LINE
  5
133C
100
AcDbEntity
  8
10000_FRONT
370
    25
390
0
  6
CONTINUOUS
 62
     7
100
AcDbLine
 10
459.992685
 20
1007.02417
 30
0.0
 11
459.913182
 21
1007.198853
 31
0.0
  0
LINE
  5
133D
100
AcDbEntity
  8
10000_FRONT
370
    25
390
0
  6
CONTINUOUS
 62
     7
100
AcDbLine
 10
459.913182
 20
1007.198853
 30
0.0
 11
459.84179
 21
1007.377029
 31
0.0
  0
LINE
  5
133E
100
AcDbEntity
  8
10000_FRONT
370
    25
390
0
  6
CONTINUOUS
 62
     7
100
AcDbLine
 10
459.84179
 20
1007.377029
 30
0.0
 11
459.77868
 21
1007.558159
 31
0.0
  0
LINE
  5
133F
100
AcDbEntity
  8
10000_FRONT
370
    25
390
0
  6
CONTINUOUS
 62
     7
100
AcDbLine
 10
459.77868
 20
1007.558159
 30
0.0
 11
459.723977
 21
1007.741547
 31
0.0
  0
LINE
  5
1340
100
AcDbEntity
  8
10000_FRONT
370
    25
390
0
  6
CONTINUOUS
 62
     7
100
AcDbLine
 10
459.723977
 20
1007.741547
 30
0.0
 11
459.677808
 21
1007.926506
 31
0.0
  0
LINE
  5
1341
100
AcDbEntity
  8
10000_FRONT
370
    25
390
0
  6
CONTINUOUS
 62
     7
100
AcDbLine
 10
459.677808
 20
1007.926506
 30
0.0
 11
459.640298
 21
1008.11235
 31
0.0
  0
LINE
  5
1342
100
AcDbEntity
  8
10000_FRONT
370
    25
390
0
  6
CONTINUOUS
 62
     7
100
AcDbLine
 10
459.640298
 20
1008.11235
 30
0.0
 11
459.611444
 21
1008.29837
 31
0.0
  0
LINE
  5
1343
100
AcDbEntity
  8
10000_FRONT
370
    25
390
0
  6
CONTINUOUS
 62
     7
100
AcDbLine
 10
459.611444
 20
1008.29837
 30
0.0
 11
459.591073
 21
1008.483818
 31
0.0
  0
LINE
  5
1344
100
AcDbEntity
  8
10000_FRONT
370
    25
390
0
  6
CONTINUOUS
 62
     7
100
AcDbLine
 10
459.591073
 20
1008.483818
 30
0.0
 11
459.578988
 21
1008.667946
 31
0.0
  0
LINE
  5
1345
100
AcDbEntity
  8
10000_FRONT
370
    25
390
0
  6
CONTINUOUS
 62
     7
100
AcDbLine
 10
459.578988
 20
1008.667946
 30
0.0
 11
459.575006
 21
1008.849998
 31
0.0
  0
LINE
  5
1346
100
AcDbEntity
  8
10000_FRONT
370
    25
390
0
  6
CONTINUOUS
 62
     7
100
AcDbLine
 10
467.975003
 20
995.850006
 30
0.0
 11
467.971025
 21
995.668015
 31
0.0
  0
LINE
  5
1347
100
AcDbEntity
  8
10000_FRONT
370
    25
390
0
  6
CONTINUOUS
 62
     7
100
AcDbLine
 10
467.971025
 20
995.668015
 30
0.0
 11
467.958951
 21
995.483978
 31
0.0
  0
LINE
  5
1348
100
AcDbEntity
  8
10000_FRONT
370
    25
390
0
  6
CONTINUOUS
 62
     7
100
AcDbLine
 10
467.958951
 20
995.483978
 30
0.0
 11
467.938596
 21
995.298599
 31
0.0
  0
LINE
  5
1349
100
AcDbEntity
  8
10000_FRONT
370
    25
390
0
  6
CONTINUOUS
 62
     7
100
AcDbLine
 10
467.938596
 20
995.298599
 30
0.0
 11
467.909768
 21
995.112656
 31
0.0
  0
LINE
  5
134A
100
AcDbEntity
  8
10000_FRONT
370
    25
390
0
  6
CONTINUOUS
 62
     7
100
AcDbLine
 10
467.909768
 20
995.112656
 30
0.0
 11
467.872285
 21
994.92688
 31
0.0
  0
LINE
  5
134B
100
AcDbEntity
  8
10000_FRONT
370
    25
390
0
  6
CONTINUOUS
 62
     7
100
AcDbLine
 10
467.872285
 20
994.92688
 30
0.0
 11
467.82615
 21
994.741974
 31
0.0
  0
LINE
  5
134C
100
AcDbEntity
  8
10000_FRONT
370
    25
390
0
  6
CONTINUOUS
 62
     7
100
AcDbLine
 10
467.82615
 20
994.741974
 30
0.0
 11
467.771489
 21
994.558655
 31
0.0
  0
LINE
  5
134D
100
AcDbEntity
  8
10000_FRONT
370
    25
390
0
  6
CONTINUOUS
 62
     7
100
AcDbLine
 10
467.771489
 20
994.558655
 30
0.0
 11
467.708421
 21
994.377579
 31
0.0
  0
LINE
  5
134E
100
AcDbEntity
  8
10000_FRONT
370
    25
390
0
  6
CONTINUOUS
 62
     7
100
AcDbLine
 10
467.708421
 20
994.377579
 30
0.0
 11
467.637079
 21
994.199432
 31
0.0
  0
LINE
  5
134F
100
AcDbEntity
  8
10000_FRONT
370
    25
390
0
  6
CONTINUOUS
 62
     7
100
AcDbLine
 10
467.637079
 20
994.199432
 30
0.0
 11
467.557626
 21
994.024796
 31
0.0
  0
LINE
  5
1350
100
AcDbEntity
  8
10000_FRONT
370
    25
390
0
  6
CONTINUOUS
 62
     7
100
AcDbLine
 10
467.557626
 20
994.024796
 30
0.0
 11
467.470433
 21
993.854202
 31
0.0
  0
LINE
  5
1351
100
AcDbEntity
  8
10000_FRONT
370
    25
390
0
  6
CONTINUOUS
 62
     7
100
AcDbLine
 10
467.470433
 20
993.854202
 30
0.0
 11
467.37589
 21
993.688217
 31
0.0
  0
LINE
  5
1352
100
AcDbEntity
  8
10000_FRONT
370
    25
390
0
  6
CONTINUOUS
 62
     7
100
AcDbLine
 10
467.37589
 20
993.688217
 30
0.0
 11
467.274389
 21
993.527435
 31
0.0
  0
LINE
  5
1353
100
AcDbEntity
  8
10000_FRONT
370
    25
390
0
  6
CONTINUOUS
 62
     7
100
AcDbLine
 10
467.274389
 20
993.527435
 30
0.0
 11
467.166356
 21
993.372406
 31
0.0
  0
LINE
  5
1354
100
AcDbEntity
  8
10000_FRONT
370
    25
390
0
  6
CONTINUOUS
 62
     7
100
AcDbLine
 10
467.166356
 20
993.372406
 30
0.0
 11
467.052385
 21
993.223557
 31
0.0
  0
LINE
  5
1355
100
AcDbEntity
  8
10000_FRONT
370
    25
390
0
  6
CONTINUOUS
 62
     7
100
AcDbLine
 10
467.052385
 20
993.223557
 30
0.0
 11
466.933141
 21
993.081299
 31
0.0
  0
LINE
  5
1356
100
AcDbEntity
  8
10000_FRONT
370
    25
390
0
  6
CONTINUOUS
 62
     7
100
AcDbLine
 10
466.933141
 20
993.081299
 30
0.0
 11
466.809282
 21
992.94603
 31
0.0
  0
LINE
  5
1357
100
AcDbEntity
  8
10000_FRONT
370
    25
390
0
  6
CONTINUOUS
 62
     7
100
AcDbLine
 10
466.809282
 20
992.94603
 30
0.0
 11
466.681005
 21
992.817657
 31
0.0
  0
LINE
  5
1358
100
AcDbEntity
  8
10000_FRONT
370
    25
390
0
  6
CONTINUOUS
 62
     7
100
AcDbLine
 10
466.681005
 20
992.817657
 30
0.0
 11
466.545842
 21
992.693741
 31
0.0
  0
LINE
  5
1359
100
AcDbEntity
  8
10000_FRONT
370
    25
390
0
  6
CONTINUOUS
 62
     7
100
AcDbLine
 10
466.545842
 20
992.693741
 30
0.0
 11
466.403665
 21
992.574402
 31
0.0
  0
LINE
  5
135A
100
AcDbEntity
  8
10000_FRONT
370
    25
390
0
  6
CONTINUOUS
 62
     7
100
AcDbLine
 10
466.403665
 20
992.574402
 30
0.0
 11
466.254869
 21
992.460312
 31
0.0
  0
LINE
  5
135B
100
AcDbEntity
  8
10000_FRONT
370
    25
390
0
  6
CONTINUOUS
 62
     7
100
AcDbLine
 10
466.254869
 20
992.460312
 30
0.0
 11
466.099847
 21
992.352127
 31
0.0
  0
LINE
  5
135C
100
AcDbEntity
  8
10000_FRONT
370
    25
390
0
  6
CONTINUOUS
 62
     7
100
AcDbLine
 10
466.099847
 20
992.352127
 30
0.0
 11
465.939042
 21
992.250473
 31
0.0
  0
LINE
  5
135D
100
AcDbEntity
  8
10000_FRONT
370
    25
390
0
  6
CONTINUOUS
 62
     7
100
AcDbLine
 10
465.939042
 20
992.250473
 30
0.0
 11
465.773008
 21
992.155762
 31
0.0
  0
LINE
  5
135E
100
AcDbEntity
  8
10000_FRONT
370
    25
390
0
  6
CONTINUOUS
 62
     7
100
AcDbLine
 10
465.773008
 20
992.155762
 30
0.0
 11
465.602323
 21
992.06839
 31
0.0
  0
LINE
  5
135F
100
AcDbEntity
  8
10000_FRONT
370
    25
390
0
  6
CONTINUOUS
 62
     7
100
AcDbLine
 10
465.602323
 20
992.06839
 30
0.0
 11
465.427564
 21
991.988785
 31
0.0
  0
LINE
  5
1360
100
AcDbEntity
  8
10000_FRONT
370
    25
390
0
  6
CONTINUOUS
 62
     7
100
AcDbLine
 10
465.427564
 20
991.988785
 30
0.0
 11
465.249276
 21
991.917267
 31
0.0
  0
LINE
  5
1361
100
AcDbEntity
  8
10000_FRONT
370
    25
390
0
  6
CONTINUOUS
 62
     7
100
AcDbLine
 10
465.249276
 20
991.917267
 30
0.0
 11
465.068029
 21
991.854065
 31
0.0
  0
LINE
  5
1362
100
AcDbEntity
  8
10000_FRONT
370
    25
390
0
  6
CONTINUOUS
 62
     7
100
AcDbLine
 10
465.068029
 20
991.854065
 30
0.0
 11
464.884504
 21
991.799255
 31
0.0
  0
LINE
  5
1363
100
AcDbEntity
  8
10000_FRONT
370
    25
390
0
  6
CONTINUOUS
 62
     7
100
AcDbLine
 10
464.884504
 20
991.799255
 30
0.0
 11
464.699392
 21
991.753006
 31
0.0
  0
LINE
  5
1364
100
AcDbEntity
  8
10000_FRONT
370
    25
390
0
  6
CONTINUOUS
 62
     7
100
AcDbLine
 10
464.699392
 20
991.753006
 30
0.0
 11
464.513379
 21
991.715424
 31
0.0
  0
LINE
  5
1365
100
AcDbEntity
  8
10000_FRONT
370
    25
390
0
  6
CONTINUOUS
 62
     7
100
AcDbLine
 10
464.513379
 20
991.715424
 30
0.0
 11
464.327188
 21
991.686508
 31
0.0
  0
LINE
  5
1366
100
AcDbEntity
  8
10000_FRONT
370
    25
390
0
  6
CONTINUOUS
 62
     7
100
AcDbLine
 10
464.327188
 20
991.686508
 30
0.0
 11
464.141557
 21
991.666107
 31
0.0
  0
LINE
  5
1367
100
AcDbEntity
  8
10000_FRONT
370
    25
390
0
  6
CONTINUOUS
 62
     7
100
AcDbLine
 10
464.141557
 20
991.666107
 30
0.0
 11
463.957246
 21
991.653992
 31
0.0
  0
LINE
  5
1368
100
AcDbEntity
  8
10000_FRONT
370
    25
390
0
  6
CONTINUOUS
 62
     7
100
AcDbLine
 10
463.957246
 20
991.653992
 30
0.0
 11
463.775007
 21
991.649994
 31
0.0
  0
LINE
  5
1369
100
AcDbEntity
  8
10000_FRONT
370
    25
390
0
  6
CONTINUOUS
 62
     7
100
AcDbLine
 10
463.775007
 20
991.649994
 30
0.0
 11
463.592763
 21
991.653992
 31
0.0
  0
LINE
  5
136A
100
AcDbEntity
  8
10000_FRONT
370
    25
390
0
  6
CONTINUOUS
 62
     7
100
AcDbLine
 10
463.592763
 20
991.653992
 30
0.0
 11
463.408452
 21
991.666107
 31
0.0
  0
LINE
  5
136B
100
AcDbEntity
  8
10000_FRONT
370
    25
390
0
  6
CONTINUOUS
 62
     7
100
AcDbLine
 10
463.408452
 20
991.666107
 30
0.0
 11
463.222825
 21
991.686508
 31
0.0
  0
LINE
  5
136C
100
AcDbEntity
  8
10000_FRONT
370
    25
390
0
  6
CONTINUOUS
 62
     7
100
AcDbLine
 10
463.222825
 20
991.686508
 30
0.0
 11
463.03663
 21
991.715424
 31
0.0
  0
LINE
  5
136D
100
AcDbEntity
  8
10000_FRONT
370
    25
390
0
  6
CONTINUOUS
 62
     7
100
AcDbLine
 10
463.03663
 20
991.715424
 30
0.0
 11
462.850618
 21
991.753006
 31
0.0
  0
LINE
  5
136E
100
AcDbEntity
  8
10000_FRONT
370
    25
390
0
  6
CONTINUOUS
 62
     7
100
AcDbLine
 10
462.850618
 20
991.753006
 30
0.0
 11
462.665506
 21
991.799255
 31
0.0
  0
LINE
  5
136F
100
AcDbEntity
  8
10000_FRONT
370
    25
390
0
  6
CONTINUOUS
 62
     7
100
AcDbLine
 10
462.665506
 20
991.799255
 30
0.0
 11
462.481981
 21
991.854065
 31
0.0
  0
LINE
  5
1370
100
AcDbEntity
  8
10000_FRONT
370
    25
390
0
  6
CONTINUOUS
 62
     7
100
AcDbLine
 10
462.481981
 20
991.854065
 30
0.0
 11
462.300733
 21
991.917267
 31
0.0
  0
LINE
  5
1371
100
AcDbEntity
  8
10000_FRONT
370
    25
390
0
  6
CONTINUOUS
 62
     7
100
AcDbLine
 10
462.300733
 20
991.917267
 30
0.0
 11
462.122445
 21
991.988785
 31
0.0
  0
LINE
  5
1372
100
AcDbEntity
  8
10000_FRONT
370
    25
390
0
  6
CONTINUOUS
 62
     7
100
AcDbLine
 10
462.122445
 20
991.988785
 30
0.0
 11
461.947686
 21
992.06839
 31
0.0
  0
LINE
  5
1373
100
AcDbEntity
  8
10000_FRONT
370
    25
390
0
  6
CONTINUOUS
 62
     7
100
AcDbLine
 10
461.947686
 20
992.06839
 30
0.0
 11
461.777002
 21
992.155762
 31
0.0
  0
LINE
  5
1374
100
AcDbEntity
  8
10000_FRONT
370
    25
390
0
  6
CONTINUOUS
 62
     7
100
AcDbLine
 10
461.777002
 20
992.155762
 30
0.0
 11
461.610971
 21
992.250473
 31
0.0
  0
LINE
  5
1375
100
AcDbEntity
  8
10000_FRONT
370
    25
390
0
  6
CONTINUOUS
 62
     7
100
AcDbLine
 10
461.610971
 20
992.250473
 30
0.0
 11
461.450162
 21
992.352127
 31
0.0
  0
LINE
  5
1376
100
AcDbEntity
  8
10000_FRONT
370
    25
390
0
  6
CONTINUOUS
 62
     7
100
AcDbLine
 10
461.450162
 20
992.352127
 30
0.0
 11
461.295144
 21
992.460312
 31
0.0
  0
LINE
  5
1377
100
AcDbEntity
  8
10000_FRONT
370
    25
390
0
  6
CONTINUOUS
 62
     7
100
AcDbLine
 10
461.295144
 20
992.460312
 30
0.0
 11
461.146348
 21
992.574402
 31
0.0
  0
LINE
  5
1378
100
AcDbEntity
  8
10000_FRONT
370
    25
390
0
  6
CONTINUOUS
 62
     7
100
AcDbLine
 10
461.146348
 20
992.574402
 30
0.0
 11
461.004171
 21
992.693741
 31
0.0
  0
LINE
  5
1379
100
AcDbEntity
  8
10000_FRONT
370
    25
390
0
  6
CONTINUOUS
 62
     7
100
AcDbLine
 10
461.004171
 20
992.693741
 30
0.0
 11
460.869004
 21
992.817657
 31
0.0
  0
LINE
  5
137A
100
AcDbEntity
  8
10000_FRONT
370
    25
390
0
  6
CONTINUOUS
 62
     7
100
AcDbLine
 10
460.869004
 20
992.817657
 30
0.0
 11
460.740728
 21
992.94603
 31
0.0
  0
LINE
  5
137B
100
AcDbEntity
  8
10000_FRONT
370
    25
390
0
  6
CONTINUOUS
 62
     7
100
AcDbLine
 10
460.740728
 20
992.94603
 30
0.0
 11
460.616872
 21
993.081299
 31
0.0
  0
LINE
  5
137C
100
AcDbEntity
  8
10000_FRONT
370
    25
390
0
  6
CONTINUOUS
 62
     7
100
AcDbLine
 10
460.616872
 20
993.081299
 30
0.0
 11
460.497625
 21
993.223557
 31
0.0
  0
LINE
  5
137D
100
AcDbEntity
  8
10000_FRONT
370
    25
390
0
  6
CONTINUOUS
 62
     7
100
AcDbLine
 10
460.497625
 20
993.223557
 30
0.0
 11
460.383653
 21
993.372406
 31
0.0
  0
LINE
  5
137E
100
AcDbEntity
  8
10000_FRONT
370
    25
390
0
  6
CONTINUOUS
 62
     7
100
AcDbLine
 10
460.383653
 20
993.372406
 30
0.0
 11
460.275621
 21
993.527435
 31
0.0
  0
LINE
  5
137F
100
AcDbEntity
  8
10000_FRONT
370
    25
390
0
  6
CONTINUOUS
 62
     7
100
AcDbLine
 10
460.275621
 20
993.527435
 30
0.0
 11
460.174123
 21
993.688217
 31
0.0
  0
LINE
  5
1380
100
AcDbEntity
  8
10000_FRONT
370
    25
390
0
  6
CONTINUOUS
 62
     7
100
AcDbLine
 10
460.174123
 20
993.688217
 30
0.0
 11
460.079576
 21
993.854202
 31
0.0
  0
LINE
  5
1381
100
AcDbEntity
  8
10000_FRONT
370
    25
390
0
  6
CONTINUOUS
 62
     7
100
AcDbLine
 10
460.079576
 20
993.854202
 30
0.0
 11
459.992383
 21
994.024796
 31
0.0
  0
LINE
  5
1382
100
AcDbEntity
  8
10000_FRONT
370
    25
390
0
  6
CONTINUOUS
 62
     7
100
AcDbLine
 10
459.992383
 20
994.024796
 30
0.0
 11
459.912931
 21
994.199432
 31
0.0
  0
LINE
  5
1383
100
AcDbEntity
  8
10000_FRONT
370
    25
390
0
  6
CONTINUOUS
 62
     7
100
AcDbLine
 10
459.912931
 20
994.199432
 30
0.0
 11
459.841588
 21
994.377579
 31
0.0
  0
LINE
  5
1384
100
AcDbEntity
  8
10000_FRONT
370
    25
390
0
  6
CONTINUOUS
 62
     7
100
AcDbLine
 10
459.841588
 20
994.377579
 30
0.0
 11
459.778524
 21
994.558655
 31
0.0
  0
LINE
  5
1385
100
AcDbEntity
  8
10000_FRONT
370
    25
390
0
  6
CONTINUOUS
 62
     7
100
AcDbLine
 10
459.778524
 20
994.558655
 30
0.0
 11
459.723859
 21
994.741974
 31
0.0
  0
LINE
  5
1386
100
AcDbEntity
  8
10000_FRONT
370
    25
390
0
  6
CONTINUOUS
 62
     7
100
AcDbLine
 10
459.723859
 20
994.741974
 30
0.0
 11
459.677724
 21
994.92688
 31
0.0
  0
LINE
  5
1387
100
AcDbEntity
  8
10000_FRONT
370
    25
390
0
  6
CONTINUOUS
 62
     7
100
AcDbLine
 10
459.677724
 20
994.92688
 30
0.0
 11
459.640245
 21
995.112656
 31
0.0
  0
LINE
  5
1388
100
AcDbEntity
  8
10000_FRONT
370
    25
390
0
  6
CONTINUOUS
 62
     7
100
AcDbLine
 10
459.640245
 20
995.112656
 30
0.0
 11
459.611413
 21
995.298599
 31
0.0
  0
LINE
  5
1389
100
AcDbEntity
  8
10000_FRONT
370
    25
390
0
  6
CONTINUOUS
 62
     7
100
AcDbLine
 10
459.611413
 20
995.298599
 30
0.0
 11
459.591058
 21
995.483978
 31
0.0
  0
LINE
  5
138A
100
AcDbEntity
  8
10000_FRONT
370
    25
390
0
  6
CONTINUOUS
 62
     7
100
AcDbLine
 10
459.591058
 20
995.483978
 30
0.0
 11
459.578988
 21
995.668015
 31
0.0
  0
LINE
  5
138B
100
AcDbEntity
  8
10000_FRONT
370
    25
390
0
  6
CONTINUOUS
 62
     7
100
AcDbLine
 10
459.578988
 20
995.668015
 30
0.0
 11
459.575006
 21
995.850006
 31
0.0
  0
LINE
  5
138C
100
AcDbEntity
  8
10000_FRONT
370
    25
390
0
  6
CONTINUOUS
 62
     7
100
AcDbLine
 10
431.825005
 20
995.850006
 30
0.0
 11
431.821023
 21
995.668015
 31
0.0
  0
LINE
  5
138D
100
AcDbEntity
  8
10000_FRONT
370
    25
390
0
  6
CONTINUOUS
 62
     7
100
AcDbLine
 10
431.821023
 20
995.668015
 30
0.0
 11
431.808952
 21
995.483978
 31
0.0
  0
LINE
  5
138E
100
AcDbEntity
  8
10000_FRONT
370
    25
390
0
  6
CONTINUOUS
 62
     7
100
AcDbLine
 10
431.808952
 20
995.483978
 30
0.0
 11
431.788596
 21
995.298599
 31
0.0
  0
LINE
  5
138F
100
AcDbEntity
  8
10000_FRONT
370
    25
390
0
  6
CONTINUOUS
 62
     7
100
AcDbLine
 10
431.788596
 20
995.298599
 30
0.0
 11
431.759767
 21
995.112656
 31
0.0
  0
LINE
  5
1390
100
AcDbEntity
  8
10000_FRONT
370
    25
390
0
  6
CONTINUOUS
 62
     7
100
AcDbLine
 10
431.759767
 20
995.112656
 30
0.0
 11
431.722285
 21
994.92688
 31
0.0
  0
LINE
  5
1391
100
AcDbEntity
  8
10000_FRONT
370
    25
390
0
  6
CONTINUOUS
 62
     7
100
AcDbLine
 10
431.722285
 20
994.92688
 30
0.0
 11
431.676151
 21
994.741974
 31
0.0
  0
LINE
  5
1392
100
AcDbEntity
  8
10000_FRONT
370
    25
390
0
  6
CONTINUOUS
 62
     7
100
AcDbLine
 10
431.676151
 20
994.741974
 30
0.0
 11
431.621488
 21
994.558655
 31
0.0
  0
LINE
  5
1393
100
AcDbEntity
  8
10000_FRONT
370
    25
390
0
  6
CONTINUOUS
 62
     7
100
AcDbLine
 10
431.621488
 20
994.558655
 30
0.0
 11
431.558422
 21
994.377579
 31
0.0
  0
LINE
  5
1394
100
AcDbEntity
  8
10000_FRONT
370
    25
390
0
  6
CONTINUOUS
 62
     7
100
AcDbLine
 10
431.558422
 20
994.377579
 30
0.0
 11
431.487078
 21
994.199432
 31
0.0
  0
LINE
  5
1395
100
AcDbEntity
  8
10000_FRONT
370
    25
390
0
  6
CONTINUOUS
 62
     7
100
AcDbLine
 10
431.487078
 20
994.199432
 30
0.0
 11
431.407628
 21
994.024796
 31
0.0
  0
LINE
  5
1396
100
AcDbEntity
  8
10000_FRONT
370
    25
390
0
  6
CONTINUOUS
 62
     7
100
AcDbLine
 10
431.407628
 20
994.024796
 30
0.0
 11
431.320433
 21
993.854202
 31
0.0
  0
LINE
  5
1397
100
AcDbEntity
  8
10000_FRONT
370
    25
390
0
  6
CONTINUOUS
 62
     7
100
AcDbLine
 10
431.320433
 20
993.854202
 30
0.0
 11
431.225888
 21
993.688217
 31
0.0
  0
LINE
  5
1398
100
AcDbEntity
  8
10000_FRONT
370
    25
390
0
  6
CONTINUOUS
 62
     7
100
AcDbLine
 10
431.225888
 20
993.688217
 30
0.0
 11
431.124389
 21
993.527435
 31
0.0
  0
LINE
  5
1399
100
AcDbEntity
  8
10000_FRONT
370
    25
390
0
  6
CONTINUOUS
 62
     7
100
AcDbLine
 10
431.124389
 20
993.527435
 30
0.0
 11
431.016357
 21
993.372406
 31
0.0
  0
LINE
  5
139A
100
AcDbEntity
  8
10000_FRONT
370
    25
390
0
  6
CONTINUOUS
 62
     7
100
AcDbLine
 10
431.016357
 20
993.372406
 30
0.0
 11
430.902386
 21
993.223557
 31
0.0
  0
LINE
  5
139B
100
AcDbEntity
  8
10000_FRONT
370
    25
390
0
  6
CONTINUOUS
 62
     7
100
AcDbLine
 10
430.902386
 20
993.223557
 30
0.0
 11
430.783139
 21
993.081299
 31
0.0
  0
LINE
  5
139C
100
AcDbEntity
  8
10000_FRONT
370
    25
390
0
  6
CONTINUOUS
 62
     7
100
AcDbLine
 10
430.783139
 20
993.081299
 30
0.0
 11
430.659283
 21
992.94603
 31
0.0
  0
LINE
  5
139D
100
AcDbEntity
  8
10000_FRONT
370
    25
390
0
  6
CONTINUOUS
 62
     7
100
AcDbLine
 10
430.659283
 20
992.94603
 30
0.0
 11
430.531004
 21
992.817657
 31
0.0
  0
LINE
  5
139E
100
AcDbEntity
  8
10000_FRONT
370
    25
390
0
  6
CONTINUOUS
 62
     7
100
AcDbLine
 10
430.531004
 20
992.817657
 30
0.0
 11
430.395841
 21
992.693741
 31
0.0
  0
LINE
  5
139F
100
AcDbEntity
  8
10000_FRONT
370
    25
390
0
  6
CONTINUOUS
 62
     7
100
AcDbLine
 10
430.395841
 20
992.693741
 30
0.0
 11
430.253663
 21
992.574402
 31
0.0
  0
LINE
  5
13A0
100
AcDbEntity
  8
10000_FRONT
370
    25
390
0
  6
CONTINUOUS
 62
     7
100
AcDbLine
 10
430.253663
 20
992.574402
 30
0.0
 11
430.104867
 21
992.460312
 31
0.0
  0
LINE
  5
13A1
100
AcDbEntity
  8
10000_FRONT
370
    25
390
0
  6
CONTINUOUS
 62
     7
100
AcDbLine
 10
430.104867
 20
992.460312
 30
0.0
 11
429.949846
 21
992.352127
 31
0.0
  0
LINE
  5
13A2
100
AcDbEntity
  8
10000_FRONT
370
    25
390
0
  6
CONTINUOUS
 62
     7
100
AcDbLine
 10
429.949846
 20
992.352127
 30
0.0
 11
429.789041
 21
992.250473
 31
0.0
  0
LINE
  5
13A3
100
AcDbEntity
  8
10000_FRONT
370
    25
390
0
  6
CONTINUOUS
 62
     7
100
AcDbLine
 10
429.789041
 20
992.250473
 30
0.0
 11
429.623007
 21
992.155762
 31
0.0
  0
LINE
  5
13A4
100
AcDbEntity
  8
10000_FRONT
370
    25
390
0
  6
CONTINUOUS
 62
     7
100
AcDbLine
 10
429.623007
 20
992.155762
 30
0.0
 11
429.452322
 21
992.06839
 31
0.0
  0
LINE
  5
13A5
100
AcDbEntity
  8
10000_FRONT
370
    25
390
0
  6
CONTINUOUS
 62
     7
100
AcDbLine
 10
429.452322
 20
992.06839
 30
0.0
 11
429.277563
 21
991.988785
 31
0.0
  0
LINE
  5
13A6
100
AcDbEntity
  8
10000_FRONT
370
    25
390
0
  6
CONTINUOUS
 62
     7
100
AcDbLine
 10
429.277563
 20
991.988785
 30
0.0
 11
429.099278
 21
991.917267
 31
0.0
  0
LINE
  5
13A7
100
AcDbEntity
  8
10000_FRONT
370
    25
390
0
  6
CONTINUOUS
 62
     7
100
AcDbLine
 10
429.099278
 20
991.917267
 30
0.0
 11
428.91803
 21
991.854065
 31
0.0
  0
LINE
  5
13A8
100
AcDbEntity
  8
10000_FRONT
370
    25
390
0
  6
CONTINUOUS
 62
     7
100
AcDbLine
 10
428.91803
 20
991.854065
 30
0.0
 11
428.734505
 21
991.799255
 31
0.0
  0
LINE
  5
13A9
100
AcDbEntity
  8
10000_FRONT
370
    25
390
0
  6
CONTINUOUS
 62
     7
100
AcDbLine
 10
428.734505
 20
991.799255
 30
0.0
 11
428.549392
 21
991.753006
 31
0.0
  0
LINE
  5
13AA
100
AcDbEntity
  8
10000_FRONT
370
    25
390
0
  6
CONTINUOUS
 62
     7
100
AcDbLine
 10
428.549392
 20
991.753006
 30
0.0
 11
428.363381
 21
991.715424
 31
0.0
  0
LINE
  5
13AB
100
AcDbEntity
  8
10000_FRONT
370
    25
390
0
  6
CONTINUOUS
 62
     7
100
AcDbLine
 10
428.363381
 20
991.715424
 30
0.0
 11
428.177186
 21
991.686508
 31
0.0
  0
LINE
  5
13AC
100
AcDbEntity
  8
10000_FRONT
370
    25
390
0
  6
CONTINUOUS
 62
     7
100
AcDbLine
 10
428.177186
 20
991.686508
 30
0.0
 11
427.991557
 21
991.666107
 31
0.0
  0
LINE
  5
13AD
100
AcDbEntity
  8
10000_FRONT
370
    25
390
0
  6
CONTINUOUS
 62
     7
100
AcDbLine
 10
427.991557
 20
991.666107
 30
0.0
 11
427.807245
 21
991.653992
 31
0.0
  0
LINE
  5
13AE
100
AcDbEntity
  8
10000_FRONT
370
    25
390
0
  6
CONTINUOUS
 62
     7
100
AcDbLine
 10
427.807245
 20
991.653992
 30
0.0
 11
427.625005
 21
991.649994
 31
0.0
  0
LINE
  5
13AF
100
AcDbEntity
  8
10000_FRONT
370
    25
390
0
  6
CONTINUOUS
 62
     7
100
AcDbLine
 10
427.625005
 20
991.649994
 30
0.0
 11
427.442764
 21
991.653992
 31
0.0
  0
LINE
  5
13B0
100
AcDbEntity
  8
10000_FRONT
370
    25
390
0
  6
CONTINUOUS
 62
     7
100
AcDbLine
 10
427.442764
 20
991.653992
 30
0.0
 11
427.258453
 21
991.666107
 31
0.0
  0
LINE
  5
13B1
100
AcDbEntity
  8
10000_FRONT
370
    25
390
0
  6
CONTINUOUS
 62
     7
100
AcDbLine
 10
427.258453
 20
991.666107
 30
0.0
 11
427.072824
 21
991.686508
 31
0.0
  0
LINE
  5
13B2
100
AcDbEntity
  8
10000_FRONT
370
    25
390
0
  6
CONTINUOUS
 62
     7
100
AcDbLine
 10
427.072824
 20
991.686508
 30
0.0
 11
426.886629
 21
991.715424
 31
0.0
  0
LINE
  5
13B3
100
AcDbEntity
  8
10000_FRONT
370
    25
390
0
  6
CONTINUOUS
 62
     7
100
AcDbLine
 10
426.886629
 20
991.715424
 30
0.0
 11
426.700618
 21
991.753006
 31
0.0
  0
LINE
  5
13B4
100
AcDbEntity
  8
10000_FRONT
370
    25
390
0
  6
CONTINUOUS
 62
     7
100
AcDbLine
 10
426.700618
 20
991.753006
 30
0.0
 11
426.515505
 21
991.799255
 31
0.0
  0
LINE
  5
13B5
100
AcDbEntity
  8
10000_FRONT
370
    25
390
0
  6
CONTINUOUS
 62
     7
100
AcDbLine
 10
426.515505
 20
991.799255
 30
0.0
 11
426.33198
 21
991.854065
 31
0.0
  0
LINE
  5
13B6
100
AcDbEntity
  8
10000_FRONT
370
    25
390
0
  6
CONTINUOUS
 62
     7
100
AcDbLine
 10
426.33198
 20
991.854065
 30
0.0
 11
426.150732
 21
991.917267
 31
0.0
  0
LINE
  5
13B7
100
AcDbEntity
  8
10000_FRONT
370
    25
390
0
  6
CONTINUOUS
 62
     7
100
AcDbLine
 10
426.150732
 20
991.917267
 30
0.0
 11
425.972447
 21
991.988785
 31
0.0
  0
LINE
  5
13B8
100
AcDbEntity
  8
10000_FRONT
370
    25
390
0
  6
CONTINUOUS
 62
     7
100
AcDbLine
 10
425.972447
 20
991.988785
 30
0.0
 11
425.797688
 21
992.06839
 31
0.0
  0
LINE
  5
13B9
100
AcDbEntity
  8
10000_FRONT
370
    25
390
0
  6
CONTINUOUS
 62
     7
100
AcDbLine
 10
425.797688
 20
992.06839
 30
0.0
 11
425.627002
 21
992.155762
 31
0.0
  0
LINE
  5
13BA
100
AcDbEntity
  8
10000_FRONT
370
    25
390
0
  6
CONTINUOUS
 62
     7
100
AcDbLine
 10
425.627002
 20
992.155762
 30
0.0
 11
425.460969
 21
992.250473
 31
0.0
  0
LINE
  5
13BB
100
AcDbEntity
  8
10000_FRONT
370
    25
390
0
  6
CONTINUOUS
 62
     7
100
AcDbLine
 10
425.460969
 20
992.250473
 30
0.0
 11
425.300163
 21
992.352127
 31
0.0
  0
LINE
  5
13BC
100
AcDbEntity
  8
10000_FRONT
370
    25
390
0
  6
CONTINUOUS
 62
     7
100
AcDbLine
 10
425.300163
 20
992.352127
 30
0.0
 11
425.145143
 21
992.460312
 31
0.0
  0
LINE
  5
13BD
100
AcDbEntity
  8
10000_FRONT
370
    25
390
0
  6
CONTINUOUS
 62
     7
100
AcDbLine
 10
425.145143
 20
992.460312
 30
0.0
 11
424.996346
 21
992.574402
 31
0.0
  0
LINE
  5
13BE
100
AcDbEntity
  8
10000_FRONT
370
    25
390
0
  6
CONTINUOUS
 62
     7
100
AcDbLine
 10
424.996346
 20
992.574402
 30
0.0
 11
424.854169
 21
992.693741
 31
0.0
  0
LINE
  5
13BF
100
AcDbEntity
  8
10000_FRONT
370
    25
390
0
  6
CONTINUOUS
 62
     7
100
AcDbLine
 10
424.854169
 20
992.693741
 30
0.0
 11
424.719005
 21
992.817657
 31
0.0
  0
LINE
  5
13C0
100
AcDbEntity
  8
10000_FRONT
370
    25
390
0
  6
CONTINUOUS
 62
     7
100
AcDbLine
 10
424.719005
 20
992.817657
 30
0.0
 11
424.590727
 21
992.94603
 31
0.0
  0
LINE
  5
13C1
100
AcDbEntity
  8
10000_FRONT
370
    25
390
0
  6
CONTINUOUS
 62
     7
100
AcDbLine
 10
424.590727
 20
992.94603
 30
0.0
 11
424.46687
 21
993.081299
 31
0.0
  0
LINE
  5
13C2
100
AcDbEntity
  8
10000_FRONT
370
    25
390
0
  6
CONTINUOUS
 62
     7
100
AcDbLine
 10
424.46687
 20
993.081299
 30
0.0
 11
424.347625
 21
993.223557
 31
0.0
  0
LINE
  5
13C3
100
AcDbEntity
  8
10000_FRONT
370
    25
390
0
  6
CONTINUOUS
 62
     7
100
AcDbLine
 10
424.347625
 20
993.223557
 30
0.0
 11
424.233653
 21
993.372406
 31
0.0
  0
LINE
  5
13C4
100
AcDbEntity
  8
10000_FRONT
370
    25
390
0
  6
CONTINUOUS
 62
     7
100
AcDbLine
 10
424.233653
 20
993.372406
 30
0.0
 11
424.125621
 21
993.527435
 31
0.0
  0
LINE
  5
13C5
100
AcDbEntity
  8
10000_FRONT
370
    25
390
0
  6
CONTINUOUS
 62
     7
100
AcDbLine
 10
424.125621
 20
993.527435
 30
0.0
 11
424.024122
 21
993.688217
 31
0.0
  0
LINE
  5
13C6
100
AcDbEntity
  8
10000_FRONT
370
    25
390
0
  6
CONTINUOUS
 62
     7
100
AcDbLine
 10
424.024122
 20
993.688217
 30
0.0
 11
423.929577
 21
993.854202
 31
0.0
  0
LINE
  5
13C7
100
AcDbEntity
  8
10000_FRONT
370
    25
390
0
  6
CONTINUOUS
 62
     7
100
AcDbLine
 10
423.929577
 20
993.854202
 30
0.0
 11
423.842382
 21
994.024796
 31
0.0
  0
LINE
  5
13C8
100
AcDbEntity
  8
10000_FRONT
370
    25
390
0
  6
CONTINUOUS
 62
     7
100
AcDbLine
 10
423.842382
 20
994.024796
 30
0.0
 11
423.762933
 21
994.199432
 31
0.0
  0
LINE
  5
13C9
100
AcDbEntity
  8
10000_FRONT
370
    25
390
0
  6
CONTINUOUS
 62
     7
100
AcDbLine
 10
423.762933
 20
994.199432
 30
0.0
 11
423.691588
 21
994.377579
 31
0.0
  0
LINE
  5
13CA
100
AcDbEntity
  8
10000_FRONT
370
    25
390
0
  6
CONTINUOUS
 62
     7
100
AcDbLine
 10
423.691588
 20
994.377579
 30
0.0
 11
423.628522
 21
994.558655
 31
0.0
  0
LINE
  5
13CB
100
AcDbEntity
  8
10000_FRONT
370
    25
390
0
  6
CONTINUOUS
 62
     7
100
AcDbLine
 10
423.628522
 20
994.558655
 30
0.0
 11
423.573859
 21
994.741974
 31
0.0
  0
LINE
  5
13CC
100
AcDbEntity
  8
10000_FRONT
370
    25
390
0
  6
CONTINUOUS
 62
     7
100
AcDbLine
 10
423.573859
 20
994.741974
 30
0.0
 11
423.527725
 21
994.92688
 31
0.0
  0
LINE
  5
13CD
100
AcDbEntity
  8
10000_FRONT
370
    25
390
0
  6
CONTINUOUS
 62
     7
100
AcDbLine
 10
423.527725
 20
994.92688
 30
0.0
 11
423.490243
 21
995.112656
 31
0.0
  0
LINE
  5
13CE
100
AcDbEntity
  8
10000_FRONT
370
    25
390
0
  6
CONTINUOUS
 62
     7
100
AcDbLine
 10
423.490243
 20
995.112656
 30
0.0
 11
423.461414
 21
995.298599
 31
0.0
  0
LINE
  5
13CF
100
AcDbEntity
  8
10000_FRONT
370
    25
390
0
  6
CONTINUOUS
 62
     7
100
AcDbLine
 10
423.461414
 20
995.298599
 30
0.0
 11
423.441059
 21
995.483978
 31
0.0
  0
LINE
  5
13D0
100
AcDbEntity
  8
10000_FRONT
370
    25
390
0
  6
CONTINUOUS
 62
     7
100
AcDbLine
 10
423.441059
 20
995.483978
 30
0.0
 11
423.428987
 21
995.668015
 31
0.0
  0
LINE
  5
13D1
100
AcDbEntity
  8
10000_FRONT
370
    25
390
0
  6
CONTINUOUS
 62
     7
100
AcDbLine
 10
423.428987
 20
995.668015
 30
0.0
 11
423.425005
 21
995.850006
 31
0.0
  0
LINE
  5
13D2
100
AcDbEntity
  8
10000_FRONT
370
    25
390
0
  6
CONTINUOUS
 62
     7
100
AcDbLine
 10
415.825005
 20
995.850006
 30
0.0
 11
415.821023
 21
995.668015
 31
0.0
  0
LINE
  5
13D3
100
AcDbEntity
  8
10000_FRONT
370
    25
390
0
  6
CONTINUOUS
 62
     7
100
AcDbLine
 10
415.821023
 20
995.668015
 30
0.0
 11
415.808951
 21
995.483978
 31
0.0
  0
LINE
  5
13D4
100
AcDbEntity
  8
10000_FRONT
370
    25
390
0
  6
CONTINUOUS
 62
     7
100
AcDbLine
 10
415.808951
 20
995.483978
 30
0.0
 11
415.788596
 21
995.298599
 31
0.0
  0
LINE
  5
13D5
100
AcDbEntity
  8
10000_FRONT
370
    25
390
0
  6
CONTINUOUS
 62
     7
100
AcDbLine
 10
415.788596
 20
995.298599
 30
0.0
 11
415.759767
 21
995.112656
 31
0.0
  0
LINE
  5
13D6
100
AcDbEntity
  8
10000_FRONT
370
    25
390
0
  6
CONTINUOUS
 62
     7
100
AcDbLine
 10
415.759767
 20
995.112656
 30
0.0
 11
415.722285
 21
994.92688
 31
0.0
  0
LINE
  5
13D7
100
AcDbEntity
  8
10000_FRONT
370
    25
390
0
  6
CONTINUOUS
 62
     7
100
AcDbLine
 10
415.722285
 20
994.92688
 30
0.0
 11
415.676151
 21
994.741974
 31
0.0
  0
LINE
  5
13D8
100
AcDbEntity
  8
10000_FRONT
370
    25
390
0
  6
CONTINUOUS
 62
     7
100
AcDbLine
 10
415.676151
 20
994.741974
 30
0.0
 11
415.621488
 21
994.558655
 31
0.0
  0
LINE
  5
13D9
100
AcDbEntity
  8
10000_FRONT
370
    25
390
0
  6
CONTINUOUS
 62
     7
100
AcDbLine
 10
415.621488
 20
994.558655
 30
0.0
 11
415.558422
 21
994.377579
 31
0.0
  0
LINE
  5
13DA
100
AcDbEntity
  8
10000_FRONT
370
    25
390
0
  6
CONTINUOUS
 62
     7
100
AcDbLine
 10
415.558422
 20
994.377579
 30
0.0
 11
415.487077
 21
994.199432
 31
0.0
  0
LINE
  5
13DB
100
AcDbEntity
  8
10000_FRONT
370
    25
390
0
  6
CONTINUOUS
 62
     7
100
AcDbLine
 10
415.487077
 20
994.199432
 30
0.0
 11
415.407628
 21
994.024796
 31
0.0
  0
LINE
  5
13DC
100
AcDbEntity
  8
10000_FRONT
370
    25
390
0
  6
CONTINUOUS
 62
     7
100
AcDbLine
 10
415.407628
 20
994.024796
 30
0.0
 11
415.320433
 21
993.854202
 31
0.0
  0
LINE
  5
13DD
100
AcDbEntity
  8
10000_FRONT
370
    25
390
0
  6
CONTINUOUS
 62
     7
100
AcDbLine
 10
415.320433
 20
993.854202
 30
0.0
 11
415.225888
 21
993.688217
 31
0.0
  0
LINE
  5
13DE
100
AcDbEntity
  8
10000_FRONT
370
    25
390
0
  6
CONTINUOUS
 62
     7
100
AcDbLine
 10
415.225888
 20
993.688217
 30
0.0
 11
415.124389
 21
993.527435
 31
0.0
  0
LINE
  5
13DF
100
AcDbEntity
  8
10000_FRONT
370
    25
390
0
  6
CONTINUOUS
 62
     7
100
AcDbLine
 10
415.124389
 20
993.527435
 30
0.0
 11
415.016357
 21
993.372406
 31
0.0
  0
LINE
  5
13E0
100
AcDbEntity
  8
10000_FRONT
370
    25
390
0
  6
CONTINUOUS
 62
     7
100
AcDbLine
 10
415.016357
 20
993.372406
 30
0.0
 11
414.902385
 21
993.223557
 31
0.0
  0
LINE
  5
13E1
100
AcDbEntity
  8
10000_FRONT
370
    25
390
0
  6
CONTINUOUS
 62
     7
100
AcDbLine
 10
414.902385
 20
993.223557
 30
0.0
 11
414.78314
 21
993.081299
 31
0.0
  0
LINE
  5
13E2
100
AcDbEntity
  8
10000_FRONT
370
    25
390
0
  6
CONTINUOUS
 62
     7
100
AcDbLine
 10
414.78314
 20
993.081299
 30
0.0
 11
414.659283
 21
992.94603
 31
0.0
  0
LINE
  5
13E3
100
AcDbEntity
  8
10000_FRONT
370
    25
390
0
  6
CONTINUOUS
 62
     7
100
AcDbLine
 10
414.659283
 20
992.94603
 30
0.0
 11
414.531005
 21
992.817657
 31
0.0
  0
LINE
  5
13E4
100
AcDbEntity
  8
10000_FRONT
370
    25
390
0
  6
CONTINUOUS
 62
     7
100
AcDbLine
 10
414.531005
 20
992.817657
 30
0.0
 11
414.395841
 21
992.693741
 31
0.0
  0
LINE
  5
13E5
100
AcDbEntity
  8
10000_FRONT
370
    25
390
0
  6
CONTINUOUS
 62
     7
100
AcDbLine
 10
414.395841
 20
992.693741
 30
0.0
 11
414.253664
 21
992.574402
 31
0.0
  0
LINE
  5
13E6
100
AcDbEntity
  8
10000_FRONT
370
    25
390
0
  6
CONTINUOUS
 62
     7
100
AcDbLine
 10
414.253664
 20
992.574402
 30
0.0
 11
414.104867
 21
992.460312
 31
0.0
  0
LINE
  5
13E7
100
AcDbEntity
  8
10000_FRONT
370
    25
390
0
  6
CONTINUOUS
 62
     7
100
AcDbLine
 10
414.104867
 20
992.460312
 30
0.0
 11
413.949847
 21
992.352127
 31
0.0
  0
LINE
  5
13E8
100
AcDbEntity
  8
10000_FRONT
370
    25
390
0
  6
CONTINUOUS
 62
     7
100
AcDbLine
 10
413.949847
 20
992.352127
 30
0.0
 11
413.789041
 21
992.250473
 31
0.0
  0
LINE
  5
13E9
100
AcDbEntity
  8
10000_FRONT
370
    25
390
0
  6
CONTINUOUS
 62
     7
100
AcDbLine
 10
413.789041
 20
992.250473
 30
0.0
 11
413.623008
 21
992.155762
 31
0.0
  0
LINE
  5
13EA
100
AcDbEntity
  8
10000_FRONT
370
    25
390
0
  6
CONTINUOUS
 62
     7
100
AcDbLine
 10
413.623008
 20
992.155762
 30
0.0
 11
413.452322
 21
992.06839
 31
0.0
  0
LINE
  5
13EB
100
AcDbEntity
  8
10000_FRONT
370
    25
390
0
  6
CONTINUOUS
 62
     7
100
AcDbLine
 10
413.452322
 20
992.06839
 30
0.0
 11
413.277563
 21
991.988785
 31
0.0
  0
LINE
  5
13EC
100
AcDbEntity
  8
10000_FRONT
370
    25
390
0
  6
CONTINUOUS
 62
     7
100
AcDbLine
 10
413.277563
 20
991.988785
 30
0.0
 11
413.099278
 21
991.917267
 31
0.0
  0
LINE
  5
13ED
100
AcDbEntity
  8
10000_FRONT
370
    25
390
0
  6
CONTINUOUS
 62
     7
100
AcDbLine
 10
413.099278
 20
991.917267
 30
0.0
 11
412.91803
 21
991.854065
 31
0.0
  0
LINE
  5
13EE
100
AcDbEntity
  8
10000_FRONT
370
    25
390
0
  6
CONTINUOUS
 62
     7
100
AcDbLine
 10
412.91803
 20
991.854065
 30
0.0
 11
412.734505
 21
991.799255
 31
0.0
  0
LINE
  5
13EF
100
AcDbEntity
  8
10000_FRONT
370
    25
390
0
  6
CONTINUOUS
 62
     7
100
AcDbLine
 10
412.734505
 20
991.799255
 30
0.0
 11
412.549392
 21
991.753006
 31
0.0
  0
LINE
  5
13F0
100
AcDbEntity
  8
10000_FRONT
370
    25
390
0
  6
CONTINUOUS
 62
     7
100
AcDbLine
 10
412.549392
 20
991.753006
 30
0.0
 11
412.363381
 21
991.715424
 31
0.0
  0
LINE
  5
13F1
100
AcDbEntity
  8
10000_FRONT
370
    25
390
0
  6
CONTINUOUS
 62
     7
100
AcDbLine
 10
412.363381
 20
991.715424
 30
0.0
 11
412.177186
 21
991.686508
 31
0.0
  0
LINE
  5
13F2
100
AcDbEntity
  8
10000_FRONT
370
    25
390
0
  6
CONTINUOUS
 62
     7
100
AcDbLine
 10
412.177186
 20
991.686508
 30
0.0
 11
411.991557
 21
991.666107
 31
0.0
  0
LINE
  5
13F3
100
AcDbEntity
  8
10000_FRONT
370
    25
390
0
  6
CONTINUOUS
 62
     7
100
AcDbLine
 10
411.991557
 20
991.666107
 30
0.0
 11
411.807246
 21
991.653992
 31
0.0
  0
LINE
  5
13F4
100
AcDbEntity
  8
10000_FRONT
370
    25
390
0
  6
CONTINUOUS
 62
     7
100
AcDbLine
 10
411.807246
 20
991.653992
 30
0.0
 11
411.625005
 21
991.649994
 31
0.0
  0
LINE
  5
13F5
100
AcDbEntity
  8
10000_FRONT
370
    25
390
0
  6
CONTINUOUS
 62
     7
100
AcDbLine
 10
411.625005
 20
991.649994
 30
0.0
 11
411.442765
 21
991.653992
 31
0.0
  0
LINE
  5
13F6
100
AcDbEntity
  8
10000_FRONT
370
    25
390
0
  6
CONTINUOUS
 62
     7
100
AcDbLine
 10
411.442765
 20
991.653992
 30
0.0
 11
411.258457
 21
991.666092
 31
0.0
  0
LINE
  5
13F7
100
AcDbEntity
  8
10000_FRONT
370
    25
390
0
  6
CONTINUOUS
 62
     7
100
AcDbLine
 10
411.258457
 20
991.666092
 30
0.0
 11
411.072832
 21
991.686508
 31
0.0
  0
LINE
  5
13F8
100
AcDbEntity
  8
10000_FRONT
370
    25
390
0
  6
CONTINUOUS
 62
     7
100
AcDbLine
 10
411.072832
 20
991.686508
 30
0.0
 11
410.886643
 21
991.715424
 31
0.0
  0
LINE
  5
13F9
100
AcDbEntity
  8
10000_FRONT
370
    25
390
0
  6
CONTINUOUS
 62
     7
100
AcDbLine
 10
410.886643
 20
991.715424
 30
0.0
 11
410.700638
 21
991.753006
 31
0.0
  0
LINE
  5
13FA
100
AcDbEntity
  8
10000_FRONT
370
    25
390
0
  6
CONTINUOUS
 62
     7
100
AcDbLine
 10
410.700638
 20
991.753006
 30
0.0
 11
410.515532
 21
991.799255
 31
0.0
  0
LINE
  5
13FB
100
AcDbEntity
  8
10000_FRONT
370
    25
390
0
  6
CONTINUOUS
 62
     7
100
AcDbLine
 10
410.515532
 20
991.799255
 30
0.0
 11
410.332012
 21
991.85405
 31
0.0
  0
LINE
  5
13FC
100
AcDbEntity
  8
10000_FRONT
370
    25
390
0
  6
CONTINUOUS
 62
     7
100
AcDbLine
 10
410.332012
 20
991.85405
 30
0.0
 11
410.15077
 21
991.917267
 31
0.0
  0
LINE
  5
13FD
100
AcDbEntity
  8
10000_FRONT
370
    25
390
0
  6
CONTINUOUS
 62
     7
100
AcDbLine
 10
410.15077
 20
991.917267
 30
0.0
 11
409.97249
 21
991.988754
 31
0.0
  0
LINE
  5
13FE
100
AcDbEntity
  8
10000_FRONT
370
    25
390
0
  6
CONTINUOUS
 62
     7
100
AcDbLine
 10
409.97249
 20
991.988754
 30
0.0
 11
409.797734
 21
992.068375
 31
0.0
  0
LINE
  5
13FF
100
AcDbEntity
  8
10000_FRONT
370
    25
390
0
  6
CONTINUOUS
 62
     7
100
AcDbLine
 10
409.797734
 20
992.068375
 30
0.0
 11
409.62705
 21
992.155731
 31
0.0
  0
LINE
  5
1400
100
AcDbEntity
  8
10000_FRONT
370
    25
390
0
  6
CONTINUOUS
 62
     7
100
AcDbLine
 10
409.62705
 20
992.155731
 30
0.0
 11
409.461016
 21
992.250443
 31
0.0
  0
LINE
  5
1401
100
AcDbEntity
  8
10000_FRONT
370
    25
390
0
  6
CONTINUOUS
 62
     7
100
AcDbLine
 10
409.461016
 20
992.250443
 30
0.0
 11
409.300208
 21
992.352097
 31
0.0
  0
LINE
  5
1402
100
AcDbEntity
  8
10000_FRONT
370
    25
390
0
  6
CONTINUOUS
 62
     7
100
AcDbLine
 10
409.300208
 20
992.352097
 30
0.0
 11
409.145183
 21
992.460281
 31
0.0
  0
LINE
  5
1403
100
AcDbEntity
  8
10000_FRONT
370
    25
390
0
  6
CONTINUOUS
 62
     7
100
AcDbLine
 10
409.145183
 20
992.460281
 30
0.0
 11
408.996379
 21
992.574371
 31
0.0
  0
LINE
  5
1404
100
AcDbEntity
  8
10000_FRONT
370
    25
390
0
  6
CONTINUOUS
 62
     7
100
AcDbLine
 10
408.996379
 20
992.574371
 30
0.0
 11
408.854193
 21
992.693726
 31
0.0
  0
LINE
  5
1405
100
AcDbEntity
  8
10000_FRONT
370
    25
390
0
  6
CONTINUOUS
 62
     7
100
AcDbLine
 10
408.854193
 20
992.693726
 30
0.0
 11
408.719016
 21
992.817657
 31
0.0
  0
LINE
  5
1406
100
AcDbEntity
  8
10000_FRONT
370
    25
390
0
  6
CONTINUOUS
 62
     7
100
AcDbLine
 10
408.719016
 20
992.817657
 30
0.0
 11
408.590738
 21
992.946014
 31
0.0
  0
LINE
  5
1407
100
AcDbEntity
  8
10000_FRONT
370
    25
390
0
  6
CONTINUOUS
 62
     7
100
AcDbLine
 10
408.590738
 20
992.946014
 30
0.0
 11
408.466891
 21
993.081284
 31
0.0
  0
LINE
  5
1408
100
AcDbEntity
  8
10000_FRONT
370
    25
390
0
  6
CONTINUOUS
 62
     7
100
AcDbLine
 10
408.466891
 20
993.081284
 30
0.0
 11
408.347651
 21
993.223526
 31
0.0
  0
LINE
  5
1409
100
AcDbEntity
  8
10000_FRONT
370
    25
390
0
  6
CONTINUOUS
 62
     7
100
AcDbLine
 10
408.347651
 20
993.223526
 30
0.0
 11
408.233683
 21
993.37236
 31
0.0
  0
LINE
  5
140A
100
AcDbEntity
  8
10000_FRONT
370
    25
390
0
  6
CONTINUOUS
 62
     7
100
AcDbLine
 10
408.233683
 20
993.37236
 30
0.0
 11
408.125651
 21
993.52739
 31
0.0
  0
LINE
  5
140B
100
AcDbEntity
  8
10000_FRONT
370
    25
390
0
  6
CONTINUOUS
 62
     7
100
AcDbLine
 10
408.125651
 20
993.52739
 30
0.0
 11
408.024149
 21
993.688171
 31
0.0
  0
LINE
  5
140C
100
AcDbEntity
  8
10000_FRONT
370
    25
390
0
  6
CONTINUOUS
 62
     7
100
AcDbLine
 10
408.024149
 20
993.688171
 30
0.0
 11
407.929602
 21
993.854156
 31
0.0
  0
LINE
  5
140D
100
AcDbEntity
  8
10000_FRONT
370
    25
390
0
  6
CONTINUOUS
 62
     7
100
AcDbLine
 10
407.929602
 20
993.854156
 30
0.0
 11
407.842405
 21
994.02475
 31
0.0
  0
LINE
  5
140E
100
AcDbEntity
  8
10000_FRONT
370
    25
390
0
  6
CONTINUOUS
 62
     7
100
AcDbLine
 10
407.842405
 20
994.02475
 30
0.0
 11
407.76295
 21
994.199387
 31
0.0
  0
LINE
  5
140F
100
AcDbEntity
  8
10000_FRONT
370
    25
390
0
  6
CONTINUOUS
 62
     7
100
AcDbLine
 10
407.76295
 20
994.199387
 30
0.0
 11
407.691602
 21
994.377533
 31
0.0
  0
LINE
  5
1410
100
AcDbEntity
  8
10000_FRONT
370
    25
390
0
  6
CONTINUOUS
 62
     7
100
AcDbLine
 10
407.691602
 20
994.377533
 30
0.0
 11
407.628533
 21
994.558609
 31
0.0
  0
LINE
  5
1411
100
AcDbEntity
  8
10000_FRONT
370
    25
390
0
  6
CONTINUOUS
 62
     7
100
AcDbLine
 10
407.628533
 20
994.558609
 30
0.0
 11
407.573867
 21
994.741959
 31
0.0
  0
LINE
  5
1412
100
AcDbEntity
  8
10000_FRONT
370
    25
390
0
  6
CONTINUOUS
 62
     7
100
AcDbLine
 10
407.573867
 20
994.741959
 30
0.0
 11
407.52773
 21
994.926849
 31
0.0
  0
LINE
  5
1413
100
AcDbEntity
  8
10000_FRONT
370
    25
390
0
  6
CONTINUOUS
 62
     7
100
AcDbLine
 10
407.52773
 20
994.926849
 30
0.0
 11
407.490246
 21
995.11264
 31
0.0
  0
LINE
  5
1414
100
AcDbEntity
  8
10000_FRONT
370
    25
390
0
  6
CONTINUOUS
 62
     7
100
AcDbLine
 10
407.490246
 20
995.11264
 30
0.0
 11
407.461415
 21
995.298584
 31
0.0
  0
LINE
  5
1415
100
AcDbEntity
  8
10000_FRONT
370
    25
390
0
  6
CONTINUOUS
 62
     7
100
AcDbLine
 10
407.461415
 20
995.298584
 30
0.0
 11
407.441059
 21
995.483963
 31
0.0
  0
LINE
  5
1416
100
AcDbEntity
  8
10000_FRONT
370
    25
390
0
  6
CONTINUOUS
 62
     7
100
AcDbLine
 10
407.441059
 20
995.483963
 30
0.0
 11
407.428987
 21
995.668015
 31
0.0
  0
LINE
  5
1417
100
AcDbEntity
  8
10000_FRONT
370
    25
390
0
  6
CONTINUOUS
 62
     7
100
AcDbLine
 10
407.428987
 20
995.668015
 30
0.0
 11
407.425005
 21
995.850006
 31
0.0
  0
LINE
  5
1418
100
AcDbEntity
  8
10000_FRONT
370
    25
390
0
  6
CONTINUOUS
 62
     7
100
AcDbLine
 10
466.925004
 20
1090.25
 30
0.0
 11
421.925005
 21
1090.25
 31
0.0
  0
LINE
  5
1419
100
AcDbEntity
  8
10000_FRONT
370
    25
390
0
  6
CONTINUOUS
 62
     7
100
AcDbLine
 10
421.925005
 20
1113.15
 30
0.0
 11
466.925004
 21
1113.15
 31
0.0
  0
LINE
  5
141A
100
AcDbEntity
  8
10000_FRONT
370
    25
390
0
  6
CONTINUOUS
 62
     7
100
AcDbLine
 10
466.925004
 20
1113.15
 30
0.0
 11
466.925004
 21
1106.25
 31
0.0
  0
LINE
  5
141B
100
AcDbEntity
  8
10000_FRONT
370
    25
390
0
  6
CONTINUOUS
 62
     7
100
AcDbLine
 10
466.925004
 20
1090.450001
 30
0.0
 11
466.925004
 21
1090.25
 31
0.0
  0
LINE
  5
141C
100
AcDbEntity
  8
10000_FRONT
370
    25
390
0
  6
CONTINUOUS
 62
     7
100
AcDbLine
 10
421.925005
 20
1090.25
 30
0.0
 11
421.925005
 21
1113.15
 31
0.0
  0
LINE
  5
141D
100
AcDbEntity
  8
10000_FRONT
370
    25
390
0
  6
CONTINUOUS
 62
     7
100
AcDbLine
 10
499.625005
 20
1113.15
 30
0.0
 11
466.925004
 21
1113.15
 31
0.0
  0
LINE
  5
141E
100
AcDbEntity
  8
10000_FRONT
370
    25
390
0
  6
CONTINUOUS
 62
     7
100
AcDbLine
 10
421.925005
 20
1113.15
 30
0.0
 11
417.125005
 21
1113.15
 31
0.0
  0
LINE
  5
141F
100
AcDbEntity
  8
10000_FRONT
370
    25
390
0
  6
CONTINUOUS
 62
     7
100
AcDbLine
 10
417.125005
 20
1113.15
 30
0.0
 11
417.125005
 21
1106.25
 31
0.0
  0
LINE
  5
1420
100
AcDbEntity
  8
10000_FRONT
370
    25
390
0
  6
CONTINUOUS
 62
     7
100
AcDbLine
 10
417.125005
 20
1090.450001
 30
0.0
 11
417.125005
 21
1090.25
 31
0.0
  0
LINE
  5
1421
100
AcDbEntity
  8
10000_FRONT
370
    25
390
0
  6
CONTINUOUS
 62
     7
100
AcDbLine
 10
417.125005
 20
1090.25
 30
0.0
 11
372.125005
 21
1090.25
 31
0.0
  0
LINE
  5
1422
100
AcDbEntity
  8
10000_FRONT
370
    25
390
0
  6
CONTINUOUS
 62
     7
100
AcDbLine
 10
372.125005
 20
1090.25
 30
0.0
 11
372.125005
 21
1113.15
 31
0.0
  0
LINE
  5
1423
100
AcDbEntity
  8
10000_FRONT
370
    25
390
0
  6
CONTINUOUS
 62
     7
100
AcDbLine
 10
372.125005
 20
1113.15
 30
0.0
 11
339.625005
 21
1113.15
 31
0.0
  0
LINE
  5
1424
100
AcDbEntity
  8
10000_FRONT
370
    25
390
0
  6
CONTINUOUS
 62
     7
100
AcDbLine
 10
339.625005
 20
1113.15
 30
0.0
 11
339.625005
 21
1085.249992
 31
0.0
  0
LINE
  5
1425
100
AcDbEntity
  8
10000_FRONT
370
    25
390
0
  6
CONTINUOUS
 62
     7
100
AcDbLine
 10
499.625005
 20
1085.249992
 30
0.0
 11
339.625005
 21
1085.249992
 31
0.0
  0
LINE
  5
1426
100
AcDbEntity
  8
10000_FRONT
370
    25
390
0
  6
CONTINUOUS
 62
     7
100
AcDbLine
 10
372.125005
 20
1113.15
 30
0.0
 11
417.125005
 21
1113.15
 31
0.0
  0
LINE
  5
1427
100
AcDbEntity
  8
10000_FRONT
370
    25
390
0
  6
CONTINUOUS
 62
     7
100
AcDbLine
 10
339.625005
 20
975.25
 30
0.0
 11
339.625005
 21
1085.249992
 31
0.0
  0
LINE
  5
1428
100
AcDbEntity
  8
10000_FRONT
370
    25
390
0
  6
CONTINUOUS
 62
     7
100
AcDbLine
 10
499.625005
 20
975.25
 30
0.0
 11
339.625005
 21
975.25
 31
0.0
  0
LINE
  5
1429
100
AcDbEntity
  8
10000_FRONT
370
    25
390
0
  6
CONTINUOUS
 62
     7
100
AcDbLine
 10
339.625005
 20
975.25
 30
0.0
 11
339.625005
 21
947.349991
 31
0.0
  0
LINE
  5
142A
100
AcDbEntity
  8
10000_FRONT
370
    25
390
0
  6
CONTINUOUS
 62
     7
100
AcDbLine
 10
499.625005
 20
947.349991
 30
0.0
 11
339.625005
 21
947.349991
 31
0.0
  0
LINE
  5
142B
100
AcDbEntity
  8
10000_FRONT
370
    25
390
0
  6
CONTINUOUS
 62
     7
100
AcDbLine
 10
480.125005
 20
947.25
 30
0.0
 11
480.125005
 21
918.25
 31
0.0
  0
LINE
  5
142C
100
AcDbEntity
  8
10000_FRONT
370
    25
390
0
  6
CONTINUOUS
 62
     7
100
AcDbLine
 10
455.125005
 20
947.25
 30
0.0
 11
480.125005
 21
947.25
 31
0.0
  0
LINE
  5
142D
100
AcDbEntity
  8
10000_FRONT
370
    25
390
0
  6
CONTINUOUS
 62
     7
100
AcDbLine
 10
455.125005
 20
918.25
 30
0.0
 11
455.125005
 21
947.25
 31
0.0
  0
LINE
  5
142E
100
AcDbEntity
  8
10000_FRONT
370
    25
390
0
  6
CONTINUOUS
 62
     7
100
AcDbLine
 10
458.125005
 20
915.25
 30
0.0
 11
455.125005
 21
918.25
 31
0.0
  0
LINE
  5
142F
100
AcDbEntity
  8
10000_FRONT
370
    25
390
0
  6
CONTINUOUS
 62
     7
100
AcDbLine
 10
477.125005
 20
915.25
 30
0.0
 11
458.125005
 21
915.25
 31
0.0
  0
LINE
  5
1430
100
AcDbEntity
  8
10000_FRONT
370
    25
390
0
  6
CONTINUOUS
 62
     7
100
AcDbLine
 10
480.125005
 20
918.25
 30
0.0
 11
477.125005
 21
915.25
 31
0.0
  0
ARC
  5
1431
100
AcDbEntity
  8
10000_FRONT
370
    25
390
0
  6
CONTINUOUS
 62
     7
100
AcDbCircle
 10
467.625005
 20
927.75
 30
0.0
 40
5.5
100
AcDbArc
 50
180.0
 51
0.0
  0
ARC
  5
1432
100
AcDbEntity
  8
10000_FRONT
370
    25
390
0
  6
CONTINUOUS
 62
     7
100
AcDbCircle
 10
467.625005
 20
927.75
 30
0.0
 40
5.5
100
AcDbArc
 50
0.0
 51
180.0
  0
LINE
  5
1433
100
AcDbEntity
  8
10000_FRONT
370
    25
390
0
  6
CONTINUOUS
 62
     7
100
AcDbLine
 10
432.125005
 20
947.25
 30
0.0
 11
432.125005
 21
918.25
 31
0.0
  0
LINE
  5
1434
100
AcDbEntity
  8
10000_FRONT
370
    25
390
0
  6
CONTINUOUS
 62
     7
100
AcDbLine
 10
407.125005
 20
947.25
 30
0.0
 11
432.125005
 21
947.25
 31
0.0
  0
LINE
  5
1435
100
AcDbEntity
  8
10000_FRONT
370
    25
390
0
  6
CONTINUOUS
 62
     7
100
AcDbLine
 10
407.125005
 20
918.25
 30
0.0
 11
407.125005
 21
947.25
 31
0.0
  0
LINE
  5
1436
100
AcDbEntity
  8
10000_FRONT
370
    25
390
0
  6
CONTINUOUS
 62
     7
100
AcDbLine
 10
410.125005
 20
915.25
 30
0.0
 11
407.125005
 21
918.25
 31
0.0
  0
LINE
  5
1437
100
AcDbEntity
  8
10000_FRONT
370
    25
390
0
  6
CONTINUOUS
 62
     7
100
AcDbLine
 10
429.125005
 20
915.25
 30
0.0
 11
410.125005
 21
915.25
 31
0.0
  0
LINE
  5
1438
100
AcDbEntity
  8
10000_FRONT
370
    25
390
0
  6
CONTINUOUS
 62
     7
100
AcDbLine
 10
432.125005
 20
918.25
 30
0.0
 11
429.125005
 21
915.25
 31
0.0
  0
ARC
  5
1439
100
AcDbEntity
  8
10000_FRONT
370
    25
390
0
  6
CONTINUOUS
 62
     7
100
AcDbCircle
 10
419.625005
 20
927.75
 30
0.0
 40
5.5
100
AcDbArc
 50
180.0
 51
0.0
  0
ARC
  5
143A
100
AcDbEntity
  8
10000_FRONT
370
    25
390
0
  6
CONTINUOUS
 62
     7
100
AcDbCircle
 10
419.625005
 20
927.75
 30
0.0
 40
5.5
100
AcDbArc
 50
0.0
 51
180.0
  0
LINE
  5
143B
100
AcDbEntity
  8
10000_FRONT
370
    25
390
0
  6
CONTINUOUS
 62
     7
100
AcDbLine
 10
384.125005
 20
947.25
 30
0.0
 11
384.125005
 21
918.25
 31
0.0
  0
LINE
  5
143C
100
AcDbEntity
  8
10000_FRONT
370
    25
390
0
  6
CONTINUOUS
 62
     7
100
AcDbLine
 10
359.125005
 20
947.25
 30
0.0
 11
384.125005
 21
947.25
 31
0.0
  0
LINE
  5
143D
100
AcDbEntity
  8
10000_FRONT
370
    25
390
0
  6
CONTINUOUS
 62
     7
100
AcDbLine
 10
359.125005
 20
918.25
 30
0.0
 11
359.125005
 21
947.25
 31
0.0
  0
LINE
  5
143E
100
AcDbEntity
  8
10000_FRONT
370
    25
390
0
  6
CONTINUOUS
 62
     7
100
AcDbLine
 10
362.125005
 20
915.25
 30
0.0
 11
359.125005
 21
918.25
 31
0.0
  0
LINE
  5
143F
100
AcDbEntity
  8
10000_FRONT
370
    25
390
0
  6
CONTINUOUS
 62
     7
100
AcDbLine
 10
381.125005
 20
915.25
 30
0.0
 11
362.125005
 21
915.25
 31
0.0
  0
LINE
  5
1440
100
AcDbEntity
  8
10000_FRONT
370
    25
390
0
  6
CONTINUOUS
 62
     7
100
AcDbLine
 10
384.125005
 20
918.25
 30
0.0
 11
381.125005
 21
915.25
 31
0.0
  0
ARC
  5
1441
100
AcDbEntity
  8
10000_FRONT
370
    25
390
0
  6
CONTINUOUS
 62
     7
100
AcDbCircle
 10
371.625005
 20
927.75
 30
0.0
 40
5.5
100
AcDbArc
 50
180.0
 51
0.0
  0
ARC
  5
1442
100
AcDbEntity
  8
10000_FRONT
370
    25
390
0
  6
CONTINUOUS
 62
     7
100
AcDbCircle
 10
371.625005
 20
927.75
 30
0.0
 40
5.5
100
AcDbArc
 50
0.0
 51
180.0
  0
LINE
  5
1443
100
AcDbEntity
  8
10000_FRONT
370
    25
390
0
  6
CONTINUOUS
 62
     7
100
AcDbLine
 10
455.125005
 20
1113.25
 30
0.0
 11
455.125005
 21
1142.25
 31
0.0
  0
LINE
  5
1444
100
AcDbEntity
  8
10000_FRONT
370
    25
390
0
  6
CONTINUOUS
 62
     7
100
AcDbLine
 10
480.125005
 20
1142.25
 30
0.0
 11
480.125005
 21
1113.25
 31
0.0
  0
LINE
  5
1445
100
AcDbEntity
  8
10000_FRONT
370
    25
390
0
  6
CONTINUOUS
 62
     7
100
AcDbLine
 10
477.125005
 20
1145.25
 30
0.0
 11
480.125005
 21
1142.25
 31
0.0
  0
LINE
  5
1446
100
AcDbEntity
  8
10000_FRONT
370
    25
390
0
  6
CONTINUOUS
 62
     7
100
AcDbLine
 10
458.125005
 20
1145.25
 30
0.0
 11
477.125005
 21
1145.25
 31
0.0
  0
LINE
  5
1447
100
AcDbEntity
  8
10000_FRONT
370
    25
390
0
  6
CONTINUOUS
 62
     7
100
AcDbLine
 10
455.125005
 20
1142.25
 30
0.0
 11
458.125005
 21
1145.25
 31
0.0
  0
ARC
  5
1448
100
AcDbEntity
  8
10000_FRONT
370
    25
390
0
  6
CONTINUOUS
 62
     7
100
AcDbCircle
 10
467.625005
 20
1132.75
 30
0.0
 40
5.5
100
AcDbArc
 50
0.0
 51
180.0
  0
ARC
  5
1449
100
AcDbEntity
  8
10000_FRONT
370
    25
390
0
  6
CONTINUOUS
 62
     7
100
AcDbCircle
 10
467.625005
 20
1132.75
 30
0.0
 40
5.5
100
AcDbArc
 50
180.0
 51
0.0
  0
LINE
  5
144A
100
AcDbEntity
  8
10000_FRONT
370
    25
390
0
  6
CONTINUOUS
 62
     7
100
AcDbLine
 10
407.125005
 20
1113.25
 30
0.0
 11
407.125005
 21
1142.25
 31
0.0
  0
LINE
  5
144B
100
AcDbEntity
  8
10000_FRONT
370
    25
390
0
  6
CONTINUOUS
 62
     7
100
AcDbLine
 10
432.125005
 20
1142.25
 30
0.0
 11
432.125005
 21
1113.25
 31
0.0
  0
LINE
  5
144C
100
AcDbEntity
  8
10000_FRONT
370
    25
390
0
  6
CONTINUOUS
 62
     7
100
AcDbLine
 10
429.125005
 20
1145.25
 30
0.0
 11
432.125005
 21
1142.25
 31
0.0
  0
LINE
  5
144D
100
AcDbEntity
  8
10000_FRONT
370
    25
390
0
  6
CONTINUOUS
 62
     7
100
AcDbLine
 10
410.125005
 20
1145.25
 30
0.0
 11
429.125005
 21
1145.25
 31
0.0
  0
LINE
  5
144E
100
AcDbEntity
  8
10000_FRONT
370
    25
390
0
  6
CONTINUOUS
 62
     7
100
AcDbLine
 10
407.125005
 20
1142.25
 30
0.0
 11
410.125005
 21
1145.25
 31
0.0
  0
ARC
  5
144F
100
AcDbEntity
  8
10000_FRONT
370
    25
390
0
  6
CONTINUOUS
 62
     7
100
AcDbCircle
 10
419.625005
 20
1132.75
 30
0.0
 40
5.5
100
AcDbArc
 50
0.0
 51
180.0
  0
ARC
  5
1450
100
AcDbEntity
  8
10000_FRONT
370
    25
390
0
  6
CONTINUOUS
 62
     7
100
AcDbCircle
 10
419.625005
 20
1132.75
 30
0.0
 40
5.5
100
AcDbArc
 50
180.0
 51
0.0
  0
LINE
  5
1451
100
AcDbEntity
  8
10000_FRONT
370
    25
390
0
  6
CONTINUOUS
 62
     7
100
AcDbLine
 10
359.125005
 20
1113.25
 30
0.0
 11
359.125005
 21
1142.25
 31
0.0
  0
LINE
  5
1452
100
AcDbEntity
  8
10000_FRONT
370
    25
390
0
  6
CONTINUOUS
 62
     7
100
AcDbLine
 10
384.125005
 20
1142.25
 30
0.0
 11
384.125005
 21
1113.25
 31
0.0
  0
LINE
  5
1453
100
AcDbEntity
  8
10000_FRONT
370
    25
390
0
  6
CONTINUOUS
 62
     7
100
AcDbLine
 10
381.125005
 20
1145.25
 30
0.0
 11
384.125005
 21
1142.25
 31
0.0
  0
LINE
  5
1454
100
AcDbEntity
  8
10000_FRONT
370
    25
390
0
  6
CONTINUOUS
 62
     7
100
AcDbLine
 10
362.125005
 20
1145.25
 30
0.0
 11
381.125005
 21
1145.25
 31
0.0
  0
LINE
  5
1455
100
AcDbEntity
  8
10000_FRONT
370
    25
390
0
  6
CONTINUOUS
 62
     7
100
AcDbLine
 10
359.125005
 20
1142.25
 30
0.0
 11
362.125005
 21
1145.25
 31
0.0
  0
ARC
  5
1456
100
AcDbEntity
  8
10000_FRONT
370
    25
390
0
  6
CONTINUOUS
 62
     7
100
AcDbCircle
 10
371.625005
 20
1132.75
 30
0.0
 40
5.5
100
AcDbArc
 50
0.0
 51
180.0
  0
ARC
  5
1457
100
AcDbEntity
  8
10000_FRONT
370
    25
390
0
  6
CONTINUOUS
 62
     7
100
AcDbCircle
 10
371.625005
 20
1132.75
 30
0.0
 40
5.5
100
AcDbArc
 50
180.0
 51
0.0
  0
LINE
  5
1458
100
AcDbEntity
  8
10000_FRONT
370
    25
390
0
  6
CONTINUOUS
 62
     7
100
AcDbLine
 10
499.625005
 20
947.25
 30
0.0
 11
499.625005
 21
947.350021
 31
0.0
  0
LINE
  5
1459
100
AcDbEntity
  8
10000_FRONT
370
    25
390
0
  6
CONTINUOUS
 62
     7
100
AcDbLine
 10
499.625005
 20
1113.150024
 30
0.0
 11
499.625005
 21
1113.250008
 31
0.0
  0
LINE
  5
145A
100
AcDbEntity
  8
10000_FRONT
370
    25
390
0
  6
CONTINUOUS
 62
     7
100
AcDbLine
 10
499.625005
 20
925.25
 30
0.0
 11
499.625005
 21
947.25
 31
0.0
  0
LINE
  5
145B
100
AcDbEntity
  8
10000_FRONT
370
    25
390
0
  6
CONTINUOUS
 62
     7
100
AcDbLine
 10
499.625005
 20
1113.250008
 30
0.0
 11
499.625005
 21
1135.25
 31
0.0
  0
ARC
  5
145C
100
AcDbEntity
  8
10000_FRONT
370
    25
390
0
  6
CONTINUOUS
 62
     7
100
AcDbCircle
 10
489.625005
 20
1125.25
 30
0.0
 40
4.5
100
AcDbArc
 50
180.0
 51
0.0
  0
ARC
  5
145D
100
AcDbEntity
  8
10000_FRONT
370
    25
390
0
  6
CONTINUOUS
 62
     7
100
AcDbCircle
 10
349.625005
 20
1125.25
 30
0.0
 40
4.5
100
AcDbArc
 50
180.0
 51
0.0
  0
LINE
  5
145E
100
AcDbEntity
  8
10000_FRONT
370
    25
390
0
  6
CONTINUOUS
 62
     7
100
AcDbLine
 10
345.125005
 20
925.25
 30
0.0
 11
345.125005
 21
935.25
 31
0.0
  0
ARC
  5
145F
100
AcDbEntity
  8
10000_FRONT
370
    25
390
0
  6
CONTINUOUS
 62
     7
100
AcDbCircle
 10
349.625005
 20
935.25
 30
0.0
 40
4.5
100
AcDbArc
 50
0.0
 51
180.0
  0
LINE
  5
1460
100
AcDbEntity
  8
10000_FRONT
370
    25
390
0
  6
CONTINUOUS
 62
     7
100
AcDbLine
 10
354.125005
 20
935.25
 30
0.0
 11
354.125005
 21
925.25
 31
0.0
  0
LINE
  5
1461
100
AcDbEntity
  8
10000_FRONT
370
    25
390
0
  6
CONTINUOUS
 62
     7
100
AcDbLine
 10
339.625005
 20
925.25
 30
0.0
 11
345.125005
 21
925.25
 31
0.0
  0
LINE
  5
1462
100
AcDbEntity
  8
10000_FRONT
370
    25
390
0
  6
CONTINUOUS
 62
     7
100
AcDbLine
 10
354.125005
 20
925.25
 30
0.0
 11
359.125116
 21
925.25
 31
0.0
  0
LINE
  5
1463
100
AcDbEntity
  8
10000_FRONT
370
    25
390
0
  6
CONTINUOUS
 62
     7
100
AcDbLine
 10
366.726011
 20
925.25
 30
0.0
 11
376.523931
 21
925.25
 31
0.0
  0
LINE
  5
1464
100
AcDbEntity
  8
10000_FRONT
370
    25
390
0
  6
CONTINUOUS
 62
     7
100
AcDbLine
 10
384.125116
 20
925.25
 30
0.0
 11
407.125115
 21
925.25
 31
0.0
  0
LINE
  5
1465
100
AcDbEntity
  8
10000_FRONT
370
    25
390
0
  6
CONTINUOUS
 62
     7
100
AcDbLine
 10
414.726012
 20
925.25
 30
0.0
 11
424.523929
 21
925.25
 31
0.0
  0
LINE
  5
1466
100
AcDbEntity
  8
10000_FRONT
370
    25
390
0
  6
CONTINUOUS
 62
     7
100
AcDbLine
 10
432.125115
 20
925.25
 30
0.0
 11
455.125116
 21
925.25
 31
0.0
  0
LINE
  5
1467
100
AcDbEntity
  8
10000_FRONT
370
    25
390
0
  6
CONTINUOUS
 62
     7
100
AcDbLine
 10
462.726011
 20
925.25
 30
0.0
 11
472.523931
 21
925.25
 31
0.0
  0
LINE
  5
1468
100
AcDbEntity
  8
10000_FRONT
370
    25
390
0
  6
CONTINUOUS
 62
     7
100
AcDbLine
 10
480.125116
 20
925.25
 30
0.0
 11
485.125005
 21
925.25
 31
0.0
  0
LINE
  5
1469
100
AcDbEntity
  8
10000_FRONT
370
    25
390
0
  6
CONTINUOUS
 62
     7
100
AcDbLine
 10
485.125005
 20
925.25
 30
0.0
 11
485.125005
 21
935.25
 31
0.0
  0
ARC
  5
146A
100
AcDbEntity
  8
10000_FRONT
370
    25
390
0
  6
CONTINUOUS
 62
     7
100
AcDbCircle
 10
489.625005
 20
935.25
 30
0.0
 40
4.5
100
AcDbArc
 50
0.0
 51
180.0
  0
LINE
  5
146B
100
AcDbEntity
  8
10000_FRONT
370
    25
390
0
  6
CONTINUOUS
 62
     7
100
AcDbLine
 10
494.125005
 20
935.25
 30
0.0
 11
494.125005
 21
925.25
 31
0.0
  0
LINE
  5
146C
100
AcDbEntity
  8
10000_FRONT
370
    25
390
0
  6
CONTINUOUS
 62
     7
100
AcDbLine
 10
494.125005
 20
925.25
 30
0.0
 11
499.625005
 21
925.25
 31
0.0
  0
LINE
  5
146D
100
AcDbEntity
  8
10000_FRONT
370
    25
390
0
  6
CONTINUOUS
 62
     7
100
AcDbLine
 10
339.625005
 20
947.25
 30
0.0
 11
339.625005
 21
925.25
 31
0.0
  0
ARC
  5
146E
100
AcDbEntity
  8
10000_FRONT
370
    25
390
0
  6
CONTINUOUS
 62
     7
100
AcDbCircle
 10
349.625005
 20
1125.25
 30
0.0
 40
4.5
100
AcDbArc
 50
0.0
 51
180.0
  0
ARC
  5
146F
100
AcDbEntity
  8
10000_FRONT
370
    25
390
0
  6
CONTINUOUS
 62
     7
100
AcDbCircle
 10
489.625005
 20
1125.25
 30
0.0
 40
4.5
100
AcDbArc
 50
0.0
 51
180.0
  0
LINE
  5
1470
100
AcDbEntity
  8
10000_FRONT
370
    25
390
0
  6
CONTINUOUS
 62
     7
100
AcDbLine
 10
472.52403
 20
1135.25
 30
0.0
 11
462.726041
 21
1135.25
 31
0.0
  0
LINE
  5
1471
100
AcDbEntity
  8
10000_FRONT
370
    25
390
0
  6
CONTINUOUS
 62
     7
100
AcDbLine
 10
455.125036
 20
1135.25
 30
0.0
 11
432.125036
 21
1135.25
 31
0.0
  0
LINE
  5
1472
100
AcDbEntity
  8
10000_FRONT
370
    25
390
0
  6
CONTINUOUS
 62
     7
100
AcDbLine
 10
424.524031
 20
1135.25
 30
0.0
 11
414.726041
 21
1135.25
 31
0.0
  0
LINE
  5
1473
100
AcDbEntity
  8
10000_FRONT
370
    25
390
0
  6
CONTINUOUS
 62
     7
100
AcDbLine
 10
407.125036
 20
1135.25
 30
0.0
 11
384.125036
 21
1135.25
 31
0.0
  0
LINE
  5
1474
100
AcDbEntity
  8
10000_FRONT
370
    25
390
0
  6
CONTINUOUS
 62
     7
100
AcDbLine
 10
376.52403
 20
1135.25
 30
0.0
 11
366.726041
 21
1135.25
 31
0.0
  0
LINE
  5
1475
100
AcDbEntity
  8
10000_FRONT
370
    25
390
0
  6
CONTINUOUS
 62
     7
100
AcDbLine
 10
339.625005
 20
1135.25
 30
0.0
 11
359.125116
 21
1135.25
 31
0.0
  0
LINE
  5
1476
100
AcDbEntity
  8
10000_FRONT
370
    25
390
0
  6
CONTINUOUS
 62
     7
100
AcDbLine
 10
480.125116
 20
1135.25
 30
0.0
 11
499.625005
 21
1135.25
 31
0.0
  0
LINE
  5
1477
100
AcDbEntity
  8
10000_FRONT
370
    25
390
0
  6
CONTINUOUS
 62
     7
100
AcDbLine
 10
339.625005
 20
1135.25
 30
0.0
 11
339.625005
 21
1113.250008
 31
0.0
  0
LINE
  5
1478
100
AcDbEntity
  8
10000_FRONT
370
    25
390
0
  6
CONTINUOUS
 62
     7
100
AcDbLine
 10
358.175004
 20
947.25
 30
0.0
 11
358.175004
 21
925.75
 31
0.0
  0
LINE
  5
1479
100
AcDbEntity
  8
10000_FRONT
370
    25
390
0
  6
CONTINUOUS
 62
     7
100
AcDbLine
 10
358.175004
 20
925.75
 30
0.0
 11
359.125036
 21
925.75
 31
0.0
  0
LINE
  5
147A
100
AcDbEntity
  8
10000_FRONT
370
    25
390
0
  6
CONTINUOUS
 62
     7
100
AcDbLine
 10
366.501573
 20
925.75
 30
0.0
 11
376.748498
 21
925.75
 31
0.0
  0
LINE
  5
147B
100
AcDbEntity
  8
10000_FRONT
370
    25
390
0
  6
CONTINUOUS
 62
     7
100
AcDbLine
 10
384.125036
 20
925.75
 30
0.0
 11
407.125036
 21
925.75
 31
0.0
  0
LINE
  5
147C
100
AcDbEntity
  8
10000_FRONT
370
    25
390
0
  6
CONTINUOUS
 62
     7
100
AcDbLine
 10
414.501572
 20
925.75
 30
0.0
 11
424.748499
 21
925.75
 31
0.0
  0
LINE
  5
147D
100
AcDbEntity
  8
10000_FRONT
370
    25
390
0
  6
CONTINUOUS
 62
     7
100
AcDbLine
 10
432.125036
 20
925.75
 30
0.0
 11
455.125036
 21
925.75
 31
0.0
  0
LINE
  5
147E
100
AcDbEntity
  8
10000_FRONT
370
    25
390
0
  6
CONTINUOUS
 62
     7
100
AcDbLine
 10
462.501573
 20
925.75
 30
0.0
 11
472.748498
 21
925.75
 31
0.0
  0
LINE
  5
147F
100
AcDbEntity
  8
10000_FRONT
370
    25
390
0
  6
CONTINUOUS
 62
     7
100
AcDbLine
 10
480.125036
 20
925.75
 30
0.0
 11
481.075006
 21
925.75
 31
0.0
  0
LINE
  5
1480
100
AcDbEntity
  8
10000_FRONT
370
    25
390
0
  6
CONTINUOUS
 62
     7
100
AcDbLine
 10
481.075006
 20
947.25
 30
0.0
 11
481.075006
 21
925.75
 31
0.0
  0
LINE
  5
1481
100
AcDbEntity
  8
10000_FRONT
370
    25
390
0
  6
CONTINUOUS
 62
     7
100
AcDbLine
 10
339.625005
 20
947.25
 30
0.0
 11
499.625005
 21
947.25
 31
0.0
  0
LINE
  5
1482
100
AcDbEntity
  8
10000_FRONT
370
    25
390
0
  6
CONTINUOUS
 62
     7
100
AcDbLine
 10
339.625005
 20
1113.250008
 30
0.0
 11
499.625005
 21
1113.250008
 31
0.0
  0
LINE
  5
1483
100
AcDbEntity
  8
10000_FRONT
370
    25
390
0
  6
CONTINUOUS
 62
     7
100
AcDbLine
 10
339.625005
 20
1113.250008
 30
0.0
 11
339.625005
 21
947.25
 31
0.0
  0
LINE
  5
1484
100
AcDbEntity
  8
10100_FRONT_DIM
370
    13
390
0
  6
CONTINUOUS
 62
     7
100
AcDbLine
 10
362.624995
 20
915.24999
 30
0.0
 11
302.624995
 21
915.24999
 31
0.0
  0
TEXT
  5
1485
100
AcDbEntity
  8
10100_FRONT_DIM
370
    13
390
0
  6
CONTINUOUS
 62
     7
100
AcDbText
 10
302.624995
 20
1025.24999
 30
0.0
 40
4.0
  1
230
 50
90.0
 51
360.0
 72
     1
 11
302.624995
 21
1030.24999
 31
0.0
100
AcDbText
  0
LINE
  5
1486
100
AcDbEntity
  8
10100_FRONT_DIM
370
    13
390
0
  6
CONTINUOUS
 62
     7
100
AcDbLine
 10
304.624995
 20
915.24999
 30
0.0
 11
304.624995
 21
1145.24999
 31
0.0
  0
LINE
  5
1487
100
AcDbEntity
  8
10100_FRONT_DIM
370
    13
390
0
  6
CONTINUOUS
 62
     7
100
AcDbLine
 10
302.624995
 20
1145.24999
 30
0.0
 11
362.624995
 21
1145.24999
 31
0.0
  0
LINE
  5
1488
100
AcDbEntity
  8
10100_FRONT_DIM
370
    13
390
0
  6
CONTINUOUS
 62
     7
100
AcDbLine
 10
339.624995
 20
925.25
 30
0.0
 11
318.624995
 21
925.25
 31
0.0
  0
TEXT
  5
1489
100
AcDbEntity
  8
10100_FRONT_DIM
370
    13
390
0
  6
CONTINUOUS
 62
     7
100
AcDbText
 10
318.624995
 20
1025.916667
 30
0.0
 40
4.0
  1
210
 50
90.0
 51
360.0
 72
     1
 11
318.624995
 21
1030.25
 31
0.0
100
AcDbText
  0
LINE
  5
148A
100
AcDbEntity
  8
10100_FRONT_DIM
370
    13
390
0
  6
CONTINUOUS
 62
     7
100
AcDbLine
 10
320.624995
 20
925.25
 30
0.0
 11
320.624995
 21
1135.25
 31
0.0
  0
LINE
  5
148B
100
AcDbEntity
  8
10100_FRONT_DIM
370
    13
390
0
  6
CONTINUOUS
 62
     7
100
AcDbLine
 10
318.624995
 20
1135.25
 30
0.0
 11
339.624995
 21
1135.25
 31
0.0
  0
LINE
  5
148C
100
AcDbEntity
  8
10100_FRONT_DIM
370
    13
390
0
  6
CONTINUOUS
 62
     7
100
AcDbLine
 10
339.624995
 20
1136.75001
 30
0.0
 11
339.624995
 21
1166.25001
 31
0.0
  0
TEXT
  5
148D
100
AcDbEntity
  8
10100_FRONT_DIM
370
    13
390
0
  6
CONTINUOUS
 62
     7
100
AcDbText
 10
415.291662
 20
1166.25001
 30
0.0
 40
4.0
  1
160
 72
     1
 11
419.624995
 21
1166.25001
 31
0.0
100
AcDbText
  0
LINE
  5
148E
100
AcDbEntity
  8
10100_FRONT_DIM
370
    13
390
0
  6
CONTINUOUS
 62
     7
100
AcDbLine
 10
339.624995
 20
1164.25001
 30
0.0
 11
499.624995
 21
1164.25001
 31
0.0
  0
LINE
  5
148F
100
AcDbEntity
  8
10100_FRONT_DIM
370
    13
390
0
  6
CONTINUOUS
 62
     7
100
AcDbLine
 10
499.624995
 20
1166.25001
 30
0.0
 11
499.624995
 21
1136.75001
 31
0.0
  0
SOLID
  5
1490
100
AcDbEntity
  8
10100_FRONT_DIM
370
    13
390
0
  6
CONTINUOUS
 62
     7
100
AcDbTrace
 10
302.624995
 20
925.24999
 30
0.0
 11
304.624995
 21
915.24999
 31
0.0
 12
306.624995
 22
925.24999
 32
0.0
 13
304.624995
 23
915.24999
 33
0.0
  0
SOLID
  5
1491
100
AcDbEntity
  8
10100_FRONT_DIM
370
    13
390
0
  6
CONTINUOUS
 62
     7
100
AcDbTrace
 10
306.624995
 20
1135.24999
 30
0.0
 11
304.624995
 21
1145.24999
 31
0.0
 12
302.624995
 22
1135.24999
 32
0.0
 13
304.624995
 23
1145.24999
 33
0.0
  0
SOLID
  5
1492
100
AcDbEntity
  8
10100_FRONT_DIM
370
    13
390
0
  6
CONTINUOUS
 62
     7
100
AcDbTrace
 10
318.624995
 20
935.25
 30
0.0
 11
320.624995
 21
925.25
 31
0.0
 12
322.624995
 22
935.25
 32
0.0
 13
320.624995
 23
925.25
 33
0.0
  0
SOLID
  5
1493
100
AcDbEntity
  8
10100_FRONT_DIM
370
    13
390
0
  6
CONTINUOUS
 62
     7
100
AcDbTrace
 10
322.624995
 20
1125.25
 30
0.0
 11
320.624995
 21
1135.25
 31
0.0
 12
318.624995
 22
1125.25
 32
0.0
 13
320.624995
 23
1135.25
 33
0.0
  0
SOLID
  5
1494
100
AcDbEntity
  8
10100_FRONT_DIM
370
    13
390
0
  6
CONTINUOUS
 62
     7
100
AcDbTrace
 10
349.624995
 20
1166.25001
 30
0.0
 11
339.624995
 21
1164.25001
 31
0.0
 12
349.624995
 22
1162.25001
 32
0.0
 13
339.624995
 23
1164.25001
 33
0.0
  0
SOLID
  5
1495
100
AcDbEntity
  8
10100_FRONT_DIM
370
    13
390
0
  6
CONTINUOUS
 62
     7
100
AcDbTrace
 10
489.624995
 20
1162.25001
 30
0.0
 11
499.624995
 21
1164.25001
 31
0.0
 12
489.624995
 22
1166.25001
 32
0.0
 13
499.624995
 23
1164.25001
 33
0.0
  0
LINE
  5
1496
100
AcDbEntity
  8
11000_LEFT
370
    25
390
0
  6
CONTINUOUS
 62
     7
100
AcDbLine
 10
903.175023
 20
1106.25
 30
0.0
 11
903.375005
 21
1106.25
 31
0.0
  0
LINE
  5
1497
100
AcDbEntity
  8
11000_LEFT
370
    25
390
0
  6
CONTINUOUS
 62
     7
100
AcDbLine
 10
903.375005
 20
1090.450001
 30
0.0
 11
903.175023
 21
1090.450001
 31
0.0
  0
LINE
  5
1498
100
AcDbEntity
  8
11000_LEFT
370
    25
390
0
  6
CONTINUOUS
 62
     7
100
AcDbLine
 10
903.375005
 20
1106.25
 30
0.0
 11
903.375005
 21
1090.450001
 31
0.0
  0
ARC
  5
1499
100
AcDbEntity
  8
11000_LEFT
370
    25
390
0
  6
CONTINUOUS
 62
     7
100
AcDbCircle
 10
908.875005
 20
1024.25
 30
0.0
 40
0.5
100
AcDbArc
 50
314.999382
 51
0.0
  0
ARC
  5
149A
100
AcDbEntity
  8
11000_LEFT
370
    25
390
0
  6
CONTINUOUS
 62
     7
100
AcDbCircle
 10
908.875005
 20
1024.25
 30
0.0
 40
0.5
100
AcDbArc
 50
270.0
 51
314.999382
  0
LINE
  5
149B
100
AcDbEntity
  8
11000_LEFT
370
    25
390
0
  6
CONTINUOUS
 62
     7
100
AcDbLine
 10
908.875005
 20
1024.25
 30
0.0
 11
909.228551
 21
1023.896446
 31
0.0
  0
LINE
  5
149C
100
AcDbEntity
  8
11000_LEFT
370
    25
390
0
  6
CONTINUOUS
 62
     7
100
AcDbLine
 10
909.375005
 20
1024.25
 30
0.0
 11
909.375005
 21
1030.25
 31
0.0
  0
ARC
  5
149D
100
AcDbEntity
  8
11000_LEFT
370
    25
390
0
  6
CONTINUOUS
 62
     7
100
AcDbCircle
 10
908.875005
 20
1030.25
 30
0.0
 40
0.5
100
AcDbArc
 50
0.0
 51
45.000618
  0
LINE
  5
149E
100
AcDbEntity
  8
11000_LEFT
370
    25
390
0
  6
CONTINUOUS
 62
     7
100
AcDbLine
 10
908.875005
 20
1030.25
 30
0.0
 11
909.228551
 21
1030.603554
 31
0.0
  0
LINE
  5
149F
100
AcDbEntity
  8
11000_LEFT
370
    25
390
0
  6
CONTINUOUS
 62
     7
100
AcDbLine
 10
908.875005
 20
1024.25
 30
0.0
 11
908.875005
 21
1030.25
 31
0.0
  0
ARC
  5
14A0
100
AcDbEntity
  8
11000_LEFT
370
    25
390
0
  6
CONTINUOUS
 62
     7
100
AcDbCircle
 10
908.875005
 20
1030.25
 30
0.0
 40
0.5
100
AcDbArc
 50
45.000618
 51
90.0
  0
LINE
  5
14A1
100
AcDbEntity
  8
11000_LEFT
370
    25
390
0
  6
CONTINUOUS
 62
     7
100
AcDbLine
 10
905.50971
 20
1023.75
 30
0.0
 11
908.875005
 21
1023.75
 31
0.0
  0
LINE
  5
14A2
100
AcDbEntity
  8
11000_LEFT
370
    25
390
0
  6
CONTINUOUS
 62
     7
100
AcDbLine
 10
905.514592
 20
1024.25
 30
0.0
 11
908.875005
 21
1024.25
 31
0.0
  0
LINE
  5
14A3
100
AcDbEntity
  8
11000_LEFT
370
    25
390
0
  6
CONTINUOUS
 62
     7
100
AcDbLine
 10
905.54273
 20
1030.25
 30
0.0
 11
908.875005
 21
1030.25
 31
0.0
  0
LINE
  5
14A4
100
AcDbEntity
  8
11000_LEFT
370
    25
390
0
  6
CONTINUOUS
 62
     7
100
AcDbLine
 10
905.542516
 20
1030.75
 30
0.0
 11
908.875005
 21
1030.75
 31
0.0
  0
LINE
  5
14A5
100
AcDbEntity
  8
11000_LEFT
370
    25
390
0
  6
CONTINUOUS
 62
     7
100
AcDbLine
 10
903.175023
 20
1113.15
 30
0.0
 11
903.175023
 21
1085.249992
 31
0.0
  0
ARC
  5
14A6
100
AcDbEntity
  8
11000_LEFT
370
    25
390
0
  6
CONTINUOUS
 62
     7
100
AcDbCircle
 10
265.542673
 20
1030.249993
 30
0.0
 40
640.0
100
AcDbArc
 50
355.070064
 51
4.929937
  0
LINE
  5
14A7
100
AcDbEntity
  8
11000_LEFT
370
    25
390
0
  6
CONTINUOUS
 62
     7
100
AcDbLine
 10
903.175023
 20
975.25
 30
0.0
 11
903.175023
 21
947.349991
 31
0.0
  0
LINE
  5
14A8
100
AcDbEntity
  8
11000_LEFT
370
    25
390
0
  6
CONTINUOUS
 62
     7
100
AcDbLine
 10
903.175023
 20
947.349991
 30
0.0
 11
869.575002
 21
947.349991
 31
0.0
  0
LINE
  5
14A9
100
AcDbEntity
  8
11000_LEFT
370
    25
390
0
  6
CONTINUOUS
 62
     7
100
AcDbLine
 10
869.575002
 20
947.349991
 30
0.0
 11
869.575002
 21
1113.15
 31
0.0
  0
LINE
  5
14AA
100
AcDbEntity
  8
11000_LEFT
370
    25
390
0
  6
CONTINUOUS
 62
     7
100
AcDbLine
 10
869.575002
 20
1113.15
 30
0.0
 11
903.175023
 21
1113.15
 31
0.0
  0
LINE
  5
14AB
100
AcDbEntity
  8
11000_LEFT
370
    25
390
0
  6
CONTINUOUS
 62
     7
100
AcDbLine
 10
792.075002
 20
918.25
 30
0.0
 11
792.075032
 21
918.25
 31
0.0
  0
LINE
  5
14AC
100
AcDbEntity
  8
11000_LEFT
370
    25
390
0
  6
CONTINUOUS
 62
     7
100
AcDbLine
 10
792.075002
 20
918.25
 30
0.0
 11
792.075032
 21
918.25
 31
0.0
  0
LINE
  5
14AD
100
AcDbEntity
  8
11000_LEFT
370
    25
390
0
  6
CONTINUOUS
 62
     7
100
AcDbLine
 10
798.075002
 20
918.25
 30
0.0
 11
798.075002
 21
947.25
 31
0.0
  0
LINE
  5
14AE
100
AcDbEntity
  8
11000_LEFT
370
    25
390
0
  6
CONTINUOUS
 62
     7
100
AcDbLine
 10
798.075002
 20
915.25
 30
0.0
 11
798.075002
 21
918.25
 31
0.0
  0
LINE
  5
14AF
100
AcDbEntity
  8
11000_LEFT
370
    25
390
0
  6
CONTINUOUS
 62
     7
100
AcDbLine
 10
792.075002
 20
947.25
 30
0.0
 11
798.075002
 21
947.25
 31
0.0
  0
LINE
  5
14B0
100
AcDbEntity
  8
11000_LEFT
370
    25
390
0
  6
CONTINUOUS
 62
     7
100
AcDbLine
 10
792.075002
 20
915.25
 30
0.0
 11
798.075002
 21
915.25
 31
0.0
  0
LINE
  5
14B1
100
AcDbEntity
  8
11000_LEFT
370
    25
390
0
  6
CONTINUOUS
 62
     7
100
AcDbLine
 10
792.075002
 20
918.25
 30
0.0
 11
798.075002
 21
918.25
 31
0.0
  0
LINE
  5
14B2
100
AcDbEntity
  8
11000_LEFT
370
    25
390
0
  6
CONTINUOUS
 62
     7
100
AcDbLine
 10
792.075002
 20
918.25
 30
0.0
 11
792.075002
 21
915.25
 31
0.0
  0
LINE
  5
14B3
100
AcDbEntity
  8
11000_LEFT
370
    25
390
0
  6
CONTINUOUS
 62
     7
100
AcDbLine
 10
792.075002
 20
947.25
 30
0.0
 11
792.075002
 21
918.25
 31
0.0
  0
LINE
  5
14B4
100
AcDbEntity
  8
11000_LEFT
370
    25
390
0
  6
CONTINUOUS
 62
     7
100
AcDbLine
 10
792.075002
 20
1142.25
 30
0.0
 11
792.075032
 21
1142.25
 31
0.0
  0
LINE
  5
14B5
100
AcDbEntity
  8
11000_LEFT
370
    25
390
0
  6
CONTINUOUS
 62
     7
100
AcDbLine
 10
792.075002
 20
1142.25
 30
0.0
 11
792.075032
 21
1142.25
 31
0.0
  0
LINE
  5
14B6
100
AcDbEntity
  8
11000_LEFT
370
    25
390
0
  6
CONTINUOUS
 62
     7
100
AcDbLine
 10
798.075002
 20
1113.25
 30
0.0
 11
798.075002
 21
1142.25
 31
0.0
  0
LINE
  5
14B7
100
AcDbEntity
  8
11000_LEFT
370
    25
390
0
  6
CONTINUOUS
 62
     7
100
AcDbLine
 10
798.075002
 20
1142.25
 30
0.0
 11
798.075002
 21
1145.25
 31
0.0
  0
LINE
  5
14B8
100
AcDbEntity
  8
11000_LEFT
370
    25
390
0
  6
CONTINUOUS
 62
     7
100
AcDbLine
 10
792.075002
 20
1142.25
 30
0.0
 11
798.075002
 21
1142.25
 31
0.0
  0
LINE
  5
14B9
100
AcDbEntity
  8
11000_LEFT
370
    25
390
0
  6
CONTINUOUS
 62
     7
100
AcDbLine
 10
792.075002
 20
1142.25
 30
0.0
 11
792.075002
 21
1113.25
 31
0.0
  0
LINE
  5
14BA
100
AcDbEntity
  8
11000_LEFT
370
    25
390
0
  6
CONTINUOUS
 62
     7
100
AcDbLine
 10
792.075002
 20
1145.25
 30
0.0
 11
798.075002
 21
1145.25
 31
0.0
  0
LINE
  5
14BB
100
AcDbEntity
  8
11000_LEFT
370
    25
390
0
  6
CONTINUOUS
 62
     7
100
AcDbLine
 10
792.075002
 20
1145.25
 30
0.0
 11
792.075002
 21
1142.25
 31
0.0
  0
LINE
  5
14BC
100
AcDbEntity
  8
11000_LEFT
370
    25
390
0
  6
CONTINUOUS
 62
     7
100
AcDbLine
 10
631.375005
 20
935.25
 30
0.0
 11
631.375015
 21
935.25
 31
0.0
  0
LINE
  5
14BD
100
AcDbEntity
  8
11000_LEFT
370
    25
390
0
  6
CONTINUOUS
 62
     7
100
AcDbLine
 10
643.875005
 20
947.25
 30
0.0
 11
643.875005
 21
925.25
 31
0.0
  0
LINE
  5
14BE
100
AcDbEntity
  8
11000_LEFT
370
    25
390
0
  6
CONTINUOUS
 62
     7
100
AcDbLine
 10
631.375005
 20
935.25
 30
0.0
 11
631.375105
 21
935.25
 31
0.0
  0
LINE
  5
14BF
100
AcDbEntity
  8
11000_LEFT
370
    25
390
0
  6
CONTINUOUS
 62
     7
100
AcDbLine
 10
643.875005
 20
925.25
 30
0.0
 11
631.375005
 21
925.25
 31
0.0
  0
LINE
  5
14C0
100
AcDbEntity
  8
11000_LEFT
370
    25
390
0
  6
CONTINUOUS
 62
     7
100
AcDbLine
 10
631.375005
 20
925.25
 30
0.0
 11
631.375005
 21
1135.25
 31
0.0
  0
LINE
  5
14C1
100
AcDbEntity
  8
11000_LEFT
370
    25
390
0
  6
CONTINUOUS
 62
     7
100
AcDbLine
 10
754.675008
 20
1135.25
 30
0.0
 11
643.875005
 21
1135.25
 31
0.0
  0
LINE
  5
14C2
100
AcDbEntity
  8
11000_LEFT
370
    25
390
0
  6
CONTINUOUS
 62
     7
100
AcDbLine
 10
754.675008
 20
1113.250008
 30
0.0
 11
754.675008
 21
1135.25
 31
0.0
  0
LINE
  5
14C3
100
AcDbEntity
  8
11000_LEFT
370
    25
390
0
  6
CONTINUOUS
 62
     7
100
AcDbLine
 10
631.375005
 20
1135.25
 30
0.0
 11
643.875005
 21
1135.25
 31
0.0
  0
LINE
  5
14C4
100
AcDbEntity
  8
11000_LEFT
370
    25
390
0
  6
CONTINUOUS
 62
     7
100
AcDbLine
 10
643.875005
 20
1135.25
 30
0.0
 11
643.875005
 21
1113.250008
 31
0.0
  0
LINE
  5
14C5
100
AcDbEntity
  8
11000_LEFT
370
    25
390
0
  6
CONTINUOUS
 62
     7
100
AcDbLine
 10
643.875005
 20
925.75
 30
0.0
 11
745.575002
 21
925.75
 31
0.0
  0
LINE
  5
14C6
100
AcDbEntity
  8
11000_LEFT
370
    25
390
0
  6
CONTINUOUS
 62
     7
100
AcDbLine
 10
745.575002
 20
947.25
 30
0.0
 11
745.575002
 21
925.75
 31
0.0
  0
LINE
  5
14C7
100
AcDbEntity
  8
11000_LEFT
370
    25
390
0
  6
CONTINUOUS
 62
     7
100
AcDbLine
 10
745.575002
 20
925.75
 30
0.0
 11
755.075002
 21
925.75
 31
0.0
  0
LINE
  5
14C8
100
AcDbEntity
  8
11000_LEFT
370
    25
390
0
  6
CONTINUOUS
 62
     7
100
AcDbLine
 10
755.075002
 20
947.25
 30
0.0
 11
755.075002
 21
925.75
 31
0.0
  0
LINE
  5
14C9
100
AcDbEntity
  8
11000_LEFT
370
    25
390
0
  6
CONTINUOUS
 62
     7
100
AcDbLine
 10
869.575002
 20
947.25
 30
0.0
 11
643.875005
 21
947.25
 31
0.0
  0
LINE
  5
14CA
100
AcDbEntity
  8
11000_LEFT
370
    25
390
0
  6
CONTINUOUS
 62
     7
100
AcDbLine
 10
869.575002
 20
1113.250008
 30
0.0
 11
869.575002
 21
947.25
 31
0.0
  0
LINE
  5
14CB
100
AcDbEntity
  8
11000_LEFT
370
    25
390
0
  6
CONTINUOUS
 62
     7
100
AcDbLine
 10
643.875005
 20
1113.250008
 30
0.0
 11
869.575002
 21
1113.250008
 31
0.0
  0
LINE
  5
14CC
100
AcDbEntity
  8
11100_LEFT_DIM
370
    13
390
0
  6
CONTINUOUS
 62
     7
100
AcDbLine
 10
631.375005
 20
925.24999
 30
0.0
 11
631.375005
 21
878.24999
 31
0.0
  0
TEXT
  5
14CD
100
AcDbEntity
  8
11100_LEFT_DIM
370
    13
390
0
  6
CONTINUOUS
 62
     7
100
AcDbText
 10
710.058338
 20
882.24999
 30
0.0
 40
4.0
  1
167
 72
     1
 11
714.725005
 21
882.24999
 31
0.0
100
AcDbText
  0
LINE
  5
14CE
100
AcDbEntity
  8
11100_LEFT_DIM
370
    13
390
0
  6
CONTINUOUS
 62
     7
100
AcDbLine
 10
631.375005
 20
880.24999
 30
0.0
 11
798.075005
 21
880.24999
 31
0.0
  0
LINE
  5
14CF
100
AcDbEntity
  8
11100_LEFT_DIM
370
    13
390
0
  6
CONTINUOUS
 62
     7
100
AcDbLine
 10
798.075005
 20
878.24999
 30
0.0
 11
798.075005
 21
915.24999
 31
0.0
  0
LINE
  5
14D0
100
AcDbEntity
  8
11100_LEFT_DIM
370
    13
390
0
  6
CONTINUOUS
 62
     7
100
AcDbLine
 10
631.375005
 20
915.24999
 30
0.0
 11
631.375005
 21
862.24999
 31
0.0
  0
TEXT
  5
14D1
100
AcDbEntity
  8
11100_LEFT_DIM
370
    13
390
0
  6
CONTINUOUS
 62
     7
100
AcDbText
 10
765.041672
 20
866.24999
 30
0.0
 40
4.0
  1
278
 72
     1
 11
770.375005
 21
866.24999
 31
0.0
100
AcDbText
  0
LINE
  5
14D2
100
AcDbEntity
  8
11100_LEFT_DIM
370
    13
390
0
  6
CONTINUOUS
 62
     7
100
AcDbLine
 10
631.375005
 20
864.24999
 30
0.0
 11
909.375005
 21
864.24999
 31
0.0
  0
LINE
  5
14D3
100
AcDbEntity
  8
11100_LEFT_DIM
370
    13
390
0
  6
CONTINUOUS
 62
     7
100
AcDbLine
 10
909.375005
 20
862.24999
 30
0.0
 11
909.375005
 21
1027.24999
 31
0.0
  0
LINE
  5
14D4
100
AcDbEntity
  8
11100_LEFT_DIM
370
    13
390
0
  6
CONTINUOUS
 62
     7
100
AcDbLine
 10
631.375005
 20
925.24999
 30
0.0
 11
631.375005
 21
894.24999
 31
0.0
  0
TEXT
  5
14D5
100
AcDbEntity
  8
11100_LEFT_DIM
370
    13
390
0
  6
CONTINUOUS
 62
     7
100
AcDbText
 10
603.833338
 20
898.24999
 30
0.0
 40
4.0
  1
167
 72
     1
 11
608.500005
 21
898.24999
 31
0.0
100
AcDbText
  0
LINE
  5
14D6
100
AcDbEntity
  8
11100_LEFT_DIM
370
    13
390
0
  6
CONTINUOUS
 62
     7
100
AcDbLine
 10
600.625005
 20
896.24999
 30
0.0
 11
658.875005
 21
896.24999
 31
0.0
  0
LINE
  5
14D7
100
AcDbEntity
  8
11100_LEFT_DIM
370
    13
390
0
  6
CONTINUOUS
 62
     7
100
AcDbLine
 10
643.875005
 20
894.24999
 30
0.0
 11
643.875005
 21
925.24999
 31
0.0
  0
SOLID
  5
14D8
100
AcDbEntity
  8
11100_LEFT_DIM
370
    13
390
0
  6
CONTINUOUS
 62
     7
100
AcDbTrace
 10
641.375005
 20
882.24999
 30
0.0
 11
631.375005
 21
880.24999
 31
0.0
 12
641.375005
 22
878.24999
 32
0.0
 13
631.375005
 23
880.24999
 33
0.0
  0
SOLID
  5
14D9
100
AcDbEntity
  8
11100_LEFT_DIM
370
    13
390
0
  6
CONTINUOUS
 62
     7
100
AcDbTrace
 10
788.075005
 20
878.24999
 30
0.0
 11
798.075005
 21
880.24999
 31
0.0
 12
788.075005
 22
882.24999
 32
0.0
 13
798.075005
 23
880.24999
 33
0.0
  0
SOLID
  5
14DA
100
AcDbEntity
  8
11100_LEFT_DIM
370
    13
390
0
  6
CONTINUOUS
 62
     7
100
AcDbTrace
 10
641.375005
 20
866.24999
 30
0.0
 11
631.375005
 21
864.24999
 31
0.0
 12
641.375005
 22
862.24999
 32
0.0
 13
631.375005
 23
864.24999
 33
0.0
  0
SOLID
  5
14DB
100
AcDbEntity
  8
11100_LEFT_DIM
370
    13
390
0
  6
CONTINUOUS
 62
     7
100
AcDbTrace
 10
899.375005
 20
862.24999
 30
0.0
 11
909.375005
 21
864.24999
 31
0.0
 12
899.375005
 22
866.24999
 32
0.0
 13
909.375005
 23
864.24999
 33
0.0
  0
SOLID
  5
14DC
100
AcDbEntity
  8
11100_LEFT_DIM
370
    13
390
0
  6
CONTINUOUS
 62
     7
100
AcDbTrace
 10
621.375005
 20
894.24999
 30
0.0
 11
631.375005
 21
896.24999
 31
0.0
 12
621.375005
 22
898.24999
 32
0.0
 13
631.375005
 23
896.24999
 33
0.0
  0
SOLID
  5
14DD
100
AcDbEntity
  8
11100_LEFT_DIM
370
    13
390
0
  6
CONTINUOUS
 62
     7
100
AcDbTrace
 10
653.875005
 20
898.24999
 30
0.0
 11
643.875005
 21
896.24999
 31
0.0
 12
653.875005
 22
894.24999
 32
0.0
 13
643.875005
 23
896.24999
 33
0.0
  0
CIRCLE
  5
14DE
100
AcDbEntity
  8
15000_BACK
370
    25
390
0
  6
CENTER
 62
     7
100
AcDbCircle
 10
349.625005
 20
747.24999
 30
0.0
 40
4.5
  0
LINE
  5
14DF
100
AcDbEntity
  8
15000_BACK
370
    25
390
0
  6
CENTER
 62
     7
100
AcDbLine
 10
339.625005
 20
757.24999
 30
0.0
 11
499.625005
 21
757.24999
 31
0.0
  0
LINE
  5
14E0
100
AcDbEntity
  8
15000_BACK
370
    25
390
0
  6
CENTER
 62
     7
100
AcDbLine
 10
499.625005
 20
757.24999
 30
0.0
 11
499.625005
 21
547.24999
 31
0.0
  0
LINE
  5
14E1
100
AcDbEntity
  8
15000_BACK
370
    25
390
0
  6
CENTER
 62
     7
100
AcDbLine
 10
499.625005
 20
547.24999
 30
0.0
 11
494.125005
 21
547.24999
 31
0.0
  0
LINE
  5
14E2
100
AcDbEntity
  8
15000_BACK
370
    25
390
0
  6
CENTER
 62
     7
100
AcDbLine
 10
494.125005
 20
547.24999
 30
0.0
 11
494.125005
 21
557.24999
 31
0.0
  0
ARC
  5
14E3
100
AcDbEntity
  8
15000_BACK
370
    25
390
0
  6
CENTER
 62
     7
100
AcDbCircle
 10
489.625005
 20
557.24999
 30
0.0
 40
4.5
100
AcDbArc
 50
0.0
 51
180.0
  0
LINE
  5
14E4
100
AcDbEntity
  8
15000_BACK
370
    25
390
0
  6
CENTER
 62
     7
100
AcDbLine
 10
485.125005
 20
557.24999
 30
0.0
 11
485.125005
 21
547.24999
 31
0.0
  0
LINE
  5
14E5
100
AcDbEntity
  8
15000_BACK
370
    25
390
0
  6
CENTER
 62
     7
100
AcDbLine
 10
485.125005
 20
547.24999
 30
0.0
 11
354.125005
 21
547.24999
 31
0.0
  0
LINE
  5
14E6
100
AcDbEntity
  8
15000_BACK
370
    25
390
0
  6
CENTER
 62
     7
100
AcDbLine
 10
354.125005
 20
547.24999
 30
0.0
 11
354.125005
 21
557.24999
 31
0.0
  0
ARC
  5
14E7
100
AcDbEntity
  8
15000_BACK
370
    25
390
0
  6
CENTER
 62
     7
100
AcDbCircle
 10
349.625005
 20
557.24999
 30
0.0
 40
4.5
100
AcDbArc
 50
0.0
 51
180.0
  0
LINE
  5
14E8
100
AcDbEntity
  8
15000_BACK
370
    25
390
0
  6
CENTER
 62
     7
100
AcDbLine
 10
345.125005
 20
557.24999
 30
0.0
 11
345.125005
 21
547.24999
 31
0.0
  0
LINE
  5
14E9
100
AcDbEntity
  8
15000_BACK
370
    25
390
0
  6
CENTER
 62
     7
100
AcDbLine
 10
345.125005
 20
547.24999
 30
0.0
 11
339.625005
 21
547.24999
 31
0.0
  0
LINE
  5
14EA
100
AcDbEntity
  8
15000_BACK
370
    25
390
0
  6
CENTER
 62
     7
100
AcDbLine
 10
339.625005
 20
547.24999
 30
0.0
 11
339.625005
 21
757.24999
 31
0.0
  0
CIRCLE
  5
14EB
100
AcDbEntity
  8
15000_BACK
370
    25
390
0
  6
CENTER
 62
     7
100
AcDbCircle
 10
489.625005
 20
747.24999
 30
0.0
 40
4.5
  0
LINE
  5
14EC
100
AcDbEntity
  8
15100_BACK_DIM
370
    13
390
0
  6
CONTINUOUS
 62
     7
100
AcDbLine
 10
339.625005
 20
757.24999
 30
0.0
 11
339.625005
 21
778.24999
 31
0.0
  0
TEXT
  5
14ED
100
AcDbEntity
  8
15100_BACK_DIM
370
    13
390
0
  6
CONTINUOUS
 62
     7
100
AcDbText
 10
317.041672
 20
778.24999
 30
0.0
 40
4.0
  1
10
 72
     1
 11
319.375005
 21
778.24999
 31
0.0
100
AcDbText
  0
LINE
  5
14EE
100
AcDbEntity
  8
15100_BACK_DIM
370
    13
390
0
  6
CONTINUOUS
 62
     7
100
AcDbLine
 10
314.125005
 20
776.24999
 30
0.0
 11
364.625005
 21
776.24999
 31
0.0
  0
LINE
  5
14EF
100
AcDbEntity
  8
15100_BACK_DIM
370
    13
390
0
  6
CONTINUOUS
 62
     7
100
AcDbLine
 10
349.625005
 20
778.24999
 30
0.0
 11
349.625005
 21
747.24999
 31
0.0
  0
LINE
  5
14F0
100
AcDbEntity
  8
15100_BACK_DIM
370
    13
390
0
  6
CONTINUOUS
 62
     7
100
AcDbLine
 10
349.625005
 20
757.24999
 30
0.0
 11
349.625005
 21
778.24999
 31
0.0
  0
TEXT
  5
14F1
100
AcDbEntity
  8
15100_BACK_DIM
370
    13
390
0
  6
CONTINUOUS
 62
     7
100
AcDbText
 10
415.291672
 20
778.24999
 30
0.0
 40
4.0
  1
140
 72
     1
 11
419.625005
 21
778.24999
 31
0.0
100
AcDbText
  0
LINE
  5
14F2
100
AcDbEntity
  8
15100_BACK_DIM
370
    13
390
0
  6
CONTINUOUS
 62
     7
100
AcDbLine
 10
349.625005
 20
776.24999
 30
0.0
 11
489.625005
 21
776.24999
 31
0.0
  0
LINE
  5
14F3
100
AcDbEntity
  8
15100_BACK_DIM
370
    13
390
0
  6
CONTINUOUS
 62
     7
100
AcDbLine
 10
489.625005
 20
778.24999
 30
0.0
 11
489.625005
 21
747.24999
 31
0.0
  0
LINE
  5
14F4
100
AcDbEntity
  8
15100_BACK_DIM
370
    13
390
0
  6
CONTINUOUS
 62
     7
100
AcDbLine
 10
349.625005
 20
747.24999
 30
0.0
 11
318.625005
 21
747.24999
 31
0.0
  0
TEXT
  5
14F5
100
AcDbEntity
  8
15100_BACK_DIM
370
    13
390
0
  6
CONTINUOUS
 62
     7
100
AcDbText
 10
318.625005
 20
724.666657
 30
0.0
 40
4.0
  1
10
 50
90.0
 51
360.0
 72
     1
 11
318.625005
 21
726.99999
 31
0.0
100
AcDbText
  0
LINE
  5
14F6
100
AcDbEntity
  8
15100_BACK_DIM
370
    13
390
0
  6
CONTINUOUS
 62
     7
100
AcDbLine
 10
320.625005
 20
721.74999
 30
0.0
 11
320.625005
 21
772.24999
 31
0.0
  0
LINE
  5
14F7
100
AcDbEntity
  8
15100_BACK_DIM
370
    13
390
0
  6
CONTINUOUS
 62
     7
100
AcDbLine
 10
318.625005
 20
757.24999
 30
0.0
 11
339.625005
 21
757.24999
 31
0.0
  0
LINE
  5
14F8
100
AcDbEntity
  8
15100_BACK_DIM
370
    13
390
0
  6
CONTINUOUS
 62
     7
100
AcDbLine
 10
489.625005
 20
557.24999
 30
0.0
 11
520.625005
 21
557.24999
 31
0.0
  0
TEXT
  5
14F9
100
AcDbEntity
  8
15100_BACK_DIM
370
    13
390
0
  6
CONTINUOUS
 62
     7
100
AcDbText
 10
516.625005
 20
647.916657
 30
0.0
 40
4.0
  1
190
 50
90.0
 51
360.0
 72
     1
 11
516.625005
 21
652.24999
 31
0.0
100
AcDbText
  0
LINE
  5
14FA
100
AcDbEntity
  8
15100_BACK_DIM
370
    13
390
0
  6
CONTINUOUS
 62
     7
100
AcDbLine
 10
518.625005
 20
557.24999
 30
0.0
 11
518.625005
 21
747.24999
 31
0.0
  0
LINE
  5
14FB
100
AcDbEntity
  8
15100_BACK_DIM
370
    13
390
0
  6
CONTINUOUS
 62
     7
100
AcDbLine
 10
520.625005
 20
747.24999
 30
0.0
 11
489.625005
 21
747.24999
 31
0.0
  0
LINE
  5
14FC
100
AcDbEntity
  8
15100_BACK_DIM
370
    13
390
0
  6
CONTINUOUS
 62
     7
100
AcDbLine
 10
499.625005
 20
547.24999
 30
0.0
 11
520.625005
 21
547.24999
 31
0.0
  0
TEXT
  5
14FD
100
AcDbEntity
  8
15100_BACK_DIM
370
    13
390
0
  6
CONTINUOUS
 62
     7
100
AcDbText
 10
516.625005
 20
524.666657
 30
0.0
 40
4.0
  1
10
 50
90.0
 51
360.0
 72
     1
 11
516.625005
 21
526.99999
 31
0.0
100
AcDbText
  0
LINE
  5
14FE
100
AcDbEntity
  8
15100_BACK_DIM
370
    13
390
0
  6
CONTINUOUS
 62
     7
100
AcDbLine
 10
518.625005
 20
521.74999
 30
0.0
 11
518.625005
 21
572.24999
 31
0.0
  0
LINE
  5
14FF
100
AcDbEntity
  8
15100_BACK_DIM
370
    13
390
0
  6
CONTINUOUS
 62
     7
100
AcDbLine
 10
520.625005
 20
557.24999
 30
0.0
 11
489.625005
 21
557.24999
 31
0.0
  0
LINE
  5
1500
100
AcDbEntity
  8
15100_BACK_DIM
370
    13
390
0
  6
CONTINUOUS
 62
     7
100
AcDbLine
 10
489.625005
 20
747.24999
 30
0.0
 11
479.625005
 21
727.24999
 31
0.0
  0
TEXT
  5
1501
100
AcDbEntity
  8
15100_BACK_DIM
370
    13
390
0
  6
CONTINUOUS
 62
     7
100
AcDbText
 10
479.625005
 20
720.24999
 30
0.0
 40
4.0
  1
9
100
AcDbText
  0
CIRCLE
  5
1502
100
AcDbEntity
  8
15100_BACK_DIM
370
    13
390
0
  6
CONTINUOUS
 62
     7
100
AcDbCircle
 10
476.825005
 20
721.12499
 30
0.0
 40
1.75
  0
LINE
  5
1503
100
AcDbEntity
  8
15100_BACK_DIM
370
    13
390
0
  6
CONTINUOUS
 62
     7
100
AcDbLine
 10
475.075005
 20
719.37499
 30
0.0
 11
478.575005
 21
722.87499
 31
0.0
  0
LINE
  5
1504
100
AcDbEntity
  8
15100_BACK_DIM
370
    13
390
0
  6
CONTINUOUS
 62
     7
100
AcDbLine
 10
489.625005
 20
557.24999
 30
0.0
 11
479.625005
 21
577.24999
 31
0.0
  0
TEXT
  5
1505
100
AcDbEntity
  8
15100_BACK_DIM
370
    13
390
0
  6
CONTINUOUS
 62
     7
100
AcDbText
 10
479.625005
 20
577.24999
 30
0.0
 40
4.0
  1
9
100
AcDbText
  0
CIRCLE
  5
1506
100
AcDbEntity
  8
15100_BACK_DIM
370
    13
390
0
  6
CONTINUOUS
 62
     7
100
AcDbCircle
 10
476.825005
 20
578.12499
 30
0.0
 40
1.75
  0
LINE
  5
1507
100
AcDbEntity
  8
15100_BACK_DIM
370
    13
390
0
  6
CONTINUOUS
 62
     7
100
AcDbLine
 10
475.075005
 20
576.37499
 30
0.0
 11
478.575005
 21
579.87499
 31
0.0
  0
SOLID
  5
1508
100
AcDbEntity
  8
15100_BACK_DIM
370
    13
390
0
  6
CONTINUOUS
 62
     7
100
AcDbTrace
 10
329.625005
 20
774.24999
 30
0.0
 11
339.625005
 21
776.24999
 31
0.0
 12
329.625005
 22
778.24999
 32
0.0
 13
339.625005
 23
776.24999
 33
0.0
  0
SOLID
  5
1509
100
AcDbEntity
  8
15100_BACK_DIM
370
    13
390
0
  6
CONTINUOUS
 62
     7
100
AcDbTrace
 10
359.625005
 20
778.24999
 30
0.0
 11
349.625005
 21
776.24999
 31
0.0
 12
359.625005
 22
774.24999
 32
0.0
 13
349.625005
 23
776.24999
 33
0.0
  0
LINE
  5
150A
100
AcDbEntity
  8
15100_BACK_DIM
370
    13
390
0
  6
CONTINUOUS
 62
     7
100
AcDbLine
 10
359.625005
 20
774.24999
 30
0.0
 11
359.625005
 21
778.24999
 31
0.0
  0
LINE
  5
150B
100
AcDbEntity
  8
15100_BACK_DIM
370
    13
390
0
  6
CONTINUOUS
 62
     7
100
AcDbLine
 10
359.625005
 20
778.24999
 30
0.0
 11
349.625005
 21
776.24999
 31
0.0
  0
LINE
  5
150C
100
AcDbEntity
  8
15100_BACK_DIM
370
    13
390
0
  6
CONTINUOUS
 62
     7
100
AcDbLine
 10
359.625005
 20
774.24999
 30
0.0
 11
349.625005
 21
776.24999
 31
0.0
  0
SOLID
  5
150D
100
AcDbEntity
  8
15100_BACK_DIM
370
    13
390
0
  6
CONTINUOUS
 62
     7
100
AcDbTrace
 10
479.625005
 20
774.24999
 30
0.0
 11
489.625005
 21
776.24999
 31
0.0
 12
479.625005
 22
778.24999
 32
0.0
 13
489.625005
 23
776.24999
 33
0.0
  0
SOLID
  5
150E
100
AcDbEntity
  8
15100_BACK_DIM
370
    13
390
0
  6
CONTINUOUS
 62
     7
100
AcDbTrace
 10
322.625005
 20
737.24999
 30
0.0
 11
320.625005
 21
747.24999
 31
0.0
 12
318.625005
 22
737.24999
 32
0.0
 13
320.625005
 23
747.24999
 33
0.0
  0
SOLID
  5
150F
100
AcDbEntity
  8
15100_BACK_DIM
370
    13
390
0
  6
CONTINUOUS
 62
     7
100
AcDbTrace
 10
318.625005
 20
767.24999
 30
0.0
 11
320.625005
 21
757.24999
 31
0.0
 12
322.625005
 22
767.24999
 32
0.0
 13
320.625005
 23
757.24999
 33
0.0
  0
SOLID
  5
1510
100
AcDbEntity
  8
15100_BACK_DIM
370
    13
390
0
  6
CONTINUOUS
 62
     7
100
AcDbTrace
 10
516.625005
 20
567.24999
 30
0.0
 11
518.625005
 21
557.24999
 31
0.0
 12
520.625005
 22
567.24999
 32
0.0
 13
518.625005
 23
557.24999
 33
0.0
  0
SOLID
  5
1511
100
AcDbEntity
  8
15100_BACK_DIM
370
    13
390
0
  6
CONTINUOUS
 62
     7
100
AcDbTrace
 10
520.625005
 20
737.24999
 30
0.0
 11
518.625005
 21
747.24999
 31
0.0
 12
516.625005
 22
737.24999
 32
0.0
 13
518.625005
 23
747.24999
 33
0.0
  0
SOLID
  5
1512
100
AcDbEntity
  8
15100_BACK_DIM
370
    13
390
0
  6
CONTINUOUS
 62
     7
100
AcDbTrace
 10
520.625005
 20
537.24999
 30
0.0
 11
518.625005
 21
547.24999
 31
0.0
 12
516.625005
 22
537.24999
 32
0.0
 13
518.625005
 23
547.24999
 33
0.0
  0
LINE
  5
1513
100
AcDbEntity
  8
15100_BACK_DIM
370
    13
390
0
  6
CONTINUOUS
 62
     7
100
AcDbLine
 10
520.625005
 20
567.24999
 30
0.0
 11
516.625005
 21
567.24999
 31
0.0
  0
LINE
  5
1514
100
AcDbEntity
  8
15100_BACK_DIM
370
    13
390
0
  6
CONTINUOUS
 62
     7
100
AcDbLine
 10
516.625005
 20
567.24999
 30
0.0
 11
518.625005
 21
557.24999
 31
0.0
  0
LINE
  5
1515
100
AcDbEntity
  8
15100_BACK_DIM
370
    13
390
0
  6
CONTINUOUS
 62
     7
100
AcDbLine
 10
520.625005
 20
567.24999
 30
0.0
 11
518.625005
 21
557.24999
 31
0.0
  0
LINE
  5
1516
100
AcDbEntity
  8
90000_FRAME
370
    13
  6
CONTINUOUS
 62
     7
100
AcDbLine
 10
202.816288
 20
237.987433
 30
0.0
 11
202.816288
 21
1317.987433
 31
0.0
  0
LINE
  5
1517
100
AcDbEntity
  8
90000_FRAME
370
    13
  6
CONTINUOUS
 62
     7
100
AcDbLine
 10
1002.816288
 20
1317.987433
 30
0.0
 11
202.816288
 21
1317.987433
 31
0.0
  0
LINE
  5
1518
100
AcDbEntity
  8
91000_TIP
370
    13
  6
CONTINUOUS
 62
     7
100
AcDbLine
 10
328.334131
 20
302.827797
 30
0.0
 11
368.33413
 21
312.827797
 31
0.0
  0
LINE
  5
1519
100
AcDbEntity
  8
91000_TIP
370
    13
  6
CONTINUOUS
 62
     7
100
AcDbLine
 10
323.216089
 20
292.827797
 30
0.0
 11
417.624046
 21
292.827797
 31
0.0
  0
LINE
  5
151A
100
AcDbEntity
  8
91000_TIP
370
    13
  6
CONTINUOUS
 62
     7
100
AcDbLine
 10
328.334131
 20
282.827797
 30
0.0
 11
368.33413
 21
272.827798
 31
0.0
  0
LINE
  5
151B
100
AcDbEntity
  8
91000_TIP
370
    13
  6
CONTINUOUS
 62
     7
100
AcDbLine
 10
328.334131
 20
302.827797
 30
0.0
 11
328.334131
 21
282.827797
 31
0.0
  0
LINE
  5
151C
100
AcDbEntity
  8
91000_TIP
370
    13
  6
CONTINUOUS
 62
     7
100
AcDbLine
 10
368.33413
 20
312.827797
 30
0.0
 11
368.33413
 21
272.827798
 31
0.0
  0
LINE
  5
151D
100
AcDbEntity
  8
91000_TIP
370
    13
  6
CONTINUOUS
 62
     7
100
AcDbLine
 10
394.33413
 20
269.941872
 30
0.0
 11
394.33413
 21
315.075416
 31
0.0
  0
CIRCLE
  5
151E
100
AcDbEntity
  8
91000_TIP
370
    13
  6
CONTINUOUS
 62
     7
100
AcDbCircle
 10
394.33413
 20
292.827797
 30
0.0
 40
20.0
  0
CIRCLE
  5
151F
100
AcDbEntity
  8
91000_TIP
370
    13
  6
CONTINUOUS
 62
     7
100
AcDbCircle
 10
394.33413
 20
292.827797
 30
0.0
 40
10.0
  0
TEXT
  5
1520
100
AcDbEntity
  8
90000_FRAME
370
    13
  6
CONTINUOUS
 62
     7
100
AcDbText
 10
445.05445
 20
337.09825
 30
0.0
 40
8.8
  1
All dimensions are in millimeters (mm)
 41
0.961374
100
AcDbText
  0
TEXT
  5
1521
100
AcDbEntity
  8
90000_FRAME
370
    13
  6
CONTINUOUS
 62
     7
100
AcDbText
 10
445.05445
 20
349.614339
 30
0.0
 40
8.8
  1
Alle Bemassungswerte sind in Millimeter (mm) angegeben.
 41
0.825144
100
AcDbText
  0
LINE
  5
1522
100
AcDbEntity
  8
90000_FRAME
370
    13
  6
CONTINUOUS
 62
     7
100
AcDbLine
 10
1002.816288
 20
237.987433
 30
0.0
 11
1002.816288
 21
1317.987433
 31
0.0
  0
LINE
  5
1523
100
AcDbEntity
  8
90000_FRAME
370
    13
  6
CONTINUOUS
 62
     7
100
AcDbLine
 10
1002.816288
 20
237.987433
 30
0.0
 11
202.816288
 21
237.987433
 31
0.0
  0
TEXT
  5
1524
100
AcDbEntity
  8
90000_FRAME
370
    13
  6
CONTINUOUS
 62
     7
100
AcDbText
 10
648.608621
 20
308.8
 30
0.0
 40
12.0
  1

 41
0.784213
100
AcDbText
  0
TEXT
  5
1525
100
AcDbEntity
  8
90000_FRAME
370
    13
  6
CONTINUOUS
 62
     7
100
AcDbText
 10
815.456288
 20
265.587433
 30
0.0
 40
8.8
  1
Massstab/Scale:
 41
0.9
100
AcDbText
  0
TEXT
  5
1526
100
AcDbEntity
  8
90000_FRAME
370
    13
  6
CONTINUOUS
 62
     7
100
AcDbText
 10
648.0
 20
265.587433
 30
0.0
 40
8.8
  1
Format/Size: DIN A4
 41
0.803258
100
AcDbText
  0
LINE
  5
1527
100
AcDbEntity
  8
90000_FRAME
370
    13
  6
CONTINUOUS
 62
     7
100
AcDbLine
 10
982.816288
 20
257.987433
 30
0.0
 11
982.816288
 21
329.987433
 31
0.0
  0
LINE
  5
1528
100
AcDbEntity
  8
90000_FRAME
370
    13
  6
CONTINUOUS
 62
     7
100
AcDbLine
 10
812.816288
 20
257.987433
 30
0.0
 11
812.816288
 21
281.987433
 31
0.0
  0
LINE
  5
1529
100
AcDbEntity
  8
90000_FRAME
370
    13
  6
CONTINUOUS
 62
     7
100
AcDbLine
 10
642.816288
 20
257.987433
 30
0.0
 11
642.816288
 21
329.987433
 31
0.0
  0
LINE
  5
152A
100
AcDbEntity
  8
90000_FRAME
370
    13
  6
CONTINUOUS
 62
     7
100
AcDbLine
 10
442.816288
 20
329.987433
 30
0.0
 11
982.816288
 21
329.987433
 31
0.0
  0
LINE
  5
152B
100
AcDbEntity
  8
90000_FRAME
370
    13
  6
CONTINUOUS
 62
     7
100
AcDbLine
 10
642.816288
 20
281.987433
 30
0.0
 11
982.816288
 21
281.987433
 31
0.0
  0
LINE
  5
152C
100
AcDbEntity
  8
90000_FRAME
370
    13
  6
CONTINUOUS
 62
     7
100
AcDbLine
 10
442.816288
 20
257.987433
 30
0.0
 11
442.816288
 21
329.987433
 31
0.0
  0
LINE
  5
152D
100
AcDbEntity
  8
90000_FRAME
370
    13
  6
CONTINUOUS
 62
     7
100
AcDbLine
 10
442.816288
 20
257.987433
 30
0.0
 11
982.816288
 21
257.987433
 31
0.0
  0
LINE
  5
152E
100
AcDbEntity
  8
90000_FRAME
370
    13
  6
CONTINUOUS
 62
     7
100
AcDbLine
 10
499.56109
 20
303.645625
 30
0.0
 11
499.56109
 21
284.632548
 31
0.0
  0
LINE
  5
152F
100
AcDbEntity
  8
90000_FRAME
370
    13
  6
CONTINUOUS
 62
     7
100
AcDbLine
 10
505.265013
 20
303.645625
 30
0.0
 11
505.265013
 21
284.632548
 31
0.0
  0
LINE
  5
1530
100
AcDbEntity
  8
90000_FRAME
370
    13
  6
CONTINUOUS
 62
     7
100
AcDbLine
 10
499.56109
 20
284.632548
 30
0.0
 11
505.265013
 21
284.632548
 31
0.0
  0
LINE
  5
1531
100
AcDbEntity
  8
90000_FRAME
370
    13
  6
CONTINUOUS
 62
     7
100
AcDbLine
 10
499.56109
 20
303.645625
 30
0.0
 11
505.265013
 21
303.645625
 31
0.0
  0
LINE
  5
1532
100
AcDbEntity
  8
90000_FRAME
370
    13
  6
CONTINUOUS
 62
     7
100
AcDbLine
 10
509.63802
 20
303.645625
 30
0.0
 11
509.63802
 21
284.632548
 31
0.0
  0
LINE
  5
1533
100
AcDbEntity
  8
90000_FRAME
370
    13
  6
CONTINUOUS
 62
     7
100
AcDbLine
 10
509.63802
 20
284.632548
 30
0.0
 11
523.897827
 21
284.632548
 31
0.0
  0
LINE
  5
1534
100
AcDbEntity
  8
90000_FRAME
370
    13
  6
CONTINUOUS
 62
     7
100
AcDbLine
 10
523.897827
 20
288.245033
 30
0.0
 11
515.151812
 21
288.245033
 31
0.0
  0
LINE
  5
1535
100
AcDbEntity
  8
90000_FRAME
370
    13
  6
CONTINUOUS
 62
     7
100
AcDbLine
 10
523.897827
 20
288.245033
 30
0.0
 11
523.897827
 21
284.632548
 31
0.0
  0
LINE
  5
1536
100
AcDbEntity
  8
90000_FRAME
370
    13
  6
CONTINUOUS
 62
     7
100
AcDbLine
 10
523.707697
 20
303.645625
 30
0.0
 11
509.63802
 21
303.645625
 31
0.0
  0
LINE
  5
1537
100
AcDbEntity
  8
90000_FRAME
370
    13
  6
CONTINUOUS
 62
     7
100
AcDbLine
 10
523.707697
 20
300.128206
 30
0.0
 11
515.151812
 21
300.128206
 31
0.0
  0
LINE
  5
1538
100
AcDbEntity
  8
90000_FRAME
370
    13
  6
CONTINUOUS
 62
     7
100
AcDbLine
 10
523.707697
 20
303.645625
 30
0.0
 11
523.707697
 21
300.128206
 31
0.0
  0
LINE
  5
1539
100
AcDbEntity
  8
90000_FRAME
370
    13
  6
CONTINUOUS
 62
     7
100
AcDbLine
 10
522.566912
 20
292.713106
 30
0.0
 11
515.151812
 21
292.713106
 31
0.0
  0
LINE
  5
153A
100
AcDbEntity
  8
90000_FRAME
370
    13
  6
CONTINUOUS
 62
     7
100
AcDbLine
 10
522.566912
 20
295.850263
 30
0.0
 11
522.566912
 21
292.713106
 31
0.0
  0
LINE
  5
153B
100
AcDbEntity
  8
90000_FRAME
370
    13
  6
CONTINUOUS
 62
     7
100
AcDbLine
 10
522.566912
 20
295.850263
 30
0.0
 11
515.151812
 21
295.850263
 31
0.0
  0
LINE
  5
153C
100
AcDbEntity
  8
90000_FRAME
370
    13
  6
CONTINUOUS
 62
     7
100
AcDbLine
 10
515.151812
 20
300.128206
 30
0.0
 11
515.151812
 21
295.850263
 31
0.0
  0
LINE
  5
153D
100
AcDbEntity
  8
90000_FRAME
370
    13
  6
CONTINUOUS
 62
     7
100
AcDbLine
 10
515.151812
 20
292.713106
 30
0.0
 11
515.151812
 21
288.245033
 31
0.0
  0
LINE
  5
153E
100
AcDbEntity
  8
90000_FRAME
370
    13
  6
CONTINUOUS
 62
     7
100
AcDbLine
 10
527.13005
 20
284.632548
 30
0.0
 11
527.13005
 21
303.645625
 31
0.0
  0
LINE
  5
153F
100
AcDbEntity
  8
90000_FRAME
370
    13
  6
CONTINUOUS
 62
     7
100
AcDbLine
 10
527.13005
 20
284.632548
 30
0.0
 11
530.932666
 21
284.632548
 31
0.0
  0
LINE
  5
1540
100
AcDbEntity
  8
90000_FRAME
370
    13
  6
CONTINUOUS
 62
     7
100
AcDbLine
 10
550.516134
 20
303.645625
 30
0.0
 11
550.516134
 21
284.632548
 31
0.0
  0
LINE
  5
1541
100
AcDbEntity
  8
90000_FRAME
370
    13
  6
CONTINUOUS
 62
     7
100
AcDbLine
 10
550.516134
 20
284.632548
 30
0.0
 11
545.002342
 21
284.632548
 31
0.0
  0
LINE
  5
1542
100
AcDbEntity
  8
90000_FRAME
370
    13
  6
CONTINUOUS
 62
     7
100
AcDbLine
 10
536.256327
 20
284.442418
 30
0.0
 11
539.678681
 21
284.442418
 31
0.0
  0
LINE
  5
1543
100
AcDbEntity
  8
90000_FRAME
370
    13
  6
CONTINUOUS
 62
     7
100
AcDbLine
 10
536.256327
 20
284.442418
 30
0.0
 11
530.932666
 21
296.800917
 31
0.0
  0
LINE
  5
1544
100
AcDbEntity
  8
90000_FRAME
370
    13
  6
CONTINUOUS
 62
     7
100
AcDbLine
 10
530.932666
 20
284.632548
 30
0.0
 11
530.932666
 21
296.800917
 31
0.0
  0
LINE
  5
1545
100
AcDbEntity
  8
90000_FRAME
370
    13
  6
CONTINUOUS
 62
     7
100
AcDbLine
 10
545.002342
 20
296.991048
 30
0.0
 11
539.678681
 21
284.442418
 31
0.0
  0
LINE
  5
1546
100
AcDbEntity
  8
90000_FRAME
370
    13
  6
CONTINUOUS
 62
     7
100
AcDbLine
 10
533.974758
 20
303.645625
 30
0.0
 11
527.13005
 21
303.645625
 31
0.0
  0
LINE
  5
1547
100
AcDbEntity
  8
90000_FRAME
370
    13
  6
CONTINUOUS
 62
     7
100
AcDbLine
 10
550.516134
 20
303.645625
 30
0.0
 11
543.671427
 21
303.645625
 31
0.0
  0
LINE
  5
1548
100
AcDbEntity
  8
90000_FRAME
370
    13
  6
CONTINUOUS
 62
     7
100
AcDbLine
 10
533.974758
 20
303.645625
 30
0.0
 11
538.918158
 21
292.047648
 31
0.0
  0
LINE
  5
1549
100
AcDbEntity
  8
90000_FRAME
370
    13
  6
CONTINUOUS
 62
     7
100
AcDbLine
 10
543.671427
 20
303.645625
 30
0.0
 11
538.918158
 21
292.047648
 31
0.0
  0
LINE
  5
154A
100
AcDbEntity
  8
90000_FRAME
370
    13
  6
CONTINUOUS
 62
     7
100
AcDbLine
 10
545.002342
 20
296.991048
 30
0.0
 11
545.002342
 21
284.632548
 31
0.0
  0
LINE
  5
154B
100
AcDbEntity
  8
90000_FRAME
370
    13
  6
CONTINUOUS
 62
     7
100
AcDbLine
 10
554.889142
 20
303.645625
 30
0.0
 11
554.889142
 21
284.632548
 31
0.0
  0
LINE
  5
154C
100
AcDbEntity
  8
90000_FRAME
370
    13
  6
CONTINUOUS
 62
     7
100
AcDbLine
 10
554.889142
 20
284.632548
 30
0.0
 11
569.148949
 21
284.632548
 31
0.0
  0
LINE
  5
154D
100
AcDbEntity
  8
90000_FRAME
370
    13
  6
CONTINUOUS
 62
     7
100
AcDbLine
 10
569.148949
 20
288.245033
 30
0.0
 11
560.402934
 21
288.245033
 31
0.0
  0
LINE
  5
154E
100
AcDbEntity
  8
90000_FRAME
370
    13
  6
CONTINUOUS
 62
     7
100
AcDbLine
 10
569.148949
 20
288.245033
 30
0.0
 11
569.148949
 21
284.632548
 31
0.0
  0
LINE
  5
154F
100
AcDbEntity
  8
90000_FRAME
370
    13
  6
CONTINUOUS
 62
     7
100
AcDbLine
 10
568.958818
 20
303.645625
 30
0.0
 11
554.889142
 21
303.645625
 31
0.0
  0
LINE
  5
1550
100
AcDbEntity
  8
90000_FRAME
370
    13
  6
CONTINUOUS
 62
     7
100
AcDbLine
 10
568.958818
 20
300.128206
 30
0.0
 11
560.402934
 21
300.128206
 31
0.0
  0
LINE
  5
1551
100
AcDbEntity
  8
90000_FRAME
370
    13
  6
CONTINUOUS
 62
     7
100
AcDbLine
 10
568.958818
 20
303.645625
 30
0.0
 11
568.958818
 21
300.128206
 31
0.0
  0
LINE
  5
1552
100
AcDbEntity
  8
90000_FRAME
370
    13
  6
CONTINUOUS
 62
     7
100
AcDbLine
 10
567.818034
 20
292.713106
 30
0.0
 11
560.402934
 21
292.713106
 31
0.0
  0
LINE
  5
1553
100
AcDbEntity
  8
90000_FRAME
370
    13
  6
CONTINUOUS
 62
     7
100
AcDbLine
 10
567.818034
 20
295.850263
 30
0.0
 11
567.818034
 21
292.713106
 31
0.0
  0
LINE
  5
1554
100
AcDbEntity
  8
90000_FRAME
370
    13
  6
CONTINUOUS
 62
     7
100
AcDbLine
 10
567.818034
 20
295.850263
 30
0.0
 11
560.402934
 21
295.850263
 31
0.0
  0
LINE
  5
1555
100
AcDbEntity
  8
90000_FRAME
370
    13
  6
CONTINUOUS
 62
     7
100
AcDbLine
 10
560.402934
 20
300.128206
 30
0.0
 11
560.402934
 21
295.850263
 31
0.0
  0
LINE
  5
1556
100
AcDbEntity
  8
90000_FRAME
370
    13
  6
CONTINUOUS
 62
     7
100
AcDbLine
 10
560.402934
 20
292.713106
 30
0.0
 11
560.402934
 21
288.245033
 31
0.0
  0
LINE
  5
1557
100
AcDbEntity
  8
90000_FRAME
370
    13
  6
CONTINUOUS
 62
     7
100
AcDbLine
 10
572.286107
 20
284.632548
 30
0.0
 11
572.286107
 21
303.645625
 31
0.0
  0
LINE
  5
1558
100
AcDbEntity
  8
90000_FRAME
370
    13
  6
CONTINUOUS
 62
     7
100
AcDbLine
 10
589.017614
 20
303.645625
 30
0.0
 11
589.017614
 21
284.632548
 31
0.0
  0
LINE
  5
1559
100
AcDbEntity
  8
90000_FRAME
370
    13
  6
CONTINUOUS
 62
     7
100
AcDbLine
 10
572.286107
 20
284.632548
 30
0.0
 11
576.088722
 21
284.632548
 31
0.0
  0
LINE
  5
155A
100
AcDbEntity
  8
90000_FRAME
370
    13
  6
CONTINUOUS
 62
     7
100
AcDbLine
 10
589.017614
 20
303.645625
 30
0.0
 11
585.214999
 21
303.645625
 31
0.0
  0
LINE
  5
155B
100
AcDbEntity
  8
90000_FRAME
370
    13
  6
CONTINUOUS
 62
     7
100
AcDbLine
 10
578.465356
 20
303.645625
 30
0.0
 11
572.286107
 21
303.645625
 31
0.0
  0
LINE
  5
155C
100
AcDbEntity
  8
90000_FRAME
370
    13
  6
CONTINUOUS
 62
     7
100
AcDbLine
 10
589.017614
 20
284.632548
 30
0.0
 11
582.933429
 21
284.632548
 31
0.0
  0
LINE
  5
155D
100
AcDbEntity
  8
90000_FRAME
370
    13
  6
CONTINUOUS
 62
     7
100
AcDbLine
 10
582.933429
 20
284.632548
 30
0.0
 11
576.088722
 21
296.800917
 31
0.0
  0
LINE
  5
155E
100
AcDbEntity
  8
90000_FRAME
370
    13
  6
CONTINUOUS
 62
     7
100
AcDbLine
 10
578.465356
 20
303.645625
 30
0.0
 11
585.214999
 21
291.857517
 31
0.0
  0
LINE
  5
155F
100
AcDbEntity
  8
90000_FRAME
370
    13
  6
CONTINUOUS
 62
     7
100
AcDbLine
 10
585.214999
 20
303.645625
 30
0.0
 11
585.214999
 21
291.857517
 31
0.0
  0
LINE
  5
1560
100
AcDbEntity
  8
90000_FRAME
370
    13
  6
CONTINUOUS
 62
     7
100
AcDbLine
 10
576.088722
 20
284.632548
 30
0.0
 11
576.088722
 21
296.800917
 31
0.0
  0
LINE
  5
1561
100
AcDbEntity
  8
90000_FRAME
370
    13
  6
CONTINUOUS
 62
     7
100
AcDbLine
 10
592.249837
 20
285.01281
 30
0.0
 11
592.249837
 21
288.815425
 31
0.0
  0
LINE
  5
1562
100
AcDbEntity
  8
90000_FRAME
370
    13
  6
CONTINUOUS
 62
     7
100
AcDbLine
 10
605.55899
 20
299.652879
 30
0.0
 11
605.55899
 21
303.455494
 31
0.0
  0
ARC
  5
1563
100
AcDbEntity
  8
90000_FRAME
370
    13
  6
CONTINUOUS
 62
     7
100
AcDbCircle
 10
599.068401
 20
292.461183
 30
0.0
 40
4.446477
100
AcDbArc
 50
277.709996
 51
295.688493
  0
ARC
  5
1564
100
AcDbEntity
  8
90000_FRAME
370
    13
  6
CONTINUOUS
 62
     7
100
AcDbCircle
 10
600.205641
 20
289.56188
 30
0.0
 40
1.360676
100
AcDbArc
 50
305.503221
 51
72.46529
  0
ARC
  5
1565
100
AcDbEntity
  8
90000_FRAME
370
    13
  6
CONTINUOUS
 62
     7
100
AcDbCircle
 10
597.941666
 20
303.168707
 30
0.0
 40
19.027179
100
AcDbArc
 50
252.59392
 51
280.98166
  0
ARC
  5
1566
100
AcDbEntity
  8
90000_FRAME
370
    13
  6
CONTINUOUS
 62
     7
100
AcDbCircle
 10
599.761007
 20
292.696652
 30
0.0
 40
8.402906
100
AcDbArc
 50
282.405836
 51
311.864443
  0
ARC
  5
1567
100
AcDbEntity
  8
90000_FRAME
370
    13
  6
CONTINUOUS
 62
     7
100
AcDbCircle
 10
598.66675
 20
299.130019
 30
0.0
 40
1.211851
100
AcDbArc
 50
154.440035
 51
221.82017
  0
ARC
  5
1568
100
AcDbEntity
  8
90000_FRAME
370
    13
  6
CONTINUOUS
 62
     7
100
AcDbCircle
 10
598.983635
 20
298.813135
 30
0.0
 40
1.641236
100
AcDbArc
 50
102.828783
 51
149.225964
  0
ARC
  5
1569
100
AcDbEntity
  8
90000_FRAME
370
    13
  6
CONTINUOUS
 62
     7
100
AcDbCircle
 10
600.651742
 20
291.843793
 30
0.0
 40
8.807346
100
AcDbArc
 50
84.040006
 51
103.342766
  0
ARC
  5
156A
100
AcDbEntity
  8
90000_FRAME
370
    13
  6
CONTINUOUS
 62
     7
100
AcDbCircle
 10
599.287887
 20
282.174338
 30
0.0
 40
18.569495
100
AcDbArc
 50
70.262586
 51
82.952419
  0
ARC
  5
156B
100
AcDbEntity
  8
90000_FRAME
370
    13
  6
CONTINUOUS
 62
     7
100
AcDbCircle
 10
597.231814
 20
300.860829
 30
0.0
 40
13.035024
100
AcDbArc
 50
247.530021
 51
280.757952
  0
ARC
  5
156C
100
AcDbEntity
  8
90000_FRAME
370
    13
  6
CONTINUOUS
 62
     7
100
AcDbCircle
 10
571.691948
 20
227.854749
 30
0.0
 40
69.326434
100
AcDbArc
 50
65.341467
 51
67.399777
  0
ARC
  5
156D
100
AcDbEntity
  8
90000_FRAME
370
    13
  6
CONTINUOUS
 62
     7
100
AcDbCircle
 10
614.875398
 20
331.024455
 30
0.0
 40
42.516657
100
AcDbArc
 50
242.86201
 51
247.104203
  0
ARC
  5
156E
100
AcDbEntity
  8
90000_FRAME
370
    13
  6
CONTINUOUS
 62
     7
100
AcDbCircle
 10
599.455793
 20
300.888729
 30
0.0
 40
8.665167
100
AcDbArc
 50
227.311928
 51
242.704032
  0
ARC
  5
156F
100
AcDbEntity
  8
90000_FRAME
370
    13
  6
CONTINUOUS
 62
     7
100
AcDbCircle
 10
597.039669
 20
298.066018
 30
0.0
 40
4.954087
100
AcDbArc
 50
194.795219
 51
225.717655
  0
ARC
  5
1570
100
AcDbEntity
  8
90000_FRAME
370
    13
  6
CONTINUOUS
 62
     7
100
AcDbCircle
 10
597.288302
 20
298.226898
 30
0.0
 40
5.236368
100
AcDbArc
 50
164.197486
 51
195.802514
  0
ARC
  5
1571
100
AcDbEntity
  8
90000_FRAME
370
    13
  6
CONTINUOUS
 62
     7
100
AcDbCircle
 10
599.516397
 20
294.673829
 30
0.0
 40
9.467699
100
AcDbArc
 50
86.221802
 51
120.42726
  0
ARC
  5
1572
100
AcDbEntity
  8
90000_FRAME
370
    13
  6
CONTINUOUS
 62
     7
100
AcDbCircle
 10
598.44097
 20
267.889158
 30
0.0
 40
36.271621
100
AcDbArc
 50
78.682705
 51
87.31476
  0
ARC
  5
1573
100
AcDbEntity
  8
90000_FRAME
370
    13
  6
CONTINUOUS
 62
     7
100
AcDbCircle
 10
596.616693
 20
298.656929
 30
0.0
 40
4.47899
100
AcDbArc
 50
142.813918
 51
167.152295
  0
ARC
  5
1574
100
AcDbEntity
  8
90000_FRAME
370
    13
  6
CONTINUOUS
 62
     7
100
AcDbCircle
 10
597.99793
 20
297.430602
 30
0.0
 40
6.322187
100
AcDbArc
 50
121.214095
 51
141.525477
  0
ARC
  5
1575
100
AcDbEntity
  8
90000_FRAME
370
    13
  6
CONTINUOUS
 62
     7
100
AcDbCircle
 10
600.306628
 20
300.674832
 30
0.0
 40
3.46451
100
AcDbArc
 50
222.776039
 51
239.036243
  0
ARC
  5
1576
100
AcDbEntity
  8
90000_FRAME
370
    13
  6
CONTINUOUS
 62
     7
100
AcDbCircle
 10
590.27979
 20
271.353743
 30
0.0
 40
27.435094
100
AcDbArc
 50
59.902027
 51
68.203648
  0
ARC
  5
1577
100
AcDbEntity
  8
90000_FRAME
370
    13
  6
CONTINUOUS
 62
     7
100
AcDbCircle
 10
603.913768
 20
307.057289
 30
0.0
 40
10.794964
100
AcDbArc
 50
240.0482
 51
251.377967
  0
ARC
  5
1578
100
AcDbEntity
  8
90000_FRAME
370
    13
  6
CONTINUOUS
 62
     7
100
AcDbCircle
 10
601.251939
 20
290.429694
 30
0.0
 40
5.73379
100
AcDbArc
 50
315.890455
 51
333.522926
  0
ARC
  5
1579
100
AcDbEntity
  8
90000_FRAME
370
    13
  6
CONTINUOUS
 62
     7
100
AcDbCircle
 10
601.270492
 20
290.216066
 30
0.0
 40
5.624915
100
AcDbArc
 50
335.386797
 51
24.391512
  0
ARC
  5
157A
100
AcDbEntity
  8
90000_FRAME
370
    13
  6
CONTINUOUS
 62
     7
100
AcDbCircle
 10
600.981672
 20
289.904639
 30
0.0
 40
6.01881
100
AcDbArc
 50
25.956292
 51
59.483483
  0
LINE
  5
157B
100
AcDbEntity
  8
90000_FRAME
370
    13
  6
CONTINUOUS
 62
     7
100
AcDbLine
 10
481.878929
 20
285.01281
 30
0.0
 11
481.878929
 21
288.815425
 31
0.0
  0
LINE
  5
157C
100
AcDbEntity
  8
90000_FRAME
370
    13
  6
CONTINUOUS
 62
     7
100
AcDbLine
 10
495.188082
 20
299.652879
 30
0.0
 11
495.188082
 21
303.455494
 31
0.0
  0
ARC
  5
157D
100
AcDbEntity
  8
90000_FRAME
370
    13
  6
CONTINUOUS
 62
     7
100
AcDbCircle
 10
488.697493
 20
292.461183
 30
0.0
 40
4.446477
100
AcDbArc
 50
277.709996
 51
295.688493
  0
ARC
  5
157E
100
AcDbEntity
  8
90000_FRAME
370
    13
  6
CONTINUOUS
 62
     7
100
AcDbCircle
 10
489.834733
 20
289.56188
 30
0.0
 40
1.360676
100
AcDbArc
 50
305.503221
 51
72.46529
  0
ARC
  5
157F
100
AcDbEntity
  8
90000_FRAME
370
    13
  6
CONTINUOUS
 62
     7
100
AcDbCircle
 10
487.570758
 20
303.168707
 30
0.0
 40
19.027179
100
AcDbArc
 50
252.59392
 51
280.98166
  0
ARC
  5
1580
100
AcDbEntity
  8
90000_FRAME
370
    13
  6
CONTINUOUS
 62
     7
100
AcDbCircle
 10
489.390099
 20
292.696652
 30
0.0
 40
8.402906
100
AcDbArc
 50
282.405836
 51
311.864443
  0
ARC
  5
1581
100
AcDbEntity
  8
90000_FRAME
370
    13
  6
CONTINUOUS
 62
     7
100
AcDbCircle
 10
488.295842
 20
299.130019
 30
0.0
 40
1.211851
100
AcDbArc
 50
154.440035
 51
221.82017
  0
ARC
  5
1582
100
AcDbEntity
  8
90000_FRAME
370
    13
  6
CONTINUOUS
 62
     7
100
AcDbCircle
 10
488.612727
 20
298.813135
 30
0.0
 40
1.641236
100
AcDbArc
 50
102.828783
 51
149.225964
  0
ARC
  5
1583
100
AcDbEntity
  8
90000_FRAME
370
    13
  6
CONTINUOUS
 62
     7
100
AcDbCircle
 10
490.280834
 20
291.843793
 30
0.0
 40
8.807346
100
AcDbArc
 50
84.040006
 51
103.342766
  0
ARC
  5
1584
100
AcDbEntity
  8
90000_FRAME
370
    13
  6
CONTINUOUS
 62
     7
100
AcDbCircle
 10
488.916979
 20
282.174338
 30
0.0
 40
18.569495
100
AcDbArc
 50
70.262586
 51
82.952419
  0
ARC
  5
1585
100
AcDbEntity
  8
90000_FRAME
370
    13
  6
CONTINUOUS
 62
     7
100
AcDbCircle
 10
486.860906
 20
300.860829
 30
0.0
 40
13.035024
100
AcDbArc
 50
247.530021
 51
280.757952
  0
ARC
  5
1586
100
AcDbEntity
  8
90000_FRAME
370
    13
  6
CONTINUOUS
 62
     7
100
AcDbCircle
 10
461.32104
 20
227.854749
 30
0.0
 40
69.326434
100
AcDbArc
 50
65.341467
 51
67.399777
  0
ARC
  5
1587
100
AcDbEntity
  8
90000_FRAME
370
    13
  6
CONTINUOUS
 62
     7
100
AcDbCircle
 10
504.504489
 20
331.024455
 30
0.0
 40
42.516657
100
AcDbArc
 50
242.86201
 51
247.104203
  0
ARC
  5
1588
100
AcDbEntity
  8
90000_FRAME
370
    13
  6
CONTINUOUS
 62
     7
100
AcDbCircle
 10
489.084885
 20
300.888729
 30
0.0
 40
8.665167
100
AcDbArc
 50
227.311928
 51
242.704032
  0
ARC
  5
1589
100
AcDbEntity
  8
90000_FRAME
370
    13
  6
CONTINUOUS
 62
     7
100
AcDbCircle
 10
486.668761
 20
298.066018
 30
0.0
 40
4.954087
100
AcDbArc
 50
194.795219
 51
225.717655
  0
ARC
  5
158A
100
AcDbEntity
  8
90000_FRAME
370
    13
  6
CONTINUOUS
 62
     7
100
AcDbCircle
 10
489.145489
 20
294.673829
 30
0.0
 40
9.467699
100
AcDbArc
 50
86.221802
 51
120.42726
  0
ARC
  5
158B
100
AcDbEntity
  8
90000_FRAME
370
    13
  6
CONTINUOUS
 62
     7
100
AcDbCircle
 10
488.070062
 20
267.889158
 30
0.0
 40
36.271621
100
AcDbArc
 50
78.682705
 51
87.31476
  0
ARC
  5
158C
100
AcDbEntity
  8
90000_FRAME
370
    13
  6
CONTINUOUS
 62
     7
100
AcDbCircle
 10
487.627022
 20
297.430602
 30
0.0
 40
6.322187
100
AcDbArc
 50
121.214095
 51
141.525477
  0
ARC
  5
158D
100
AcDbEntity
  8
90000_FRAME
370
    13
  6
CONTINUOUS
 62
     7
100
AcDbCircle
 10
489.93572
 20
300.674832
 30
0.0
 40
3.46451
100
AcDbArc
 50
222.776039
 51
239.036243
  0
ARC
  5
158E
100
AcDbEntity
  8
90000_FRAME
370
    13
  6
CONTINUOUS
 62
     7
100
AcDbCircle
 10
479.908881
 20
271.353743
 30
0.0
 40
27.435094
100
AcDbArc
 50
59.902027
 51
68.203648
  0
ARC
  5
158F
100
AcDbEntity
  8
90000_FRAME
370
    13
  6
CONTINUOUS
 62
     7
100
AcDbCircle
 10
493.542859
 20
307.057289
 30
0.0
 40
10.794964
100
AcDbArc
 50
240.0482
 51
251.377967
  0
ARC
  5
1590
100
AcDbEntity
  8
90000_FRAME
370
    13
  6
CONTINUOUS
 62
     7
100
AcDbCircle
 10
490.881031
 20
290.429694
 30
0.0
 40
5.73379
100
AcDbArc
 50
315.890455
 51
333.522926
  0
ARC
  5
1591
100
AcDbEntity
  8
90000_FRAME
370
    13
  6
CONTINUOUS
 62
     7
100
AcDbCircle
 10
490.899584
 20
290.216066
 30
0.0
 40
5.624915
100
AcDbArc
 50
335.386797
 51
24.391512
  0
ARC
  5
1592
100
AcDbEntity
  8
90000_FRAME
370
    13
  6
CONTINUOUS
 62
     7
100
AcDbCircle
 10
490.610764
 20
289.904639
 30
0.0
 40
6.01881
100
AcDbArc
 50
25.956292
 51
59.483483
  0
LINE
  5
1593
100
AcDbEntity
  8
90000_FRAME
370
    13
  6
CONTINUOUS
 62
     7
100
AcDbLine
 10
482.646243
 20
301.322403
 30
0.0
 11
483.742506
 21
302.418695
 31
0.0
  0
ARC
  5
1594
100
AcDbEntity
  8
90000_FRAME
370
    13
  6
CONTINUOUS
 62
     7
100
AcDbCircle
 10
486.917394
 20
298.226898
 30
0.0
 40
5.236368
100
AcDbArc
 50
164.197486
 51
195.802514
  0
ARC
  5
1595
100
AcDbEntity
  8
90000_FRAME
370
    13
  6
CONTINUOUS
 62
     7
100
AcDbCircle
 10
486.245785
 20
298.656929
 30
0.0
 40
4.47899
100
AcDbArc
 50
142.813918
 51
167.152295
  0
TEXT
  5
1596
100
AcDbEntity
  8
90000_FRAME
370
    13
  6
CONTINUOUS
 62
     7
100
AcDbText
 10
928.0
 20
265.5876
 30
0.0
 40
8.8
  1
1:4
 41
0.9
100
AcDbText
  0
TEXT
  5
1597
100
AcDbEntity
  8
90000_FRAME
370
    13
  6
CONTINUOUS
 62
     7
100
AcDbText
 10
648.0
 20
288.8
 30
0.0
 40
8.8
  1
3RW4073_00002728_002_ALL.dxf
 41
0.784213
100
AcDbText
  0
ENDSEC
  0
SECTION
  2
OBJECTS
  0
DICTIONARY
  5
FE4
100
AcDbDictionary
280
     0
281
     1
  3
ACAD_GROUP
350
FE5
  3
ACAD_MLINESTYLE
350
FE6
  0
DICTIONARY
  5
FE5
102
{ACAD_REACTORS
330
FE4
102
}
100
AcDbDictionary
280
     0
281
     1
  0
DICTIONARY
  5
FE6
102
{ACAD_REACTORS
330
FE4
102
}
100
AcDbDictionary
280
     0
281
     1
  3
Standard
350
FE7
  0
MLINESTYLE
  5
FE7
102
{ACAD_REACTORS
330
FE6
102
}
100
AcDbMlineStyle
  2
Standard
 70
     0
  3

 62
     0
 51
90.0
 52
90.0
 71
     2
 49
0.5
 62
   256
  6
ByLayer
 49
-0.5
 62
   256
  6
ByLayer
  0
ENDSEC
  0
EOF
