  0
SECTION
  2
HEADER
  9
$ACADVER
  1
AC1015
  9
$ACADMAINTVER
 70
     6
  9
$DWGCODEPAGE
  3
ANSI_1252
  9
$INSBASE
 10
0.0
 20
0.0
 30
0.0
  9
$EXTMIN
 10
69.395417
 20
287.976483
 30
-1.0
  9
$EXTMAX
 10
1026.514554
 20
492.804657
 30
0.7
  9
$LIMMIN
 10
0.0
 20
0.0
  9
$LIMMAX
 10
12.0
 20
9.0
  9
$ORTHOMODE
 70
     0
  9
$REGENMODE
 70
     1
  9
$FILLMODE
 70
     1
  9
$QTEXTMODE
 70
     0
  9
$MIRRTEXT
 70
     0
  9
$LTSCALE
 40
15.0
  9
$ATTMODE
 70
     1
  9
$TEXTSIZE
 40
0.2
  9
$TRACEWID
 40
0.05
  9
$TEXTSTYLE
  7
STANDARD
  9
$CLAYER
  8
0
  9
$CELTYPE
  6
ByLayer
  9
$CECOLOR
 62
   256
  9
$CELTSCALE
 40
1.0
  9
$DISPSILH
 70
     0
  9
$DIMSCALE
 40
1.0
  9
$DIMASZ
 40
0.18
  9
$DIMEXO
 40
0.0625
  9
$DIMDLI
 40
0.38
  9
$DIMRND
 40
0.0
  9
$DIMDLE
 40
0.0
  9
$DIMEXE
 40
0.18
  9
$DIMTP
 40
0.0
  9
$DIMTM
 40
0.0
  9
$DIMTXT
 40
0.18
  9
$DIMCEN
 40
0.09
  9
$DIMTSZ
 40
0.0
  9
$DIMTOL
 70
     0
  9
$DIMLIM
 70
     0
  9
$DIMTIH
 70
     1
  9
$DIMTOH
 70
     1
  9
$DIMSE1
 70
     0
  9
$DIMSE2
 70
     0
  9
$DIMTAD
 70
     0
  9
$DIMZIN
 70
     0
  9
$DIMBLK
  1

  9
$DIMASO
 70
     1
  9
$DIMSHO
 70
     1
  9
$DIMPOST
  1

  9
$DIMAPOST
  1

  9
$DIMALT
 70
     0
  9
$DIMALTD
 70
     2
  9
$DIMALTF
 40
25.4
  9
$DIMLFAC
 40
1.0
  9
$DIMTOFL
 70
     0
  9
$DIMTVP
 40
0.0
  9
$DIMTIX
 70
     0
  9
$DIMSOXD
 70
     0
  9
$DIMSAH
 70
     0
  9
$DIMBLK1
  1

  9
$DIMBLK2
  1

  9
$DIMSTYLE
  2
STANDARD
  9
$DIMCLRD
 70
     0
  9
$DIMCLRE
 70
     0
  9
$DIMCLRT
 70
     0
  9
$DIMTFAC
 40
1.0
  9
$DIMGAP
 40
0.09
  9
$DIMJUST
 70
     0
  9
$DIMSD1
 70
     0
  9
$DIMSD2
 70
     0
  9
$DIMTOLJ
 70
     1
  9
$DIMTZIN
 70
     0
  9
$DIMALTZ
 70
     0
  9
$DIMALTTZ
 70
     0
  9
$DIMUPT
 70
     0
  9
$DIMDEC
 70
     4
  9
$DIMTDEC
 70
     4
  9
$DIMALTU
 70
     2
  9
$DIMALTTD
 70
     2
  9
$DIMTXSTY
  7
STANDARD
  9
$DIMAUNIT
 70
     0
  9
$DIMADEC
 70
     0
  9
$DIMALTRND
 40
0.0
  9
$DIMAZIN
 70
     0
  9
$DIMDSEP
 70
     0
  9
$DIMATFIT
 70
     3
  9
$DIMFRAC
 70
     0
  9
$DIMLDRBLK
  1

  9
$DIMLUNIT
 70
     2
  9
$DIMLWD
 70
     0
  9
$DIMLWE
 70
     0
  9
$DIMTMOVE
 70
     0
  9
$LUNITS
 70
     2
  9
$LUPREC
 70
     4
  9
$SKETCHINC
 40
0.1
  9
$FILLETRAD
 40
0.0
  9
$AUNITS
 70
     0
  9
$AUPREC
 70
     0
  9
$MENU
  1
.
  9
$ELEVATION
 40
0.0
  9
$PELEVATION
 40
0.0
  9
$THICKNESS
 40
0.0
  9
$LIMCHECK
 70
     0
  9
$CHAMFERA
 40
0.0
  9
$CHAMFERB
 40
0.0
  9
$CHAMFERC
 40
0.0
  9
$CHAMFERD
 40
0.0
  9
$SKPOLY
 70
     0
  9
$TDCREATE
 40
2453353.758792454
  9
$TDUCREATE
 40
0.000000000
  9
$TDUPDATE
 40
0.000000000
  9
$TDUUPDATE
 40
2447892.958333334
  9
$TDINDWG
 40
19583144.0627810880
  9
$TDUSRTIMER
 40
0.0000000000
  9
$USRTIMER
 70
     1
  9
$ANGBASE
 50
0.0
  9
$ANGDIR
 70
     0
  9
$PDMODE
 70
     0
  9
$PDSIZE
 40
0.0
  9
$PLINEWID
 40
0.0
  9
$SPLFRAME
 70
     0
  9
$SPLINETYPE
 70
     6
  9
$SPLINESEGS
 70
     8
  9
$HANDSEED
  5
15BD
  9
$SURFTAB1
 70
     6
  9
$SURFTAB2
 70
     6
  9
$SURFTYPE
 70
     6
  9
$SURFU
 70
     6
  9
$SURFV
 70
     6
  9
$UCSBASE
  2

  9
$UCSNAME
  2

  9
$UCSORG
 10
0.0
 20
0.0
 30
0.0
  9
$UCSXDIR
 10
1.0
 20
0.0
 30
0.0
  9
$UCSYDIR
 10
0.0
 20
1.0
 30
0.0
  9
$UCSORTHOREF
  2

  9
$UCSORTHOVIEW
 70
     0
  9
$UCSORGTOP
 10
0.0
 20
0.0
 30
0.0
  9
$UCSORGBOTTOM
 10
0.0
 20
0.0
 30
0.0
  9
$UCSORGLEFT
 10
0.0
 20
0.0
 30
0.0
  9
$UCSORGRIGHT
 10
0.0
 20
0.0
 30
0.0
  9
$UCSORGFRONT
 10
0.0
 20
0.0
 30
0.0
  9
$UCSORGBACK
 10
0.0
 20
0.0
 30
0.0
  9
$PUCSBASE
  2

  9
$PUCSNAME
  2

  9
$PUCSORG
 10
0.0
 20
0.0
 30
0.0
  9
$PUCSXDIR
 10
1.0
 20
0.0
 30
0.0
  9
$PUCSYDIR
 10
0.0
 20
1.0
 30
0.0
  9
$PUCSORTHOREF
  2

  9
$PUCSORTHOVIEW
 70
     0
  9
$PUCSORGTOP
 10
0.0
 20
0.0
 30
0.0
  9
$PUCSORGBOTTOM
 10
0.0
 20
0.0
 30
0.0
  9
$PUCSORGLEFT
 10
0.0
 20
0.0
 30
0.0
  9
$PUCSORGRIGHT
 10
0.0
 20
0.0
 30
0.0
  9
$PUCSORGFRONT
 10
0.0
 20
0.0
 30
0.0
  9
$PUCSORGBACK
 10
0.0
 20
0.0
 30
0.0
  9
$USERI1
 70
     0
  9
$USERI2
 70
     0
  9
$USERI3
 70
     0
  9
$USERI4
 70
     0
  9
$USERI5
 70
     0
  9
$USERR1
 40
0.0
  9
$USERR2
 40
0.0
  9
$USERR3
 40
0.0
  9
$USERR4
 40
0.0
  9
$USERR5
 40
0.0
  9
$WORLDVIEW
 70
     1
  9
$SHADEDGE
 70
     3
  9
$SHADEDIF
 70
    70
  9
$TILEMODE
 70
     1
  9
$MAXACTVP
 70
    64
  9
$PINSBASE
 10
0.0
 20
0.0
 30
0.0
  9
$PLIMCHECK
 70
     0
  9
$PEXTMIN
 10
0.0
 20
0.0
 30
0.0
  9
$PEXTMAX
 10
0.0
 20
0.0
 30
0.0
  9
$PLIMMIN
 10
0.0
 20
0.0
  9
$PLIMMAX
 10
0.0
 20
0.0
  9
$UNITMODE
 70
     0
  9
$VISRETAIN
 70
     1
  9
$PLINEGEN
 70
     0
  9
$PSLTSCALE
 70
     1
  9
$TREEDEPTH
 70
  3020
  9
$CMLSTYLE
  2
Standard
  9
$CMLJUST
 70
     0
  9
$CMLSCALE
 40
1.0
  9
$PROXYGRAPHICS
 70
     0
  9
$MEASUREMENT
 70
     0
  9
$CELWEIGHT
370
     0
  9
$ENDCAPS
280
     0
  9
$JOINSTYLE
280
     0
  9
$LWDISPLAY
290
     0
  9
$INSUNITS
 70
     0
  9
$HYPERLINKBASE
  1

  9
$STYLESHEET
  1

  9
$XEDIT
290
     1
  9
$CEPSNTYPE
380
     0
  9
$PSTYLEMODE
290
     1
  9
$FINGERPRINTGUID
  2

  9
$VERSIONGUID
  2

  9
$EXTNAMES
290
     1
  9
$PSVPSCALE
 40
0.0
  0
ENDSEC
  0
SECTION
  2
CLASSES
  0
CLASS
  1
LWPOLYLINE
  2
AcDbPolyline
  3
AutoCAD 2000
 90
        0
280
     0
281
     1
  0
CLASS
  1
IMAGE
  2
AcDbRasterImage
  3
ISM
 90
      127
280
     0
281
     1
  0
CLASS
  1
OLE2FRAME
  2
AcDbOle2Frame
  3
AutoCAD 2000
 90
        0
280
     0
281
     1
  0
CLASS
  1
HATCH
  2
AcDbHatch
  3
AutoCAD 2000
 90
        0
280
     0
281
     1
  0
CLASS
  1
DICTIONARYVAR
  2
AcDbDictionaryVar
  3
AutoCAD 2000
 90
        0
280
     0
281
     0
  0
CLASS
  1
RASTERVARIABLES
  2
AcDbRasterVariables
  3
ISM
 90
        0
280
     0
281
     0
  0
CLASS
  1
IMAGEDEF
  2
AcDbRasterImageDef
  3
ISM
 90
        0
280
     0
281
     0
  0
CLASS
  1
IMAGEDEF_REACTOR
  2
AcDbRasterImageDefReactor
  3
ISM
 90
        1
280
     0
281
     0
  0
CLASS
  1
IDBUFFER
  2
AcDbIdBuffer
  3
AutoCAD 2000
 90
        0
280
     0
281
     0
  0
CLASS
  1
SPATIAL_FILTER
  2
AcDbSpatialFilter
  3
AutoCAD 2000
 90
        0
280
     0
281
     0
  0
CLASS
  1
XRECORD
  2
AcDbXrecord
  3
AutoCAD 2000
 90
        0
280
     0
281
     0
  0
CLASS
  1
SORTENTSTABLE
  2
AcDbSortentsTable
  3
AutoCAD 2000
 90
        0
280
     0
281
     0
  0
CLASS
  1
LAYER_INDEX
  2
AcDbLayerIndex
  3
AutoCAD 2000
 90
        0
280
     0
281
     0
  0
CLASS
  1
SPATIAL_INDEX
  2
AcDbSpatialIndex
  3
AutoCAD 2000
 90
        0
280
     0
281
     0
  0
CLASS
  1
OBJECT_PTR
  2
CAseDLPNTableRecord
  3
"ASE-LPNTableRecord"
 90
        1
280
     0
281
     0
  0
CLASS
  1
LAYOUT
  2
AcDbLayout
  3
AutoCAD 2000
 90
        0
280
     0
281
     0
  0
CLASS
  1
PLOTSETTINGS
  2
AcDbPlotSettings
  3
AutoCAD 2000
 90
        0
280
     0
281
     0
  0
CLASS
  1
ACDBDICTIONARYWDFLT
  2
AcDbDictionaryWithDefault
  3
AutoCAD 2000
 90
        0
280
     0
281
     0
  0
CLASS
  1
ACDBPLACEHOLDER
  2
AcDbPlaceHolder
  3
AutoCAD 2000
 90
        0
280
     0
281
     0
  0
CLASS
  1
VBA_PROJECT
  2
AcDbVbaProject
  3
acadvba
 90
        0
280
     0
281
     0
  0
CLASS
  1
WIPEOUT
  2
AcDbWipeout
  3
WipeOut|AutoCAD Express Tool|expresstools@autodesk.com
 90
      127
280
     0
281
     1
  0
CLASS
  1
WIPEOUTVARIABLES
  2
AcDbWipeoutVariables
  3
WipeOut|AutoCAD Express Tool|expresstools@autodesk.com
 90
        0
280
     0
281
     0
  0
CLASS
  1
RTEXT
  2
RText
  3
RText|AutoCAD Express Tool|expresstools@autodesk.com
 90
        0
280
     0
281
     1
  0
CLASS
  1
ARCALIGNEDTEXT
  2
AcDbArcAlignedText
  3
ATEXT|AutoCAD Express Tool|expresstools@autodesk.com
 90
        0
280
     0
281
     1
  0
ENDSEC
  0
SECTION
  2
TABLES
  0
TABLE
  2
VPORT
  5
FB2
100
AcDbSymbolTable
 70
     1
  0
VPORT
  5
FD1
100
AcDbSymbolTableRecord
100
AcDbViewportTableRecord
  2
*ACTIVE
 70
     0
 10
0.0
 20
0.0
 11
1.0
 21
1.0
 12
450.328833
 22
266.374849
 13
0.0
 23
0.0
 14
0.5
 24
0.5
 15
0.5
 25
0.5
 16
0.0
 26
0.0
 36
1.0
 17
0.0
 27
0.0
 37
0.0
 40
620.078606
 41
1.701534
 42
50.0
 43
0.0
 44
0.0
 50
0.0
 51
0.0
 71
    16
 72
  1000
 73
     1
 74
     3
 75
     0
 76
     0
 77
     0
 78
     0
281
     0
 65
     0
110
0.0
120
0.0
130
0.0
111
1.0
121
0.0
131
0.0
112
0.0
122
1.0
132
0.0
345
0
346
0
 79
     0
146
0.0
  0
ENDTAB
  0
TABLE
  2
LTYPE
  5
FAF
100
AcDbSymbolTable
 70
     6
  0
LTYPE
  5
FB8
100
AcDbSymbolTableRecord
100
AcDbLinetypeTableRecord
  2
ByBlock
 70
    64
  3

 72
    65
 73
     0
 40
0.0
  0
LTYPE
  5
FB9
100
AcDbSymbolTableRecord
100
AcDbLinetypeTableRecord
  2
ByLayer
 70
    64
  3

 72
    65
 73
     0
 40
0.0
  0
LTYPE
  5
FBA
100
AcDbSymbolTableRecord
100
AcDbLinetypeTableRecord
  2
CONTINUOUS
 70
     0
  3
Solid line
 72
    65
 73
     0
 40
0.0
  0
LTYPE
  5
FBB
100
AcDbSymbolTableRecord
100
AcDbLinetypeTableRecord
  2
CENTER
 70
     0
  3
____ _ ____ _ ____ _ ____ _ ____ _ ____ _ ____
 72
    65
 73
     4
 40
0.6
 49
0.375
 74
     0
 49
-0.075
 74
     0
 49
0.075
 74
     0
 49
-0.075
 74
     0
  0
LTYPE
  5
FBC
100
AcDbSymbolTableRecord
100
AcDbLinetypeTableRecord
  2
ACAD_ISO02W100
 70
     0
  3
ISO Strichlinie __ __ __ __ __ __ __ __ __ __ _
 72
    65
 73
     2
 40
15.0
 49
12.0
 74
     0
 49
-3.0
 74
     0
  0
LTYPE
  5
FBD
100
AcDbSymbolTableRecord
100
AcDbLinetypeTableRecord
  2
DASHED
 70
     0
  3
_ _ _ _ _ _ _ _ _ _ _ _ _ _ _ _ _ _ _ _ _ _ _ _
 72
    65
 73
     2
 40
0.375
 49
0.25
 74
     0
 49
-0.125
 74
     0
  0
ENDTAB
  0
TABLE
  2
LAYER
  5
FAD
100
AcDbSymbolTable
 70
    10
  0
LAYER
  5
FBE
100
AcDbSymbolTableRecord
100
AcDbLayerTableRecord
  2
0
 70
     0
 62
     7
  6
CONTINUOUS
290
     1
370
    -3
390
0
  0
LAYER
  5
FBF
100
AcDbSymbolTableRecord
100
AcDbLayerTableRecord
  2
90000_FRAME
 70
     0
 62
     7
  6
CONTINUOUS
290
     1
370
    -3
390
0
  0
LAYER
  5
FC0
100
AcDbSymbolTableRecord
100
AcDbLayerTableRecord
  2
91000_TIP
 70
     0
 62
     7
  6
CONTINUOUS
290
     1
370
    -3
390
0
  0
LAYER
  5
FC1
100
AcDbSymbolTableRecord
100
AcDbLayerTableRecord
  2
10000_FRONT
 70
     0
 62
     7
  6
CONTINUOUS
290
     1
370
    -3
390
0
  0
LAYER
  5
FC2
100
AcDbSymbolTableRecord
100
AcDbLayerTableRecord
  2
11000_LEFT
 70
     0
 62
     7
  6
CONTINUOUS
290
     1
370
    -3
390
0
  0
LAYER
  5
FC5
100
AcDbSymbolTableRecord
100
AcDbLayerTableRecord
  2
DEFPOINTS
 70
     0
 62
     7
  6
CONTINUOUS
290
     0
370
    -3
390
0
  0
LAYER
  5
FC6
100
AcDbSymbolTableRecord
100
AcDbLayerTableRecord
  2
10100_FRONT_DIM
 70
     0
 62
     7
  6
CONTINUOUS
290
     1
370
    -3
390
0
  0
LAYER
  5
FC7
100
AcDbSymbolTableRecord
100
AcDbLayerTableRecord
  2
11100_LEFT_DIM
 70
     0
 62
     7
  6
CONTINUOUS
290
     1
370
    -3
390
0
  0
LAYER
  5
FCF
100
AcDbSymbolTableRecord
100
AcDbLayerTableRecord
  2
15000_BACK
 70
     0
 62
     7
  6
CONTINUOUS
290
     1
370
    -3
390
0
  0
LAYER
  5
FD0
100
AcDbSymbolTableRecord
100
AcDbLayerTableRecord
  2
15100_BACK_DIM
 70
     0
 62
     7
  6
CONTINUOUS
290
     1
370
    -3
390
0
  0
ENDTAB
  0
TABLE
  2
STYLE
  5
FAE
100
AcDbSymbolTable
 70
     1
  0
STYLE
  5
FD5
100
AcDbSymbolTableRecord
100
AcDbTextStyleTableRecord
  2
STANDARD
 70
     0
 40
0.0
 41
1.0
 50
0.0
 71
     0
 42
0.2
  3
txt.shx
  4

  0
ENDTAB
  0
TABLE
  2
VIEW
  5
FB0
100
AcDbSymbolTable
 70
     0
  0
ENDTAB
  0
TABLE
  2
UCS
  5
FB1
100
AcDbSymbolTable
 70
     0
  0
ENDTAB
  0
TABLE
  2
APPID
  5
FB3
100
AcDbSymbolTable
 70
     3
  0
APPID
  5
FD2
100
AcDbSymbolTableRecord
100
AcDbRegAppTableRecord
  2
ACAD
 70
     0
  0
APPID
  5
FD3
100
AcDbSymbolTableRecord
100
AcDbRegAppTableRecord
  2
AUSTER_ANSICHT
 70
     0
  0
APPID
  5
FD4
100
AcDbSymbolTableRecord
100
AcDbRegAppTableRecord
  2
AUSTER_FOLIE
 70
     0
  0
ENDTAB
  0
TABLE
  2
DIMSTYLE
  5
FB4
100
AcDbSymbolTable
 70
     3
100
AcDbDimStyleTable
 71
     0
  0
DIMSTYLE
105
FDF
100
AcDbSymbolTableRecord
100
AcDbDimStyleTableRecord
  2
STANDARD
 70
     0
  3

  4

 40
1.0
 41
0.18
 42
0.0625
 43
0.38
 44
0.18
 45
0.0
 46
0.0
 47
0.0
 48
0.0
 71
     0
 72
     0
 73
     1
 74
     1
 75
     0
 76
     0
 77
     0
 78
     0
 79
     0
140
0.18
141
0.09
142
0.0
143
25.4
144
1.0
145
0.0
146
1.0
147
0.09
148
0.0
170
     0
171
     2
172
     0
173
     0
174
     0
175
     0
176
     0
177
     0
178
     0
179
     0
271
     4
272
     4
273
     2
274
     2
275
     0
276
     0
277
     2
278
    46
279
     0
280
     0
281
     0
282
     0
283
     1
284
     0
285
     0
286
     0
288
     0
289
     3
340
FD5
341
0
342
0
343
0
344
0
371
    -2
372
    -2
  0
DIMSTYLE
105
FE0
100
AcDbSymbolTableRecord
100
AcDbDimStyleTableRecord
  2
DSTYLE1
 70
     0
  3

  4

 40
1.0
 41
3.0
 42
0.0
 43
0.38
 44
1.0
 45
0.0
 46
0.0
 47
0.0
 48
0.0
 71
     0
 72
     0
 73
     0
 74
     0
 75
     0
 76
     0
 77
     1
 78
     3
 79
     0
140
2.5
141
0.09
142
0.0
143
0.03937
144
1.0
145
0.0
146
1.0
147
1.0
148
0.0
170
     0
171
     2
172
     0
173
     0
174
     0
175
     0
176
     0
177
     0
178
     0
179
     0
271
     4
272
     4
273
     2
274
     2
275
     0
276
     0
277
     2
278
    46
279
     0
280
     0
281
     0
282
     0
283
     1
284
     0
285
     0
286
     0
288
     0
289
     3
340
FD5
341
0
342
0
343
0
344
0
371
    -2
372
    -2
  0
DIMSTYLE
105
FE1
100
AcDbSymbolTableRecord
100
AcDbDimStyleTableRecord
  2
H035
 70
     0
  3

  4

 40
0.0
 41
3.5
 42
0.0
 43
3.75
 44
2.0
 45
0.0
 46
0.0
 47
0.0
 48
0.0
 71
     0
 72
     0
 73
     0
 74
     0
 75
     0
 76
     0
 77
     1
 78
     8
 79
     0
140
3.5
141
2.5
142
0.0
143
0.039
144
1.0
145
0.0
146
1.0
147
0.5
148
0.0
170
     0
171
     4
172
     1
173
     0
174
     0
175
     0
176
   256
177
     7
178
     7
179
     0
271
     4
272
     4
273
     2
274
     2
275
     0
276
     0
277
     2
278
    46
279
     0
280
     0
281
     0
282
     0
283
     1
284
     0
285
     0
286
     0
288
     0
289
     3
340
FD5
341
0
342
0
343
0
344
0
371
    -2
372
    -2
  0
ENDTAB
  0
TABLE
  2
BLOCK_RECORD
  5
FDA
100
AcDbSymbolTable
 70
     2
  0
BLOCK_RECORD
  5
FD8
100
AcDbSymbolTableRecord
100
AcDbBlockTableRecord
  2
*Model_Space
340
0
  0
BLOCK_RECORD
  5
FD9
100
AcDbSymbolTableRecord
100
AcDbBlockTableRecord
  2
*Paper_Space
340
0
  0
BLOCK_RECORD
  5
FD6
100
AcDbSymbolTableRecord
100
AcDbBlockTableRecord
  2
$MODEL_SPACE
340
0
  0
BLOCK_RECORD
  5
FD7
100
AcDbSymbolTableRecord
100
AcDbBlockTableRecord
  2
$PAPER_SPACE
340
0
  0
ENDTAB
  0
ENDSEC
  0
SECTION
  2
BLOCKS
  0
BLOCK
  5
FDB
100
AcDbEntity
  8
0
390
0
100
AcDbBlockBegin
  2
*Model_Space
 70
     0
 10
0.0
 20
0.0
 30
0.0
  3
*Model_Space
  1

  0
ENDBLK
  5
FDC
100
AcDbEntity
  8
0
390
0
100
AcDbBlockEnd
  0
BLOCK
  5
FDD
100
AcDbEntity
 67
     1
  8
0
390
0
100
AcDbBlockBegin
  2
*Paper_Space
 70
     0
 10
0.0
 20
0.0
 30
0.0
  3
*Paper_Space
  1

  0
ENDBLK
  5
FDE
100
AcDbEntity
 67
     1
  8
0
390
0
100
AcDbBlockEnd
  0
BLOCK
  5
FE2
100
AcDbEntity
  8
0
100
AcDbBlockBegin
  2
$MODEL_SPACE
 70
     0
 10
0.0
 20
0.0
 30
0.0
  3
$MODEL_SPACE
  1

  0
ENDBLK
  5
21
100
AcDbEntity
  8
0
100
AcDbBlockEnd
  0
BLOCK
  5
FE3
100
AcDbEntity
  8
0
100
AcDbBlockBegin
  2
$PAPER_SPACE
 70
     0
 10
0.0
 20
0.0
 30
0.0
  3
$PAPER_SPACE
  1

  0
ENDBLK
  5
76
100
AcDbEntity
  8
0
100
AcDbBlockEnd
  0
ENDSEC
  0
SECTION
  2
ENTITIES
  0
LINE
  5
FE9
100
AcDbEntity
  8
10000_FRONT
370
    25
390
0
  6
CONTINUOUS
 62
     7
100
AcDbLine
 10
343.500005
 20
717.0
 30
0.0
 11
343.500005
 21
695.0
 31
0.0
  0
LINE
  5
FEA
100
AcDbEntity
  8
10000_FRONT
370
    25
390
0
  6
CONTINUOUS
 62
     7
100
AcDbLine
 10
326.500005
 20
695.0
 30
0.0
 11
326.500005
 21
717.0
 31
0.0
  0
LINE
  5
FEB
100
AcDbEntity
  8
10000_FRONT
370
    25
390
0
  6
CONTINUOUS
 62
     7
100
AcDbLine
 10
329.500005
 20
692.0
 30
0.0
 11
326.500005
 21
695.0
 31
0.0
  0
LINE
  5
FEC
100
AcDbEntity
  8
10000_FRONT
370
    25
390
0
  6
CONTINUOUS
 62
     7
100
AcDbLine
 10
340.500005
 20
692.0
 30
0.0
 11
329.500005
 21
692.0
 31
0.0
  0
LINE
  5
FED
100
AcDbEntity
  8
10000_FRONT
370
    25
390
0
  6
CONTINUOUS
 62
     7
100
AcDbLine
 10
343.500005
 20
695.0
 30
0.0
 11
340.500005
 21
692.0
 31
0.0
  0
ARC
  5
FEE
100
AcDbEntity
  8
10000_FRONT
370
    25
390
0
  6
CONTINUOUS
 62
     7
100
AcDbCircle
 10
335.000005
 20
701.0
 30
0.0
 40
4.5
100
AcDbArc
 50
180.0
 51
0.0
  0
ARC
  5
FEF
100
AcDbEntity
  8
10000_FRONT
370
    25
390
0
  6
CONTINUOUS
 62
     7
100
AcDbCircle
 10
335.000005
 20
701.0
 30
0.0
 40
4.5
100
AcDbArc
 50
0.0
 51
180.0
  0
LINE
  5
FF0
100
AcDbEntity
  8
10000_FRONT
370
    25
390
0
  6
CONTINUOUS
 62
     7
100
AcDbLine
 10
306.500005
 20
717.0
 30
0.0
 11
306.500005
 21
695.0
 31
0.0
  0
LINE
  5
FF1
100
AcDbEntity
  8
10000_FRONT
370
    25
390
0
  6
CONTINUOUS
 62
     7
100
AcDbLine
 10
289.500005
 20
695.0
 30
0.0
 11
289.500005
 21
717.0
 31
0.0
  0
LINE
  5
FF2
100
AcDbEntity
  8
10000_FRONT
370
    25
390
0
  6
CONTINUOUS
 62
     7
100
AcDbLine
 10
292.500005
 20
692.0
 30
0.0
 11
289.500005
 21
695.0
 31
0.0
  0
LINE
  5
FF3
100
AcDbEntity
  8
10000_FRONT
370
    25
390
0
  6
CONTINUOUS
 62
     7
100
AcDbLine
 10
303.500005
 20
692.0
 30
0.0
 11
292.500005
 21
692.0
 31
0.0
  0
LINE
  5
FF4
100
AcDbEntity
  8
10000_FRONT
370
    25
390
0
  6
CONTINUOUS
 62
     7
100
AcDbLine
 10
306.500005
 20
695.0
 30
0.0
 11
303.500005
 21
692.0
 31
0.0
  0
ARC
  5
FF5
100
AcDbEntity
  8
10000_FRONT
370
    25
390
0
  6
CONTINUOUS
 62
     7
100
AcDbCircle
 10
298.000005
 20
701.0
 30
0.0
 40
4.5
100
AcDbArc
 50
180.0
 51
0.0
  0
ARC
  5
FF6
100
AcDbEntity
  8
10000_FRONT
370
    25
390
0
  6
CONTINUOUS
 62
     7
100
AcDbCircle
 10
298.000005
 20
701.0
 30
0.0
 40
4.5
100
AcDbArc
 50
0.0
 51
180.0
  0
LINE
  5
FF7
100
AcDbEntity
  8
10000_FRONT
370
    25
390
0
  6
CONTINUOUS
 62
     7
100
AcDbLine
 10
269.500005
 20
717.0
 30
0.0
 11
269.500005
 21
695.0
 31
0.0
  0
LINE
  5
FF8
100
AcDbEntity
  8
10000_FRONT
370
    25
390
0
  6
CONTINUOUS
 62
     7
100
AcDbLine
 10
252.500005
 20
695.0
 30
0.0
 11
252.500005
 21
717.0
 31
0.0
  0
LINE
  5
FF9
100
AcDbEntity
  8
10000_FRONT
370
    25
390
0
  6
CONTINUOUS
 62
     7
100
AcDbLine
 10
255.500005
 20
692.0
 30
0.0
 11
252.500005
 21
695.0
 31
0.0
  0
LINE
  5
FFA
100
AcDbEntity
  8
10000_FRONT
370
    25
390
0
  6
CONTINUOUS
 62
     7
100
AcDbLine
 10
266.500005
 20
692.0
 30
0.0
 11
255.500005
 21
692.0
 31
0.0
  0
LINE
  5
FFB
100
AcDbEntity
  8
10000_FRONT
370
    25
390
0
  6
CONTINUOUS
 62
     7
100
AcDbLine
 10
269.500005
 20
695.0
 30
0.0
 11
266.500005
 21
692.0
 31
0.0
  0
ARC
  5
FFC
100
AcDbEntity
  8
10000_FRONT
370
    25
390
0
  6
CONTINUOUS
 62
     7
100
AcDbCircle
 10
261.000005
 20
701.0
 30
0.0
 40
4.5
100
AcDbArc
 50
180.0
 51
0.0
  0
ARC
  5
FFD
100
AcDbEntity
  8
10000_FRONT
370
    25
390
0
  6
CONTINUOUS
 62
     7
100
AcDbCircle
 10
261.000005
 20
701.0
 30
0.0
 40
4.5
100
AcDbArc
 50
0.0
 51
180.0
  0
LINE
  5
FFE
100
AcDbEntity
  8
10000_FRONT
370
    25
390
0
  6
CONTINUOUS
 62
     7
100
AcDbLine
 10
326.500005
 20
865.0
 30
0.0
 11
326.500005
 21
887.0
 31
0.0
  0
LINE
  5
FFF
100
AcDbEntity
  8
10000_FRONT
370
    25
390
0
  6
CONTINUOUS
 62
     7
100
AcDbLine
 10
343.500005
 20
887.0
 30
0.0
 11
343.500005
 21
865.0
 31
0.0
  0
LINE
  5
1000
100
AcDbEntity
  8
10000_FRONT
370
    25
390
0
  6
CONTINUOUS
 62
     7
100
AcDbLine
 10
340.500005
 20
890.0
 30
0.0
 11
343.500005
 21
887.0
 31
0.0
  0
LINE
  5
1001
100
AcDbEntity
  8
10000_FRONT
370
    25
390
0
  6
CONTINUOUS
 62
     7
100
AcDbLine
 10
329.500005
 20
890.0
 30
0.0
 11
340.500005
 21
890.0
 31
0.0
  0
LINE
  5
1002
100
AcDbEntity
  8
10000_FRONT
370
    25
390
0
  6
CONTINUOUS
 62
     7
100
AcDbLine
 10
326.500005
 20
887.0
 30
0.0
 11
329.500005
 21
890.0
 31
0.0
  0
ARC
  5
1003
100
AcDbEntity
  8
10000_FRONT
370
    25
390
0
  6
CONTINUOUS
 62
     7
100
AcDbCircle
 10
335.000005
 20
881.0
 30
0.0
 40
4.5
100
AcDbArc
 50
0.0
 51
180.0
  0
ARC
  5
1004
100
AcDbEntity
  8
10000_FRONT
370
    25
390
0
  6
CONTINUOUS
 62
     7
100
AcDbCircle
 10
335.000005
 20
881.0
 30
0.0
 40
4.5
100
AcDbArc
 50
180.0
 51
0.0
  0
LINE
  5
1005
100
AcDbEntity
  8
10000_FRONT
370
    25
390
0
  6
CONTINUOUS
 62
     7
100
AcDbLine
 10
289.500005
 20
865.0
 30
0.0
 11
289.500005
 21
887.0
 31
0.0
  0
LINE
  5
1006
100
AcDbEntity
  8
10000_FRONT
370
    25
390
0
  6
CONTINUOUS
 62
     7
100
AcDbLine
 10
306.500005
 20
887.0
 30
0.0
 11
306.500005
 21
865.0
 31
0.0
  0
LINE
  5
1007
100
AcDbEntity
  8
10000_FRONT
370
    25
390
0
  6
CONTINUOUS
 62
     7
100
AcDbLine
 10
303.500005
 20
890.0
 30
0.0
 11
306.500005
 21
887.0
 31
0.0
  0
LINE
  5
1008
100
AcDbEntity
  8
10000_FRONT
370
    25
390
0
  6
CONTINUOUS
 62
     7
100
AcDbLine
 10
292.500005
 20
890.0
 30
0.0
 11
303.500005
 21
890.0
 31
0.0
  0
LINE
  5
1009
100
AcDbEntity
  8
10000_FRONT
370
    25
390
0
  6
CONTINUOUS
 62
     7
100
AcDbLine
 10
289.500005
 20
887.0
 30
0.0
 11
292.500005
 21
890.0
 31
0.0
  0
ARC
  5
100A
100
AcDbEntity
  8
10000_FRONT
370
    25
390
0
  6
CONTINUOUS
 62
     7
100
AcDbCircle
 10
298.000005
 20
881.0
 30
0.0
 40
4.5
100
AcDbArc
 50
0.0
 51
180.0
  0
ARC
  5
100B
100
AcDbEntity
  8
10000_FRONT
370
    25
390
0
  6
CONTINUOUS
 62
     7
100
AcDbCircle
 10
298.000005
 20
881.0
 30
0.0
 40
4.5
100
AcDbArc
 50
180.0
 51
0.0
  0
LINE
  5
100C
100
AcDbEntity
  8
10000_FRONT
370
    25
390
0
  6
CONTINUOUS
 62
     7
100
AcDbLine
 10
252.500005
 20
865.0
 30
0.0
 11
252.500005
 21
887.0
 31
0.0
  0
LINE
  5
100D
100
AcDbEntity
  8
10000_FRONT
370
    25
390
0
  6
CONTINUOUS
 62
     7
100
AcDbLine
 10
269.500005
 20
887.0
 30
0.0
 11
269.500005
 21
865.0
 31
0.0
  0
LINE
  5
100E
100
AcDbEntity
  8
10000_FRONT
370
    25
390
0
  6
CONTINUOUS
 62
     7
100
AcDbLine
 10
266.500005
 20
890.0
 30
0.0
 11
269.500005
 21
887.0
 31
0.0
  0
LINE
  5
100F
100
AcDbEntity
  8
10000_FRONT
370
    25
390
0
  6
CONTINUOUS
 62
     7
100
AcDbLine
 10
255.500005
 20
890.0
 30
0.0
 11
266.500005
 21
890.0
 31
0.0
  0
LINE
  5
1010
100
AcDbEntity
  8
10000_FRONT
370
    25
390
0
  6
CONTINUOUS
 62
     7
100
AcDbLine
 10
252.500005
 20
887.0
 30
0.0
 11
255.500005
 21
890.0
 31
0.0
  0
ARC
  5
1011
100
AcDbEntity
  8
10000_FRONT
370
    25
390
0
  6
CONTINUOUS
 62
     7
100
AcDbCircle
 10
261.000005
 20
881.0
 30
0.0
 40
4.5
100
AcDbArc
 50
0.0
 51
180.0
  0
ARC
  5
1012
100
AcDbEntity
  8
10000_FRONT
370
    25
390
0
  6
CONTINUOUS
 62
     7
100
AcDbCircle
 10
261.000005
 20
881.0
 30
0.0
 40
4.5
100
AcDbArc
 50
180.0
 51
0.0
  0
LINE
  5
1013
100
AcDbEntity
  8
10000_FRONT
370
    25
390
0
  6
CONTINUOUS
 62
     7
100
AcDbLine
 10
345.400007
 20
849.200001
 30
0.0
 11
345.400007
 21
865.0
 31
0.0
  0
LINE
  5
1014
100
AcDbEntity
  8
10000_FRONT
370
    25
390
0
  6
CONTINUOUS
 62
     7
100
AcDbLine
 10
308.250005
 20
859.753881
 30
0.0
 11
308.250007
 21
859.003878
 31
0.0
  0
ARC
  5
1015
100
AcDbEntity
  8
10000_FRONT
370
    25
390
0
  6
CONTINUOUS
 62
     7
100
AcDbCircle
 10
306.300005
 20
859.753882
 30
0.0
 40
1.95
100
AcDbArc
 50
0.0
 51
135.885391
  0
ARC
  5
1016
100
AcDbEntity
  8
10000_FRONT
370
    25
390
0
  6
CONTINUOUS
 62
     7
100
AcDbCircle
 10
303.500005
 20
859.753882
 30
0.0
 40
1.95
100
AcDbArc
 50
44.114605
 51
180.0
  0
LINE
  5
1017
100
AcDbEntity
  8
10000_FRONT
370
    25
390
0
  6
CONTINUOUS
 62
     7
100
AcDbLine
 10
301.550004
 20
859.003878
 30
0.0
 11
301.550005
 21
859.753881
 31
0.0
  0
ARC
  5
1018
100
AcDbEntity
  8
10000_FRONT
370
    25
390
0
  6
CONTINUOUS
 62
     7
100
AcDbCircle
 10
303.350004
 20
859.003878
 30
0.0
 40
1.8
100
AcDbArc
 50
180.0
 51
329.441642
  0
ARC
  5
1019
100
AcDbEntity
  8
10000_FRONT
370
    25
390
0
  6
CONTINUOUS
 62
     7
100
AcDbCircle
 10
306.450006
 20
859.003879
 30
0.0
 40
1.8
100
AcDbArc
 50
210.558368
 51
0.0
  0
LINE
  5
101A
100
AcDbEntity
  8
10000_FRONT
370
    25
390
0
  6
CONTINUOUS
 62
     7
100
AcDbLine
 10
315.450006
 20
859.753881
 30
0.0
 11
315.450006
 21
859.003878
 31
0.0
  0
ARC
  5
101B
100
AcDbEntity
  8
10000_FRONT
370
    25
390
0
  6
CONTINUOUS
 62
     7
100
AcDbCircle
 10
313.500005
 20
859.753882
 30
0.0
 40
1.95
100
AcDbArc
 50
0.0
 51
135.885385
  0
ARC
  5
101C
100
AcDbEntity
  8
10000_FRONT
370
    25
390
0
  6
CONTINUOUS
 62
     7
100
AcDbCircle
 10
310.700005
 20
859.753882
 30
0.0
 40
1.95
100
AcDbArc
 50
44.1146
 51
180.0
  0
LINE
  5
101D
100
AcDbEntity
  8
10000_FRONT
370
    25
390
0
  6
CONTINUOUS
 62
     7
100
AcDbLine
 10
308.750003
 20
859.003878
 30
0.0
 11
308.750005
 21
859.753881
 31
0.0
  0
ARC
  5
101E
100
AcDbEntity
  8
10000_FRONT
370
    25
390
0
  6
CONTINUOUS
 62
     7
100
AcDbCircle
 10
310.550004
 20
859.003878
 30
0.0
 40
1.8
100
AcDbArc
 50
180.0
 51
329.441646
  0
ARC
  5
101F
100
AcDbEntity
  8
10000_FRONT
370
    25
390
0
  6
CONTINUOUS
 62
     7
100
AcDbCircle
 10
313.650006
 20
859.003879
 30
0.0
 40
1.8
100
AcDbArc
 50
210.558373
 51
0.0
  0
LINE
  5
1020
100
AcDbEntity
  8
10000_FRONT
370
    25
390
0
  6
CONTINUOUS
 62
     7
100
AcDbLine
 10
322.650005
 20
859.753881
 30
0.0
 11
322.650007
 21
859.003878
 31
0.0
  0
ARC
  5
1021
100
AcDbEntity
  8
10000_FRONT
370
    25
390
0
  6
CONTINUOUS
 62
     7
100
AcDbCircle
 10
320.700005
 20
859.753882
 30
0.0
 40
1.95
100
AcDbArc
 50
0.0
 51
135.885408
  0
ARC
  5
1022
100
AcDbEntity
  8
10000_FRONT
370
    25
390
0
  6
CONTINUOUS
 62
     7
100
AcDbCircle
 10
317.900005
 20
859.753882
 30
0.0
 40
1.95
100
AcDbArc
 50
44.114623
 51
180.0
  0
LINE
  5
1023
100
AcDbEntity
  8
10000_FRONT
370
    25
390
0
  6
CONTINUOUS
 62
     7
100
AcDbLine
 10
315.950004
 20
859.003878
 30
0.0
 11
315.950006
 21
859.753881
 31
0.0
  0
ARC
  5
1024
100
AcDbEntity
  8
10000_FRONT
370
    25
390
0
  6
CONTINUOUS
 62
     7
100
AcDbCircle
 10
317.750004
 20
859.003878
 30
0.0
 40
1.8
100
AcDbArc
 50
180.0
 51
329.441628
  0
ARC
  5
1025
100
AcDbEntity
  8
10000_FRONT
370
    25
390
0
  6
CONTINUOUS
 62
     7
100
AcDbCircle
 10
320.850006
 20
859.003879
 30
0.0
 40
1.8
100
AcDbArc
 50
210.558354
 51
0.0
  0
LINE
  5
1026
100
AcDbEntity
  8
10000_FRONT
370
    25
390
0
  6
CONTINUOUS
 62
     7
100
AcDbLine
 10
329.850005
 20
859.753881
 30
0.0
 11
329.850007
 21
859.003878
 31
0.0
  0
ARC
  5
1027
100
AcDbEntity
  8
10000_FRONT
370
    25
390
0
  6
CONTINUOUS
 62
     7
100
AcDbCircle
 10
327.900005
 20
859.753882
 30
0.0
 40
1.95
100
AcDbArc
 50
0.0
 51
135.885393
  0
ARC
  5
1028
100
AcDbEntity
  8
10000_FRONT
370
    25
390
0
  6
CONTINUOUS
 62
     7
100
AcDbCircle
 10
325.100005
 20
859.753882
 30
0.0
 40
1.95
100
AcDbArc
 50
44.114607
 51
180.0
  0
LINE
  5
1029
100
AcDbEntity
  8
10000_FRONT
370
    25
390
0
  6
CONTINUOUS
 62
     7
100
AcDbLine
 10
323.150003
 20
859.003878
 30
0.0
 11
323.150005
 21
859.753881
 31
0.0
  0
ARC
  5
102A
100
AcDbEntity
  8
10000_FRONT
370
    25
390
0
  6
CONTINUOUS
 62
     7
100
AcDbCircle
 10
324.950004
 20
859.003878
 30
0.0
 40
1.8
100
AcDbArc
 50
180.0
 51
329.44164
  0
ARC
  5
102B
100
AcDbEntity
  8
10000_FRONT
370
    25
390
0
  6
CONTINUOUS
 62
     7
100
AcDbCircle
 10
328.050006
 20
859.003879
 30
0.0
 40
1.8
100
AcDbArc
 50
210.558366
 51
0.0
  0
LINE
  5
102C
100
AcDbEntity
  8
10000_FRONT
370
    25
390
0
  6
CONTINUOUS
 62
     7
100
AcDbLine
 10
337.050004
 20
859.753881
 30
0.0
 11
337.050008
 21
859.003878
 31
0.0
  0
ARC
  5
102D
100
AcDbEntity
  8
10000_FRONT
370
    25
390
0
  6
CONTINUOUS
 62
     7
100
AcDbCircle
 10
335.100005
 20
859.753882
 30
0.0
 40
1.95
100
AcDbArc
 50
0.0
 51
135.885377
  0
ARC
  5
102E
100
AcDbEntity
  8
10000_FRONT
370
    25
390
0
  6
CONTINUOUS
 62
     7
100
AcDbCircle
 10
332.300005
 20
859.753882
 30
0.0
 40
1.95
100
AcDbArc
 50
44.114592
 51
180.0
  0
LINE
  5
102F
100
AcDbEntity
  8
10000_FRONT
370
    25
390
0
  6
CONTINUOUS
 62
     7
100
AcDbLine
 10
330.350003
 20
859.003878
 30
0.0
 11
330.350003
 21
859.753881
 31
0.0
  0
ARC
  5
1030
100
AcDbEntity
  8
10000_FRONT
370
    25
390
0
  6
CONTINUOUS
 62
     7
100
AcDbCircle
 10
332.150004
 20
859.003878
 30
0.0
 40
1.8
100
AcDbArc
 50
180.0
 51
329.441653
  0
ARC
  5
1031
100
AcDbEntity
  8
10000_FRONT
370
    25
390
0
  6
CONTINUOUS
 62
     7
100
AcDbCircle
 10
335.250006
 20
859.003879
 30
0.0
 40
1.8
100
AcDbArc
 50
210.558379
 51
0.0
  0
LINE
  5
1032
100
AcDbEntity
  8
10000_FRONT
370
    25
390
0
  6
CONTINUOUS
 62
     7
100
AcDbLine
 10
344.250005
 20
859.753881
 30
0.0
 11
344.250005
 21
859.003878
 31
0.0
  0
ARC
  5
1033
100
AcDbEntity
  8
10000_FRONT
370
    25
390
0
  6
CONTINUOUS
 62
     7
100
AcDbCircle
 10
342.300005
 20
859.753882
 30
0.0
 40
1.95
100
AcDbArc
 50
0.0
 51
135.885361
  0
ARC
  5
1034
100
AcDbEntity
  8
10000_FRONT
370
    25
390
0
  6
CONTINUOUS
 62
     7
100
AcDbCircle
 10
339.500005
 20
859.753882
 30
0.0
 40
1.95
100
AcDbArc
 50
44.114576
 51
180.0
  0
LINE
  5
1035
100
AcDbEntity
  8
10000_FRONT
370
    25
390
0
  6
CONTINUOUS
 62
     7
100
AcDbLine
 10
337.550004
 20
859.003878
 30
0.0
 11
337.550004
 21
859.753881
 31
0.0
  0
ARC
  5
1036
100
AcDbEntity
  8
10000_FRONT
370
    25
390
0
  6
CONTINUOUS
 62
     7
100
AcDbCircle
 10
339.350004
 20
859.003878
 30
0.0
 40
1.8
100
AcDbArc
 50
180.0
 51
329.441665
  0
ARC
  5
1037
100
AcDbEntity
  8
10000_FRONT
370
    25
390
0
  6
CONTINUOUS
 62
     7
100
AcDbCircle
 10
342.450006
 20
859.003879
 30
0.0
 40
1.8
100
AcDbArc
 50
210.558391
 51
0.0
  0
LINE
  5
1038
100
AcDbEntity
  8
10000_FRONT
370
    25
390
0
  6
CONTINUOUS
 62
     7
100
AcDbLine
 10
300.400005
 20
865.0
 30
0.0
 11
345.400007
 21
865.0
 31
0.0
  0
LINE
  5
1039
100
AcDbEntity
  8
10000_FRONT
370
    25
390
0
  6
CONTINUOUS
 62
     7
100
AcDbLine
 10
300.400005
 20
849.200001
 30
0.0
 11
345.400007
 21
849.200001
 31
0.0
  0
LINE
  5
103A
100
AcDbEntity
  8
10000_FRONT
370
    25
390
0
  6
CONTINUOUS
 62
     7
100
AcDbLine
 10
300.400005
 20
865.0
 30
0.0
 11
300.400005
 21
849.200001
 31
0.0
  0
LINE
  5
103B
100
AcDbEntity
  8
10000_FRONT
370
    25
390
0
  6
CONTINUOUS
 62
     7
100
AcDbLine
 10
295.600005
 20
849.200001
 30
0.0
 11
295.600005
 21
865.0
 31
0.0
  0
LINE
  5
103C
100
AcDbEntity
  8
10000_FRONT
370
    25
390
0
  6
CONTINUOUS
 62
     7
100
AcDbLine
 10
258.450006
 20
859.753881
 30
0.0
 11
258.450006
 21
859.003878
 31
0.0
  0
ARC
  5
103D
100
AcDbEntity
  8
10000_FRONT
370
    25
390
0
  6
CONTINUOUS
 62
     7
100
AcDbCircle
 10
256.500005
 20
859.753882
 30
0.0
 40
1.95
100
AcDbArc
 50
0.0
 51
135.885424
  0
ARC
  5
103E
100
AcDbEntity
  8
10000_FRONT
370
    25
390
0
  6
CONTINUOUS
 62
     7
100
AcDbCircle
 10
253.700005
 20
859.753882
 30
0.0
 40
1.95
100
AcDbArc
 50
44.114639
 51
180.0
  0
LINE
  5
103F
100
AcDbEntity
  8
10000_FRONT
370
    25
390
0
  6
CONTINUOUS
 62
     7
100
AcDbLine
 10
251.750005
 20
859.003878
 30
0.0
 11
251.750005
 21
859.753881
 31
0.0
  0
ARC
  5
1040
100
AcDbEntity
  8
10000_FRONT
370
    25
390
0
  6
CONTINUOUS
 62
     7
100
AcDbCircle
 10
253.550004
 20
859.003878
 30
0.0
 40
1.8
100
AcDbArc
 50
180.0
 51
329.441616
  0
ARC
  5
1041
100
AcDbEntity
  8
10000_FRONT
370
    25
390
0
  6
CONTINUOUS
 62
     7
100
AcDbCircle
 10
256.650006
 20
859.003879
 30
0.0
 40
1.8
100
AcDbArc
 50
210.558342
 51
0.0
  0
LINE
  5
1042
100
AcDbEntity
  8
10000_FRONT
370
    25
390
0
  6
CONTINUOUS
 62
     7
100
AcDbLine
 10
265.650007
 20
859.753881
 30
0.0
 11
265.650007
 21
859.003878
 31
0.0
  0
ARC
  5
1043
100
AcDbEntity
  8
10000_FRONT
370
    25
390
0
  6
CONTINUOUS
 62
     7
100
AcDbCircle
 10
263.700005
 20
859.753882
 30
0.0
 40
1.95
100
AcDbArc
 50
0.0
 51
135.885408
  0
ARC
  5
1044
100
AcDbEntity
  8
10000_FRONT
370
    25
390
0
  6
CONTINUOUS
 62
     7
100
AcDbCircle
 10
260.900005
 20
859.753882
 30
0.0
 40
1.95
100
AcDbArc
 50
44.114623
 51
180.0
  0
LINE
  5
1045
100
AcDbEntity
  8
10000_FRONT
370
    25
390
0
  6
CONTINUOUS
 62
     7
100
AcDbLine
 10
258.950002
 20
859.003878
 30
0.0
 11
258.950006
 21
859.753881
 31
0.0
  0
ARC
  5
1046
100
AcDbEntity
  8
10000_FRONT
370
    25
390
0
  6
CONTINUOUS
 62
     7
100
AcDbCircle
 10
260.750004
 20
859.003878
 30
0.0
 40
1.8
100
AcDbArc
 50
180.0
 51
329.441628
  0
ARC
  5
1047
100
AcDbEntity
  8
10000_FRONT
370
    25
390
0
  6
CONTINUOUS
 62
     7
100
AcDbCircle
 10
263.850006
 20
859.003879
 30
0.0
 40
1.8
100
AcDbArc
 50
210.558354
 51
0.0
  0
LINE
  5
1048
100
AcDbEntity
  8
10000_FRONT
370
    25
390
0
  6
CONTINUOUS
 62
     7
100
AcDbLine
 10
272.850005
 20
859.753881
 30
0.0
 11
272.850007
 21
859.003878
 31
0.0
  0
ARC
  5
1049
100
AcDbEntity
  8
10000_FRONT
370
    25
390
0
  6
CONTINUOUS
 62
     7
100
AcDbCircle
 10
270.900005
 20
859.753882
 30
0.0
 40
1.95
100
AcDbArc
 50
0.0
 51
135.885393
  0
ARC
  5
104A
100
AcDbEntity
  8
10000_FRONT
370
    25
390
0
  6
CONTINUOUS
 62
     7
100
AcDbCircle
 10
268.100005
 20
859.753882
 30
0.0
 40
1.95
100
AcDbArc
 50
44.114607
 51
180.0
  0
LINE
  5
104B
100
AcDbEntity
  8
10000_FRONT
370
    25
390
0
  6
CONTINUOUS
 62
     7
100
AcDbLine
 10
266.150003
 20
859.003878
 30
0.0
 11
266.150005
 21
859.753881
 31
0.0
  0
ARC
  5
104C
100
AcDbEntity
  8
10000_FRONT
370
    25
390
0
  6
CONTINUOUS
 62
     7
100
AcDbCircle
 10
267.950004
 20
859.003878
 30
0.0
 40
1.8
100
AcDbArc
 50
180.0
 51
329.44164
  0
ARC
  5
104D
100
AcDbEntity
  8
10000_FRONT
370
    25
390
0
  6
CONTINUOUS
 62
     7
100
AcDbCircle
 10
271.050006
 20
859.003879
 30
0.0
 40
1.8
100
AcDbArc
 50
210.558366
 51
0.0
  0
LINE
  5
104E
100
AcDbEntity
  8
10000_FRONT
370
    25
390
0
  6
CONTINUOUS
 62
     7
100
AcDbLine
 10
280.050004
 20
859.753881
 30
0.0
 11
280.050006
 21
859.003878
 31
0.0
  0
ARC
  5
104F
100
AcDbEntity
  8
10000_FRONT
370
    25
390
0
  6
CONTINUOUS
 62
     7
100
AcDbCircle
 10
278.100005
 20
859.753882
 30
0.0
 40
1.95
100
AcDbArc
 50
0.0
 51
135.885377
  0
ARC
  5
1050
100
AcDbEntity
  8
10000_FRONT
370
    25
390
0
  6
CONTINUOUS
 62
     7
100
AcDbCircle
 10
275.300005
 20
859.753882
 30
0.0
 40
1.95
100
AcDbArc
 50
44.114592
 51
180.0
  0
LINE
  5
1051
100
AcDbEntity
  8
10000_FRONT
370
    25
390
0
  6
CONTINUOUS
 62
     7
100
AcDbLine
 10
273.350003
 20
859.003878
 30
0.0
 11
273.350005
 21
859.753881
 31
0.0
  0
ARC
  5
1052
100
AcDbEntity
  8
10000_FRONT
370
    25
390
0
  6
CONTINUOUS
 62
     7
100
AcDbCircle
 10
275.150004
 20
859.003878
 30
0.0
 40
1.8
100
AcDbArc
 50
180.0
 51
329.441653
  0
ARC
  5
1053
100
AcDbEntity
  8
10000_FRONT
370
    25
390
0
  6
CONTINUOUS
 62
     7
100
AcDbCircle
 10
278.250006
 20
859.003879
 30
0.0
 40
1.8
100
AcDbArc
 50
210.558379
 51
0.0
  0
LINE
  5
1054
100
AcDbEntity
  8
10000_FRONT
370
    25
390
0
  6
CONTINUOUS
 62
     7
100
AcDbLine
 10
287.250005
 20
859.753881
 30
0.0
 11
287.250007
 21
859.003878
 31
0.0
  0
ARC
  5
1055
100
AcDbEntity
  8
10000_FRONT
370
    25
390
0
  6
CONTINUOUS
 62
     7
100
AcDbCircle
 10
285.300005
 20
859.753882
 30
0.0
 40
1.95
100
AcDbArc
 50
0.0
 51
135.8854
  0
ARC
  5
1056
100
AcDbEntity
  8
10000_FRONT
370
    25
390
0
  6
CONTINUOUS
 62
     7
100
AcDbCircle
 10
282.500005
 20
859.753882
 30
0.0
 40
1.95
100
AcDbArc
 50
44.114615
 51
180.0
  0
LINE
  5
1057
100
AcDbEntity
  8
10000_FRONT
370
    25
390
0
  6
CONTINUOUS
 62
     7
100
AcDbLine
 10
280.550004
 20
859.003878
 30
0.0
 11
280.550004
 21
859.753881
 31
0.0
  0
ARC
  5
1058
100
AcDbEntity
  8
10000_FRONT
370
    25
390
0
  6
CONTINUOUS
 62
     7
100
AcDbCircle
 10
282.350004
 20
859.003878
 30
0.0
 40
1.8
100
AcDbArc
 50
180.0
 51
329.441634
  0
ARC
  5
1059
100
AcDbEntity
  8
10000_FRONT
370
    25
390
0
  6
CONTINUOUS
 62
     7
100
AcDbCircle
 10
285.450006
 20
859.003879
 30
0.0
 40
1.8
100
AcDbArc
 50
210.55836
 51
0.0
  0
LINE
  5
105A
100
AcDbEntity
  8
10000_FRONT
370
    25
390
0
  6
CONTINUOUS
 62
     7
100
AcDbLine
 10
294.450005
 20
859.753881
 30
0.0
 11
294.450006
 21
859.003878
 31
0.0
  0
ARC
  5
105B
100
AcDbEntity
  8
10000_FRONT
370
    25
390
0
  6
CONTINUOUS
 62
     7
100
AcDbCircle
 10
292.500005
 20
859.753882
 30
0.0
 40
1.95
100
AcDbArc
 50
0.0
 51
135.885395
  0
ARC
  5
105C
100
AcDbEntity
  8
10000_FRONT
370
    25
390
0
  6
CONTINUOUS
 62
     7
100
AcDbCircle
 10
289.700005
 20
859.753882
 30
0.0
 40
1.95
100
AcDbArc
 50
44.114609
 51
180.0
  0
LINE
  5
105D
100
AcDbEntity
  8
10000_FRONT
370
    25
390
0
  6
CONTINUOUS
 62
     7
100
AcDbLine
 10
287.750003
 20
859.003878
 30
0.0
 11
287.750005
 21
859.753881
 31
0.0
  0
ARC
  5
105E
100
AcDbEntity
  8
10000_FRONT
370
    25
390
0
  6
CONTINUOUS
 62
     7
100
AcDbCircle
 10
289.550004
 20
859.003878
 30
0.0
 40
1.8
100
AcDbArc
 50
180.0
 51
329.441639
  0
ARC
  5
105F
100
AcDbEntity
  8
10000_FRONT
370
    25
390
0
  6
CONTINUOUS
 62
     7
100
AcDbCircle
 10
292.650006
 20
859.003879
 30
0.0
 40
1.8
100
AcDbArc
 50
210.558365
 51
0.0
  0
LINE
  5
1060
100
AcDbEntity
  8
10000_FRONT
370
    25
390
0
  6
CONTINUOUS
 62
     7
100
AcDbLine
 10
250.600003
 20
865.0
 30
0.0
 11
295.600005
 21
865.0
 31
0.0
  0
LINE
  5
1061
100
AcDbEntity
  8
10000_FRONT
370
    25
390
0
  6
CONTINUOUS
 62
     7
100
AcDbLine
 10
250.600003
 20
849.200001
 30
0.0
 11
295.600005
 21
849.200001
 31
0.0
  0
LINE
  5
1062
100
AcDbEntity
  8
10000_FRONT
370
    25
390
0
  6
CONTINUOUS
 62
     7
100
AcDbLine
 10
250.600003
 20
865.0
 30
0.0
 11
250.600003
 21
849.200001
 31
0.0
  0
LINE
  5
1063
100
AcDbEntity
  8
10000_FRONT
370
    25
390
0
  6
CONTINUOUS
 62
     7
100
AcDbLine
 10
300.300005
 20
851.0
 30
0.0
 11
300.300005
 21
864.5
 31
0.0
  0
LINE
  5
1064
100
AcDbEntity
  8
10000_FRONT
370
    25
390
0
  6
CONTINUOUS
 62
     7
100
AcDbLine
 10
300.300005
 20
864.5
 30
0.0
 11
300.300005
 21
865.0
 31
0.0
  0
LINE
  5
1065
100
AcDbEntity
  8
10000_FRONT
370
    25
390
0
  6
CONTINUOUS
 62
     7
100
AcDbLine
 10
285.800005
 20
756.599998
 30
0.0
 11
285.804351
 21
756.790154
 31
0.0
  0
LINE
  5
1066
100
AcDbEntity
  8
10000_FRONT
370
    25
390
0
  6
CONTINUOUS
 62
     7
100
AcDbLine
 10
285.804351
 20
756.790154
 30
0.0
 11
285.817537
 21
756.982544
 31
0.0
  0
LINE
  5
1067
100
AcDbEntity
  8
10000_FRONT
370
    25
390
0
  6
CONTINUOUS
 62
     7
100
AcDbLine
 10
285.817537
 20
756.982544
 30
0.0
 11
285.839782
 21
757.176308
 31
0.0
  0
LINE
  5
1068
100
AcDbEntity
  8
10000_FRONT
370
    25
390
0
  6
CONTINUOUS
 62
     7
100
AcDbLine
 10
285.839782
 20
757.176308
 30
0.0
 11
285.871305
 21
757.37059
 31
0.0
  0
LINE
  5
1069
100
AcDbEntity
  8
10000_FRONT
370
    25
390
0
  6
CONTINUOUS
 62
     7
100
AcDbLine
 10
285.871305
 20
757.37059
 30
0.0
 11
285.912292
 21
757.56456
 31
0.0
  0
LINE
  5
106A
100
AcDbEntity
  8
10000_FRONT
370
    25
390
0
  6
CONTINUOUS
 62
     7
100
AcDbLine
 10
285.912292
 20
757.56456
 30
0.0
 11
285.962695
 21
757.757401
 31
0.0
  0
LINE
  5
106B
100
AcDbEntity
  8
10000_FRONT
370
    25
390
0
  6
CONTINUOUS
 62
     7
100
AcDbLine
 10
285.962695
 20
757.757401
 30
0.0
 11
286.022372
 21
757.948326
 31
0.0
  0
LINE
  5
106C
100
AcDbEntity
  8
10000_FRONT
370
    25
390
0
  6
CONTINUOUS
 62
     7
100
AcDbLine
 10
286.022372
 20
757.948326
 30
0.0
 11
286.091182
 21
758.136566
 31
0.0
  0
LINE
  5
106D
100
AcDbEntity
  8
10000_FRONT
370
    25
390
0
  6
CONTINUOUS
 62
     7
100
AcDbLine
 10
286.091182
 20
758.136566
 30
0.0
 11
286.168979
 21
758.321365
 31
0.0
  0
LINE
  5
106E
100
AcDbEntity
  8
10000_FRONT
370
    25
390
0
  6
CONTINUOUS
 62
     7
100
AcDbLine
 10
286.168979
 20
758.321365
 30
0.0
 11
286.255483
 21
758.502113
 31
0.0
  0
LINE
  5
106F
100
AcDbEntity
  8
10000_FRONT
370
    25
390
0
  6
CONTINUOUS
 62
     7
100
AcDbLine
 10
286.255483
 20
758.502113
 30
0.0
 11
286.35025
 21
758.678169
 31
0.0
  0
LINE
  5
1070
100
AcDbEntity
  8
10000_FRONT
370
    25
390
0
  6
CONTINUOUS
 62
     7
100
AcDbLine
 10
286.35025
 20
758.678169
 30
0.0
 11
286.45283
 21
758.848869
 31
0.0
  0
LINE
  5
1071
100
AcDbEntity
  8
10000_FRONT
370
    25
390
0
  6
CONTINUOUS
 62
     7
100
AcDbLine
 10
286.45283
 20
758.848869
 30
0.0
 11
286.562767
 21
759.013565
 31
0.0
  0
LINE
  5
1072
100
AcDbEntity
  8
10000_FRONT
370
    25
390
0
  6
CONTINUOUS
 62
     7
100
AcDbLine
 10
286.562767
 20
759.013565
 30
0.0
 11
286.67948
 21
759.171692
 31
0.0
  0
LINE
  5
1073
100
AcDbEntity
  8
10000_FRONT
370
    25
390
0
  6
CONTINUOUS
 62
     7
100
AcDbLine
 10
286.67948
 20
759.171692
 30
0.0
 11
286.802222
 21
759.322792
 31
0.0
  0
LINE
  5
1074
100
AcDbEntity
  8
10000_FRONT
370
    25
390
0
  6
CONTINUOUS
 62
     7
100
AcDbLine
 10
286.802222
 20
759.322792
 30
0.0
 11
286.930234
 21
759.466408
 31
0.0
  0
LINE
  5
1075
100
AcDbEntity
  8
10000_FRONT
370
    25
390
0
  6
CONTINUOUS
 62
     7
100
AcDbLine
 10
286.930234
 20
759.466408
 30
0.0
 11
287.062884
 21
759.602211
 31
0.0
  0
LINE
  5
1076
100
AcDbEntity
  8
10000_FRONT
370
    25
390
0
  6
CONTINUOUS
 62
     7
100
AcDbLine
 10
287.062884
 20
759.602211
 30
0.0
 11
287.202478
 21
759.732635
 31
0.0
  0
LINE
  5
1077
100
AcDbEntity
  8
10000_FRONT
370
    25
390
0
  6
CONTINUOUS
 62
     7
100
AcDbLine
 10
287.202478
 20
759.732635
 30
0.0
 11
287.349808
 21
759.858192
 31
0.0
  0
LINE
  5
1078
100
AcDbEntity
  8
10000_FRONT
370
    25
390
0
  6
CONTINUOUS
 62
     7
100
AcDbLine
 10
287.349808
 20
759.858192
 30
0.0
 11
287.504425
 21
759.978134
 31
0.0
  0
LINE
  5
1079
100
AcDbEntity
  8
10000_FRONT
370
    25
390
0
  6
CONTINUOUS
 62
     7
100
AcDbLine
 10
287.504425
 20
759.978134
 30
0.0
 11
287.665879
 21
760.091682
 31
0.0
  0
LINE
  5
107A
100
AcDbEntity
  8
10000_FRONT
370
    25
390
0
  6
CONTINUOUS
 62
     7
100
AcDbLine
 10
287.665879
 20
760.091682
 30
0.0
 11
287.833676
 21
760.198151
 31
0.0
  0
LINE
  5
107B
100
AcDbEntity
  8
10000_FRONT
370
    25
390
0
  6
CONTINUOUS
 62
     7
100
AcDbLine
 10
287.833676
 20
760.198151
 30
0.0
 11
288.007185
 21
760.297035
 31
0.0
  0
LINE
  5
107C
100
AcDbEntity
  8
10000_FRONT
370
    25
390
0
  6
CONTINUOUS
 62
     7
100
AcDbLine
 10
288.007185
 20
760.297035
 30
0.0
 11
288.185749
 21
760.387894
 31
0.0
  0
LINE
  5
107D
100
AcDbEntity
  8
10000_FRONT
370
    25
390
0
  6
CONTINUOUS
 62
     7
100
AcDbLine
 10
288.185749
 20
760.387894
 30
0.0
 11
288.36871
 21
760.470253
 31
0.0
  0
LINE
  5
107E
100
AcDbEntity
  8
10000_FRONT
370
    25
390
0
  6
CONTINUOUS
 62
     7
100
AcDbLine
 10
288.36871
 20
760.470253
 30
0.0
 11
288.55545
 21
760.543732
 31
0.0
  0
LINE
  5
107F
100
AcDbEntity
  8
10000_FRONT
370
    25
390
0
  6
CONTINUOUS
 62
     7
100
AcDbLine
 10
288.55545
 20
760.543732
 30
0.0
 11
288.7453
 21
760.608131
 31
0.0
  0
LINE
  5
1080
100
AcDbEntity
  8
10000_FRONT
370
    25
390
0
  6
CONTINUOUS
 62
     7
100
AcDbLine
 10
288.7453
 20
760.608131
 30
0.0
 11
288.937474
 21
760.663322
 31
0.0
  0
LINE
  5
1081
100
AcDbEntity
  8
10000_FRONT
370
    25
390
0
  6
CONTINUOUS
 62
     7
100
AcDbLine
 10
288.937474
 20
760.663322
 30
0.0
 11
289.131189
 21
760.709152
 31
0.0
  0
LINE
  5
1082
100
AcDbEntity
  8
10000_FRONT
370
    25
390
0
  6
CONTINUOUS
 62
     7
100
AcDbLine
 10
289.131189
 20
760.709152
 30
0.0
 11
289.325651
 21
760.745483
 31
0.0
  0
LINE
  5
1083
100
AcDbEntity
  8
10000_FRONT
370
    25
390
0
  6
CONTINUOUS
 62
     7
100
AcDbLine
 10
289.325651
 20
760.745483
 30
0.0
 11
289.520033
 21
760.772415
 31
0.0
  0
LINE
  5
1084
100
AcDbEntity
  8
10000_FRONT
370
    25
390
0
  6
CONTINUOUS
 62
     7
100
AcDbLine
 10
289.520033
 20
760.772415
 30
0.0
 11
289.713476
 21
760.790154
 31
0.0
  0
LINE
  5
1085
100
AcDbEntity
  8
10000_FRONT
370
    25
390
0
  6
CONTINUOUS
 62
     7
100
AcDbLine
 10
289.713476
 20
760.790154
 30
0.0
 11
289.905123
 21
760.798912
 31
0.0
  0
LINE
  5
1086
100
AcDbEntity
  8
10000_FRONT
370
    25
390
0
  6
CONTINUOUS
 62
     7
100
AcDbLine
 10
289.905123
 20
760.798912
 30
0.0
 11
290.094887
 21
760.798912
 31
0.0
  0
LINE
  5
1087
100
AcDbEntity
  8
10000_FRONT
370
    25
390
0
  6
CONTINUOUS
 62
     7
100
AcDbLine
 10
290.094887
 20
760.798912
 30
0.0
 11
290.286534
 21
760.790154
 31
0.0
  0
LINE
  5
1088
100
AcDbEntity
  8
10000_FRONT
370
    25
390
0
  6
CONTINUOUS
 62
     7
100
AcDbLine
 10
290.286534
 20
760.790154
 30
0.0
 11
290.479977
 21
760.772415
 31
0.0
  0
LINE
  5
1089
100
AcDbEntity
  8
10000_FRONT
370
    25
390
0
  6
CONTINUOUS
 62
     7
100
AcDbLine
 10
290.479977
 20
760.772415
 30
0.0
 11
290.674359
 21
760.745483
 31
0.0
  0
LINE
  5
108A
100
AcDbEntity
  8
10000_FRONT
370
    25
390
0
  6
CONTINUOUS
 62
     7
100
AcDbLine
 10
290.674359
 20
760.745483
 30
0.0
 11
290.868822
 21
760.709152
 31
0.0
  0
LINE
  5
108B
100
AcDbEntity
  8
10000_FRONT
370
    25
390
0
  6
CONTINUOUS
 62
     7
100
AcDbLine
 10
290.868822
 20
760.709152
 30
0.0
 11
291.062536
 21
760.663322
 31
0.0
  0
LINE
  5
108C
100
AcDbEntity
  8
10000_FRONT
370
    25
390
0
  6
CONTINUOUS
 62
     7
100
AcDbLine
 10
291.062536
 20
760.663322
 30
0.0
 11
291.25471
 21
760.608131
 31
0.0
  0
LINE
  5
108D
100
AcDbEntity
  8
10000_FRONT
370
    25
390
0
  6
CONTINUOUS
 62
     7
100
AcDbLine
 10
291.25471
 20
760.608131
 30
0.0
 11
291.44456
 21
760.543732
 31
0.0
  0
LINE
  5
108E
100
AcDbEntity
  8
10000_FRONT
370
    25
390
0
  6
CONTINUOUS
 62
     7
100
AcDbLine
 10
291.44456
 20
760.543732
 30
0.0
 11
291.6313
 21
760.470253
 31
0.0
  0
LINE
  5
108F
100
AcDbEntity
  8
10000_FRONT
370
    25
390
0
  6
CONTINUOUS
 62
     7
100
AcDbLine
 10
291.6313
 20
760.470253
 30
0.0
 11
291.814261
 21
760.387894
 31
0.0
  0
LINE
  5
1090
100
AcDbEntity
  8
10000_FRONT
370
    25
390
0
  6
CONTINUOUS
 62
     7
100
AcDbLine
 10
291.814261
 20
760.387894
 30
0.0
 11
291.992825
 21
760.297035
 31
0.0
  0
LINE
  5
1091
100
AcDbEntity
  8
10000_FRONT
370
    25
390
0
  6
CONTINUOUS
 62
     7
100
AcDbLine
 10
291.992825
 20
760.297035
 30
0.0
 11
292.166334
 21
760.198151
 31
0.0
  0
LINE
  5
1092
100
AcDbEntity
  8
10000_FRONT
370
    25
390
0
  6
CONTINUOUS
 62
     7
100
AcDbLine
 10
292.166334
 20
760.198151
 30
0.0
 11
292.334131
 21
760.091682
 31
0.0
  0
LINE
  5
1093
100
AcDbEntity
  8
10000_FRONT
370
    25
390
0
  6
CONTINUOUS
 62
     7
100
AcDbLine
 10
292.334131
 20
760.091682
 30
0.0
 11
292.495585
 21
759.978134
 31
0.0
  0
LINE
  5
1094
100
AcDbEntity
  8
10000_FRONT
370
    25
390
0
  6
CONTINUOUS
 62
     7
100
AcDbLine
 10
292.495585
 20
759.978134
 30
0.0
 11
292.650202
 21
759.858192
 31
0.0
  0
LINE
  5
1095
100
AcDbEntity
  8
10000_FRONT
370
    25
390
0
  6
CONTINUOUS
 62
     7
100
AcDbLine
 10
292.650202
 20
759.858192
 30
0.0
 11
292.797533
 21
759.732635
 31
0.0
  0
LINE
  5
1096
100
AcDbEntity
  8
10000_FRONT
370
    25
390
0
  6
CONTINUOUS
 62
     7
100
AcDbLine
 10
292.797533
 20
759.732635
 30
0.0
 11
292.937126
 21
759.602211
 31
0.0
  0
LINE
  5
1097
100
AcDbEntity
  8
10000_FRONT
370
    25
390
0
  6
CONTINUOUS
 62
     7
100
AcDbLine
 10
292.937126
 20
759.602211
 30
0.0
 11
293.069776
 21
759.466408
 31
0.0
  0
LINE
  5
1098
100
AcDbEntity
  8
10000_FRONT
370
    25
390
0
  6
CONTINUOUS
 62
     7
100
AcDbLine
 10
293.069776
 20
759.466408
 30
0.0
 11
293.197788
 21
759.322792
 31
0.0
  0
LINE
  5
1099
100
AcDbEntity
  8
10000_FRONT
370
    25
390
0
  6
CONTINUOUS
 62
     7
100
AcDbLine
 10
293.197788
 20
759.322792
 30
0.0
 11
293.32053
 21
759.171692
 31
0.0
  0
LINE
  5
109A
100
AcDbEntity
  8
10000_FRONT
370
    25
390
0
  6
CONTINUOUS
 62
     7
100
AcDbLine
 10
293.32053
 20
759.171692
 30
0.0
 11
293.437243
 21
759.013565
 31
0.0
  0
LINE
  5
109B
100
AcDbEntity
  8
10000_FRONT
370
    25
390
0
  6
CONTINUOUS
 62
     7
100
AcDbLine
 10
293.437243
 20
759.013565
 30
0.0
 11
293.547181
 21
758.848869
 31
0.0
  0
LINE
  5
109C
100
AcDbEntity
  8
10000_FRONT
370
    25
390
0
  6
CONTINUOUS
 62
     7
100
AcDbLine
 10
293.547181
 20
758.848869
 30
0.0
 11
293.64976
 21
758.678169
 31
0.0
  0
LINE
  5
109D
100
AcDbEntity
  8
10000_FRONT
370
    25
390
0
  6
CONTINUOUS
 62
     7
100
AcDbLine
 10
293.64976
 20
758.678169
 30
0.0
 11
293.744527
 21
758.502113
 31
0.0
  0
LINE
  5
109E
100
AcDbEntity
  8
10000_FRONT
370
    25
390
0
  6
CONTINUOUS
 62
     7
100
AcDbLine
 10
293.744527
 20
758.502113
 30
0.0
 11
293.831031
 21
758.321365
 31
0.0
  0
LINE
  5
109F
100
AcDbEntity
  8
10000_FRONT
370
    25
390
0
  6
CONTINUOUS
 62
     7
100
AcDbLine
 10
293.831031
 20
758.321365
 30
0.0
 11
293.908828
 21
758.136566
 31
0.0
  0
LINE
  5
10A0
100
AcDbEntity
  8
10000_FRONT
370
    25
390
0
  6
CONTINUOUS
 62
     7
100
AcDbLine
 10
293.908828
 20
758.136566
 30
0.0
 11
293.977638
 21
757.948326
 31
0.0
  0
LINE
  5
10A1
100
AcDbEntity
  8
10000_FRONT
370
    25
390
0
  6
CONTINUOUS
 62
     7
100
AcDbLine
 10
293.977638
 20
757.948326
 30
0.0
 11
294.037315
 21
757.757401
 31
0.0
  0
LINE
  5
10A2
100
AcDbEntity
  8
10000_FRONT
370
    25
390
0
  6
CONTINUOUS
 62
     7
100
AcDbLine
 10
294.037315
 20
757.757401
 30
0.0
 11
294.087718
 21
757.56456
 31
0.0
  0
LINE
  5
10A3
100
AcDbEntity
  8
10000_FRONT
370
    25
390
0
  6
CONTINUOUS
 62
     7
100
AcDbLine
 10
294.087718
 20
757.56456
 30
0.0
 11
294.128705
 21
757.37059
 31
0.0
  0
LINE
  5
10A4
100
AcDbEntity
  8
10000_FRONT
370
    25
390
0
  6
CONTINUOUS
 62
     7
100
AcDbLine
 10
294.128705
 20
757.37059
 30
0.0
 11
294.160228
 21
757.176308
 31
0.0
  0
LINE
  5
10A5
100
AcDbEntity
  8
10000_FRONT
370
    25
390
0
  6
CONTINUOUS
 62
     7
100
AcDbLine
 10
294.160228
 20
757.176308
 30
0.0
 11
294.182473
 21
756.982544
 31
0.0
  0
LINE
  5
10A6
100
AcDbEntity
  8
10000_FRONT
370
    25
390
0
  6
CONTINUOUS
 62
     7
100
AcDbLine
 10
294.182473
 20
756.982544
 30
0.0
 11
294.195659
 21
756.790154
 31
0.0
  0
LINE
  5
10A7
100
AcDbEntity
  8
10000_FRONT
370
    25
390
0
  6
CONTINUOUS
 62
     7
100
AcDbLine
 10
294.195659
 20
756.790154
 30
0.0
 11
294.200005
 21
756.599998
 31
0.0
  0
LINE
  5
10A8
100
AcDbEntity
  8
10000_FRONT
370
    25
390
0
  6
CONTINUOUS
 62
     7
100
AcDbLine
 10
301.800005
 20
756.599998
 30
0.0
 11
301.804351
 21
756.790154
 31
0.0
  0
LINE
  5
10A9
100
AcDbEntity
  8
10000_FRONT
370
    25
390
0
  6
CONTINUOUS
 62
     7
100
AcDbLine
 10
301.804351
 20
756.790154
 30
0.0
 11
301.817537
 21
756.982544
 31
0.0
  0
LINE
  5
10AA
100
AcDbEntity
  8
10000_FRONT
370
    25
390
0
  6
CONTINUOUS
 62
     7
100
AcDbLine
 10
301.817537
 20
756.982544
 30
0.0
 11
301.839782
 21
757.176308
 31
0.0
  0
LINE
  5
10AB
100
AcDbEntity
  8
10000_FRONT
370
    25
390
0
  6
CONTINUOUS
 62
     7
100
AcDbLine
 10
301.839782
 20
757.176308
 30
0.0
 11
301.871305
 21
757.37059
 31
0.0
  0
LINE
  5
10AC
100
AcDbEntity
  8
10000_FRONT
370
    25
390
0
  6
CONTINUOUS
 62
     7
100
AcDbLine
 10
301.871305
 20
757.37059
 30
0.0
 11
301.912292
 21
757.56456
 31
0.0
  0
LINE
  5
10AD
100
AcDbEntity
  8
10000_FRONT
370
    25
390
0
  6
CONTINUOUS
 62
     7
100
AcDbLine
 10
301.912292
 20
757.56456
 30
0.0
 11
301.962695
 21
757.757401
 31
0.0
  0
LINE
  5
10AE
100
AcDbEntity
  8
10000_FRONT
370
    25
390
0
  6
CONTINUOUS
 62
     7
100
AcDbLine
 10
301.962695
 20
757.757401
 30
0.0
 11
302.022372
 21
757.948326
 31
0.0
  0
LINE
  5
10AF
100
AcDbEntity
  8
10000_FRONT
370
    25
390
0
  6
CONTINUOUS
 62
     7
100
AcDbLine
 10
302.022372
 20
757.948326
 30
0.0
 11
302.091182
 21
758.136566
 31
0.0
  0
LINE
  5
10B0
100
AcDbEntity
  8
10000_FRONT
370
    25
390
0
  6
CONTINUOUS
 62
     7
100
AcDbLine
 10
302.091182
 20
758.136566
 30
0.0
 11
302.168979
 21
758.321365
 31
0.0
  0
LINE
  5
10B1
100
AcDbEntity
  8
10000_FRONT
370
    25
390
0
  6
CONTINUOUS
 62
     7
100
AcDbLine
 10
302.168979
 20
758.321365
 30
0.0
 11
302.255483
 21
758.502113
 31
0.0
  0
LINE
  5
10B2
100
AcDbEntity
  8
10000_FRONT
370
    25
390
0
  6
CONTINUOUS
 62
     7
100
AcDbLine
 10
302.255483
 20
758.502113
 30
0.0
 11
302.35025
 21
758.678169
 31
0.0
  0
LINE
  5
10B3
100
AcDbEntity
  8
10000_FRONT
370
    25
390
0
  6
CONTINUOUS
 62
     7
100
AcDbLine
 10
302.35025
 20
758.678169
 30
0.0
 11
302.452829
 21
758.848869
 31
0.0
  0
LINE
  5
10B4
100
AcDbEntity
  8
10000_FRONT
370
    25
390
0
  6
CONTINUOUS
 62
     7
100
AcDbLine
 10
302.452829
 20
758.848869
 30
0.0
 11
302.562767
 21
759.013565
 31
0.0
  0
LINE
  5
10B5
100
AcDbEntity
  8
10000_FRONT
370
    25
390
0
  6
CONTINUOUS
 62
     7
100
AcDbLine
 10
302.562767
 20
759.013565
 30
0.0
 11
302.67948
 21
759.171692
 31
0.0
  0
LINE
  5
10B6
100
AcDbEntity
  8
10000_FRONT
370
    25
390
0
  6
CONTINUOUS
 62
     7
100
AcDbLine
 10
302.67948
 20
759.171692
 30
0.0
 11
302.802222
 21
759.322792
 31
0.0
  0
LINE
  5
10B7
100
AcDbEntity
  8
10000_FRONT
370
    25
390
0
  6
CONTINUOUS
 62
     7
100
AcDbLine
 10
302.802222
 20
759.322792
 30
0.0
 11
302.930234
 21
759.466408
 31
0.0
  0
LINE
  5
10B8
100
AcDbEntity
  8
10000_FRONT
370
    25
390
0
  6
CONTINUOUS
 62
     7
100
AcDbLine
 10
302.930234
 20
759.466408
 30
0.0
 11
303.062884
 21
759.602211
 31
0.0
  0
LINE
  5
10B9
100
AcDbEntity
  8
10000_FRONT
370
    25
390
0
  6
CONTINUOUS
 62
     7
100
AcDbLine
 10
303.062884
 20
759.602211
 30
0.0
 11
303.202477
 21
759.732635
 31
0.0
  0
LINE
  5
10BA
100
AcDbEntity
  8
10000_FRONT
370
    25
390
0
  6
CONTINUOUS
 62
     7
100
AcDbLine
 10
303.202477
 20
759.732635
 30
0.0
 11
303.349808
 21
759.858192
 31
0.0
  0
LINE
  5
10BB
100
AcDbEntity
  8
10000_FRONT
370
    25
390
0
  6
CONTINUOUS
 62
     7
100
AcDbLine
 10
303.349808
 20
759.858192
 30
0.0
 11
303.504425
 21
759.978134
 31
0.0
  0
LINE
  5
10BC
100
AcDbEntity
  8
10000_FRONT
370
    25
390
0
  6
CONTINUOUS
 62
     7
100
AcDbLine
 10
303.504425
 20
759.978134
 30
0.0
 11
303.665879
 21
760.091682
 31
0.0
  0
LINE
  5
10BD
100
AcDbEntity
  8
10000_FRONT
370
    25
390
0
  6
CONTINUOUS
 62
     7
100
AcDbLine
 10
303.665879
 20
760.091682
 30
0.0
 11
303.833676
 21
760.198151
 31
0.0
  0
LINE
  5
10BE
100
AcDbEntity
  8
10000_FRONT
370
    25
390
0
  6
CONTINUOUS
 62
     7
100
AcDbLine
 10
303.833676
 20
760.198151
 30
0.0
 11
304.007185
 21
760.297035
 31
0.0
  0
LINE
  5
10BF
100
AcDbEntity
  8
10000_FRONT
370
    25
390
0
  6
CONTINUOUS
 62
     7
100
AcDbLine
 10
304.007185
 20
760.297035
 30
0.0
 11
304.185749
 21
760.387894
 31
0.0
  0
LINE
  5
10C0
100
AcDbEntity
  8
10000_FRONT
370
    25
390
0
  6
CONTINUOUS
 62
     7
100
AcDbLine
 10
304.185749
 20
760.387894
 30
0.0
 11
304.36871
 21
760.470253
 31
0.0
  0
LINE
  5
10C1
100
AcDbEntity
  8
10000_FRONT
370
    25
390
0
  6
CONTINUOUS
 62
     7
100
AcDbLine
 10
304.36871
 20
760.470253
 30
0.0
 11
304.55545
 21
760.543732
 31
0.0
  0
LINE
  5
10C2
100
AcDbEntity
  8
10000_FRONT
370
    25
390
0
  6
CONTINUOUS
 62
     7
100
AcDbLine
 10
304.55545
 20
760.543732
 30
0.0
 11
304.7453
 21
760.608131
 31
0.0
  0
LINE
  5
10C3
100
AcDbEntity
  8
10000_FRONT
370
    25
390
0
  6
CONTINUOUS
 62
     7
100
AcDbLine
 10
304.7453
 20
760.608131
 30
0.0
 11
304.937474
 21
760.663322
 31
0.0
  0
LINE
  5
10C4
100
AcDbEntity
  8
10000_FRONT
370
    25
390
0
  6
CONTINUOUS
 62
     7
100
AcDbLine
 10
304.937474
 20
760.663322
 30
0.0
 11
305.131188
 21
760.709152
 31
0.0
  0
LINE
  5
10C5
100
AcDbEntity
  8
10000_FRONT
370
    25
390
0
  6
CONTINUOUS
 62
     7
100
AcDbLine
 10
305.131188
 20
760.709152
 30
0.0
 11
305.325651
 21
760.745483
 31
0.0
  0
LINE
  5
10C6
100
AcDbEntity
  8
10000_FRONT
370
    25
390
0
  6
CONTINUOUS
 62
     7
100
AcDbLine
 10
305.325651
 20
760.745483
 30
0.0
 11
305.520033
 21
760.772415
 31
0.0
  0
LINE
  5
10C7
100
AcDbEntity
  8
10000_FRONT
370
    25
390
0
  6
CONTINUOUS
 62
     7
100
AcDbLine
 10
305.520033
 20
760.772415
 30
0.0
 11
305.713476
 21
760.790154
 31
0.0
  0
LINE
  5
10C8
100
AcDbEntity
  8
10000_FRONT
370
    25
390
0
  6
CONTINUOUS
 62
     7
100
AcDbLine
 10
305.713476
 20
760.790154
 30
0.0
 11
305.905123
 21
760.798912
 31
0.0
  0
LINE
  5
10C9
100
AcDbEntity
  8
10000_FRONT
370
    25
390
0
  6
CONTINUOUS
 62
     7
100
AcDbLine
 10
305.905123
 20
760.798912
 30
0.0
 11
306.094887
 21
760.798912
 31
0.0
  0
LINE
  5
10CA
100
AcDbEntity
  8
10000_FRONT
370
    25
390
0
  6
CONTINUOUS
 62
     7
100
AcDbLine
 10
306.094887
 20
760.798912
 30
0.0
 11
306.286532
 21
760.790154
 31
0.0
  0
LINE
  5
10CB
100
AcDbEntity
  8
10000_FRONT
370
    25
390
0
  6
CONTINUOUS
 62
     7
100
AcDbLine
 10
306.286532
 20
760.790154
 30
0.0
 11
306.479972
 21
760.772415
 31
0.0
  0
LINE
  5
10CC
100
AcDbEntity
  8
10000_FRONT
370
    25
390
0
  6
CONTINUOUS
 62
     7
100
AcDbLine
 10
306.479972
 20
760.772415
 30
0.0
 11
306.674349
 21
760.745491
 31
0.0
  0
LINE
  5
10CD
100
AcDbEntity
  8
10000_FRONT
370
    25
390
0
  6
CONTINUOUS
 62
     7
100
AcDbLine
 10
306.674349
 20
760.745491
 30
0.0
 11
306.868807
 21
760.709152
 31
0.0
  0
LINE
  5
10CE
100
AcDbEntity
  8
10000_FRONT
370
    25
390
0
  6
CONTINUOUS
 62
     7
100
AcDbLine
 10
306.868807
 20
760.709152
 30
0.0
 11
307.062516
 21
760.66333
 31
0.0
  0
LINE
  5
10CF
100
AcDbEntity
  8
10000_FRONT
370
    25
390
0
  6
CONTINUOUS
 62
     7
100
AcDbLine
 10
307.062516
 20
760.66333
 30
0.0
 11
307.254686
 21
760.608139
 31
0.0
  0
LINE
  5
10D0
100
AcDbEntity
  8
10000_FRONT
370
    25
390
0
  6
CONTINUOUS
 62
     7
100
AcDbLine
 10
307.254686
 20
760.608139
 30
0.0
 11
307.444532
 21
760.543739
 31
0.0
  0
LINE
  5
10D1
100
AcDbEntity
  8
10000_FRONT
370
    25
390
0
  6
CONTINUOUS
 62
     7
100
AcDbLine
 10
307.444532
 20
760.543739
 30
0.0
 11
307.631268
 21
760.470268
 31
0.0
  0
LINE
  5
10D2
100
AcDbEntity
  8
10000_FRONT
370
    25
390
0
  6
CONTINUOUS
 62
     7
100
AcDbLine
 10
307.631268
 20
760.470268
 30
0.0
 11
307.814225
 21
760.387909
 31
0.0
  0
LINE
  5
10D3
100
AcDbEntity
  8
10000_FRONT
370
    25
390
0
  6
CONTINUOUS
 62
     7
100
AcDbLine
 10
307.814225
 20
760.387909
 30
0.0
 11
307.992789
 21
760.297058
 31
0.0
  0
LINE
  5
10D4
100
AcDbEntity
  8
10000_FRONT
370
    25
390
0
  6
CONTINUOUS
 62
     7
100
AcDbLine
 10
307.992789
 20
760.297058
 30
0.0
 11
308.166297
 21
760.198174
 31
0.0
  0
LINE
  5
10D5
100
AcDbEntity
  8
10000_FRONT
370
    25
390
0
  6
CONTINUOUS
 62
     7
100
AcDbLine
 10
308.166297
 20
760.198174
 30
0.0
 11
308.334096
 21
760.091705
 31
0.0
  0
LINE
  5
10D6
100
AcDbEntity
  8
10000_FRONT
370
    25
390
0
  6
CONTINUOUS
 62
     7
100
AcDbLine
 10
308.334096
 20
760.091705
 30
0.0
 11
308.495554
 21
759.978157
 31
0.0
  0
LINE
  5
10D7
100
AcDbEntity
  8
10000_FRONT
370
    25
390
0
  6
CONTINUOUS
 62
     7
100
AcDbLine
 10
308.495554
 20
759.978157
 30
0.0
 11
308.650177
 21
759.858215
 31
0.0
  0
LINE
  5
10D8
100
AcDbEntity
  8
10000_FRONT
370
    25
390
0
  6
CONTINUOUS
 62
     7
100
AcDbLine
 10
308.650177
 20
759.858215
 30
0.0
 11
308.797516
 21
759.732651
 31
0.0
  0
LINE
  5
10D9
100
AcDbEntity
  8
10000_FRONT
370
    25
390
0
  6
CONTINUOUS
 62
     7
100
AcDbLine
 10
308.797516
 20
759.732651
 30
0.0
 11
308.93712
 21
759.602219
 31
0.0
  0
LINE
  5
10DA
100
AcDbEntity
  8
10000_FRONT
370
    25
390
0
  6
CONTINUOUS
 62
     7
100
AcDbLine
 10
308.93712
 20
759.602219
 30
0.0
 11
309.069765
 21
759.466415
 31
0.0
  0
LINE
  5
10DB
100
AcDbEntity
  8
10000_FRONT
370
    25
390
0
  6
CONTINUOUS
 62
     7
100
AcDbLine
 10
309.069765
 20
759.466415
 30
0.0
 11
309.19777
 21
759.322815
 31
0.0
  0
LINE
  5
10DC
100
AcDbEntity
  8
10000_FRONT
370
    25
390
0
  6
CONTINUOUS
 62
     7
100
AcDbLine
 10
309.19777
 20
759.322815
 30
0.0
 11
309.320508
 21
759.171722
 31
0.0
  0
LINE
  5
10DD
100
AcDbEntity
  8
10000_FRONT
370
    25
390
0
  6
CONTINUOUS
 62
     7
100
AcDbLine
 10
309.320508
 20
759.171722
 30
0.0
 11
309.43722
 21
759.013603
 31
0.0
  0
LINE
  5
10DE
100
AcDbEntity
  8
10000_FRONT
370
    25
390
0
  6
CONTINUOUS
 62
     7
100
AcDbLine
 10
309.43722
 20
759.013603
 30
0.0
 11
309.547158
 21
758.848907
 31
0.0
  0
LINE
  5
10DF
100
AcDbEntity
  8
10000_FRONT
370
    25
390
0
  6
CONTINUOUS
 62
     7
100
AcDbLine
 10
309.547158
 20
758.848907
 30
0.0
 11
309.649739
 21
758.678207
 31
0.0
  0
LINE
  5
10E0
100
AcDbEntity
  8
10000_FRONT
370
    25
390
0
  6
CONTINUOUS
 62
     7
100
AcDbLine
 10
309.649739
 20
758.678207
 30
0.0
 11
309.744509
 21
758.502151
 31
0.0
  0
LINE
  5
10E1
100
AcDbEntity
  8
10000_FRONT
370
    25
390
0
  6
CONTINUOUS
 62
     7
100
AcDbLine
 10
309.744509
 20
758.502151
 30
0.0
 11
309.831016
 21
758.321396
 31
0.0
  0
LINE
  5
10E2
100
AcDbEntity
  8
10000_FRONT
370
    25
390
0
  6
CONTINUOUS
 62
     7
100
AcDbLine
 10
309.831016
 20
758.321396
 30
0.0
 11
309.908817
 21
758.136597
 31
0.0
  0
LINE
  5
10E3
100
AcDbEntity
  8
10000_FRONT
370
    25
390
0
  6
CONTINUOUS
 62
     7
100
AcDbLine
 10
309.908817
 20
758.136597
 30
0.0
 11
309.977628
 21
757.948357
 31
0.0
  0
LINE
  5
10E4
100
AcDbEntity
  8
10000_FRONT
370
    25
390
0
  6
CONTINUOUS
 62
     7
100
AcDbLine
 10
309.977628
 20
757.948357
 30
0.0
 11
310.037309
 21
757.757416
 31
0.0
  0
LINE
  5
10E5
100
AcDbEntity
  8
10000_FRONT
370
    25
390
0
  6
CONTINUOUS
 62
     7
100
AcDbLine
 10
310.037309
 20
757.757416
 30
0.0
 11
310.087714
 21
757.564575
 31
0.0
  0
LINE
  5
10E6
100
AcDbEntity
  8
10000_FRONT
370
    25
390
0
  6
CONTINUOUS
 62
     7
100
AcDbLine
 10
310.087714
 20
757.564575
 30
0.0
 11
310.128703
 21
757.370605
 31
0.0
  0
LINE
  5
10E7
100
AcDbEntity
  8
10000_FRONT
370
    25
390
0
  6
CONTINUOUS
 62
     7
100
AcDbLine
 10
310.128703
 20
757.370605
 30
0.0
 11
310.160228
 21
757.176315
 31
0.0
  0
LINE
  5
10E8
100
AcDbEntity
  8
10000_FRONT
370
    25
390
0
  6
CONTINUOUS
 62
     7
100
AcDbLine
 10
310.160228
 20
757.176315
 30
0.0
 11
310.182472
 21
756.982544
 31
0.0
  0
LINE
  5
10E9
100
AcDbEntity
  8
10000_FRONT
370
    25
390
0
  6
CONTINUOUS
 62
     7
100
AcDbLine
 10
310.182472
 20
756.982544
 30
0.0
 11
310.195659
 21
756.790154
 31
0.0
  0
LINE
  5
10EA
100
AcDbEntity
  8
10000_FRONT
370
    25
390
0
  6
CONTINUOUS
 62
     7
100
AcDbLine
 10
310.195659
 20
756.790154
 30
0.0
 11
310.200005
 21
756.599998
 31
0.0
  0
LINE
  5
10EB
100
AcDbEntity
  8
10000_FRONT
370
    25
390
0
  6
CONTINUOUS
 62
     7
100
AcDbLine
 10
341.150007
 20
756.599998
 30
0.0
 11
341.154351
 21
756.790154
 31
0.0
  0
LINE
  5
10EC
100
AcDbEntity
  8
10000_FRONT
370
    25
390
0
  6
CONTINUOUS
 62
     7
100
AcDbLine
 10
341.154351
 20
756.790154
 30
0.0
 11
341.167539
 21
756.982544
 31
0.0
  0
LINE
  5
10ED
100
AcDbEntity
  8
10000_FRONT
370
    25
390
0
  6
CONTINUOUS
 62
     7
100
AcDbLine
 10
341.167539
 20
756.982544
 30
0.0
 11
341.189782
 21
757.176308
 31
0.0
  0
LINE
  5
10EE
100
AcDbEntity
  8
10000_FRONT
370
    25
390
0
  6
CONTINUOUS
 62
     7
100
AcDbLine
 10
341.189782
 20
757.176308
 30
0.0
 11
341.221303
 21
757.37059
 31
0.0
  0
LINE
  5
10EF
100
AcDbEntity
  8
10000_FRONT
370
    25
390
0
  6
CONTINUOUS
 62
     7
100
AcDbLine
 10
341.221303
 20
757.37059
 30
0.0
 11
341.262292
 21
757.56456
 31
0.0
  0
LINE
  5
10F0
100
AcDbEntity
  8
10000_FRONT
370
    25
390
0
  6
CONTINUOUS
 62
     7
100
AcDbLine
 10
341.262292
 20
757.56456
 30
0.0
 11
341.312696
 21
757.757401
 31
0.0
  0
LINE
  5
10F1
100
AcDbEntity
  8
10000_FRONT
370
    25
390
0
  6
CONTINUOUS
 62
     7
100
AcDbLine
 10
341.312696
 20
757.757401
 30
0.0
 11
341.372373
 21
757.948326
 31
0.0
  0
LINE
  5
10F2
100
AcDbEntity
  8
10000_FRONT
370
    25
390
0
  6
CONTINUOUS
 62
     7
100
AcDbLine
 10
341.372373
 20
757.948326
 30
0.0
 11
341.441182
 21
758.136566
 31
0.0
  0
LINE
  5
10F3
100
AcDbEntity
  8
10000_FRONT
370
    25
390
0
  6
CONTINUOUS
 62
     7
100
AcDbLine
 10
341.441182
 20
758.136566
 30
0.0
 11
341.518979
 21
758.321365
 31
0.0
  0
LINE
  5
10F4
100
AcDbEntity
  8
10000_FRONT
370
    25
390
0
  6
CONTINUOUS
 62
     7
100
AcDbLine
 10
341.518979
 20
758.321365
 30
0.0
 11
341.605481
 21
758.502113
 31
0.0
  0
LINE
  5
10F5
100
AcDbEntity
  8
10000_FRONT
370
    25
390
0
  6
CONTINUOUS
 62
     7
100
AcDbLine
 10
341.605481
 20
758.502113
 30
0.0
 11
341.70025
 21
758.678169
 31
0.0
  0
LINE
  5
10F6
100
AcDbEntity
  8
10000_FRONT
370
    25
390
0
  6
CONTINUOUS
 62
     7
100
AcDbLine
 10
341.70025
 20
758.678169
 30
0.0
 11
341.802831
 21
758.848869
 31
0.0
  0
LINE
  5
10F7
100
AcDbEntity
  8
10000_FRONT
370
    25
390
0
  6
CONTINUOUS
 62
     7
100
AcDbLine
 10
341.802831
 20
758.848869
 30
0.0
 11
341.912767
 21
759.013565
 31
0.0
  0
LINE
  5
10F8
100
AcDbEntity
  8
10000_FRONT
370
    25
390
0
  6
CONTINUOUS
 62
     7
100
AcDbLine
 10
341.912767
 20
759.013565
 30
0.0
 11
342.029481
 21
759.171692
 31
0.0
  0
LINE
  5
10F9
100
AcDbEntity
  8
10000_FRONT
370
    25
390
0
  6
CONTINUOUS
 62
     7
100
AcDbLine
 10
342.029481
 20
759.171692
 30
0.0
 11
342.152223
 21
759.322792
 31
0.0
  0
LINE
  5
10FA
100
AcDbEntity
  8
10000_FRONT
370
    25
390
0
  6
CONTINUOUS
 62
     7
100
AcDbLine
 10
342.152223
 20
759.322792
 30
0.0
 11
342.280233
 21
759.466408
 31
0.0
  0
LINE
  5
10FB
100
AcDbEntity
  8
10000_FRONT
370
    25
390
0
  6
CONTINUOUS
 62
     7
100
AcDbLine
 10
342.280233
 20
759.466408
 30
0.0
 11
342.412885
 21
759.602211
 31
0.0
  0
LINE
  5
10FC
100
AcDbEntity
  8
10000_FRONT
370
    25
390
0
  6
CONTINUOUS
 62
     7
100
AcDbLine
 10
342.412885
 20
759.602211
 30
0.0
 11
342.552476
 21
759.732635
 31
0.0
  0
LINE
  5
10FD
100
AcDbEntity
  8
10000_FRONT
370
    25
390
0
  6
CONTINUOUS
 62
     7
100
AcDbLine
 10
342.552476
 20
759.732635
 30
0.0
 11
342.699807
 21
759.858192
 31
0.0
  0
LINE
  5
10FE
100
AcDbEntity
  8
10000_FRONT
370
    25
390
0
  6
CONTINUOUS
 62
     7
100
AcDbLine
 10
342.699807
 20
759.858192
 30
0.0
 11
342.854425
 21
759.978134
 31
0.0
  0
LINE
  5
10FF
100
AcDbEntity
  8
10000_FRONT
370
    25
390
0
  6
CONTINUOUS
 62
     7
100
AcDbLine
 10
342.854425
 20
759.978134
 30
0.0
 11
343.015878
 21
760.091682
 31
0.0
  0
LINE
  5
1100
100
AcDbEntity
  8
10000_FRONT
370
    25
390
0
  6
CONTINUOUS
 62
     7
100
AcDbLine
 10
343.015878
 20
760.091682
 30
0.0
 11
343.183675
 21
760.198151
 31
0.0
  0
LINE
  5
1101
100
AcDbEntity
  8
10000_FRONT
370
    25
390
0
  6
CONTINUOUS
 62
     7
100
AcDbLine
 10
343.183675
 20
760.198151
 30
0.0
 11
343.357187
 21
760.297035
 31
0.0
  0
LINE
  5
1102
100
AcDbEntity
  8
10000_FRONT
370
    25
390
0
  6
CONTINUOUS
 62
     7
100
AcDbLine
 10
343.357187
 20
760.297035
 30
0.0
 11
343.535749
 21
760.387894
 31
0.0
  0
LINE
  5
1103
100
AcDbEntity
  8
10000_FRONT
370
    25
390
0
  6
CONTINUOUS
 62
     7
100
AcDbLine
 10
343.535749
 20
760.387894
 30
0.0
 11
343.718709
 21
760.470253
 31
0.0
  0
LINE
  5
1104
100
AcDbEntity
  8
10000_FRONT
370
    25
390
0
  6
CONTINUOUS
 62
     7
100
AcDbLine
 10
343.718709
 20
760.470253
 30
0.0
 11
343.90545
 21
760.543732
 31
0.0
  0
LINE
  5
1105
100
AcDbEntity
  8
10000_FRONT
370
    25
390
0
  6
CONTINUOUS
 62
     7
100
AcDbLine
 10
343.90545
 20
760.543732
 30
0.0
 11
344.0953
 21
760.608131
 31
0.0
  0
LINE
  5
1106
100
AcDbEntity
  8
10000_FRONT
370
    25
390
0
  6
CONTINUOUS
 62
     7
100
AcDbLine
 10
344.0953
 20
760.608131
 30
0.0
 11
344.287473
 21
760.663322
 31
0.0
  0
LINE
  5
1107
100
AcDbEntity
  8
10000_FRONT
370
    25
390
0
  6
CONTINUOUS
 62
     7
100
AcDbLine
 10
344.287473
 20
760.663322
 30
0.0
 11
344.481187
 21
760.709152
 31
0.0
  0
LINE
  5
1108
100
AcDbEntity
  8
10000_FRONT
370
    25
390
0
  6
CONTINUOUS
 62
     7
100
AcDbLine
 10
344.481187
 20
760.709152
 30
0.0
 11
344.675653
 21
760.745483
 31
0.0
  0
LINE
  5
1109
100
AcDbEntity
  8
10000_FRONT
370
    25
390
0
  6
CONTINUOUS
 62
     7
100
AcDbLine
 10
344.675653
 20
760.745483
 30
0.0
 11
344.870034
 21
760.772415
 31
0.0
  0
LINE
  5
110A
100
AcDbEntity
  8
10000_FRONT
370
    25
390
0
  6
CONTINUOUS
 62
     7
100
AcDbLine
 10
344.870034
 20
760.772415
 30
0.0
 11
345.063478
 21
760.790154
 31
0.0
  0
LINE
  5
110B
100
AcDbEntity
  8
10000_FRONT
370
    25
390
0
  6
CONTINUOUS
 62
     7
100
AcDbLine
 10
345.063478
 20
760.790154
 30
0.0
 11
345.255124
 21
760.798912
 31
0.0
  0
LINE
  5
110C
100
AcDbEntity
  8
10000_FRONT
370
    25
390
0
  6
CONTINUOUS
 62
     7
100
AcDbLine
 10
345.255124
 20
760.798912
 30
0.0
 11
345.444886
 21
760.798912
 31
0.0
  0
LINE
  5
110D
100
AcDbEntity
  8
10000_FRONT
370
    25
390
0
  6
CONTINUOUS
 62
     7
100
AcDbLine
 10
345.444886
 20
760.798912
 30
0.0
 11
345.636533
 21
760.790154
 31
0.0
  0
LINE
  5
110E
100
AcDbEntity
  8
10000_FRONT
370
    25
390
0
  6
CONTINUOUS
 62
     7
100
AcDbLine
 10
345.636533
 20
760.790154
 30
0.0
 11
345.829976
 21
760.772415
 31
0.0
  0
LINE
  5
110F
100
AcDbEntity
  8
10000_FRONT
370
    25
390
0
  6
CONTINUOUS
 62
     7
100
AcDbLine
 10
345.829976
 20
760.772415
 30
0.0
 11
346.024358
 21
760.745483
 31
0.0
  0
LINE
  5
1110
100
AcDbEntity
  8
10000_FRONT
370
    25
390
0
  6
CONTINUOUS
 62
     7
100
AcDbLine
 10
346.024358
 20
760.745483
 30
0.0
 11
346.21882
 21
760.709152
 31
0.0
  0
LINE
  5
1111
100
AcDbEntity
  8
10000_FRONT
370
    25
390
0
  6
CONTINUOUS
 62
     7
100
AcDbLine
 10
346.21882
 20
760.709152
 30
0.0
 11
346.412534
 21
760.663322
 31
0.0
  0
LINE
  5
1112
100
AcDbEntity
  8
10000_FRONT
370
    25
390
0
  6
CONTINUOUS
 62
     7
100
AcDbLine
 10
346.412534
 20
760.663322
 30
0.0
 11
346.604711
 21
760.608131
 31
0.0
  0
LINE
  5
1113
100
AcDbEntity
  8
10000_FRONT
370
    25
390
0
  6
CONTINUOUS
 62
     7
100
AcDbLine
 10
346.604711
 20
760.608131
 30
0.0
 11
346.794561
 21
760.543732
 31
0.0
  0
LINE
  5
1114
100
AcDbEntity
  8
10000_FRONT
370
    25
390
0
  6
CONTINUOUS
 62
     7
100
AcDbLine
 10
346.794561
 20
760.543732
 30
0.0
 11
346.981302
 21
760.470253
 31
0.0
  0
LINE
  5
1115
100
AcDbEntity
  8
10000_FRONT
370
    25
390
0
  6
CONTINUOUS
 62
     7
100
AcDbLine
 10
346.981302
 20
760.470253
 30
0.0
 11
347.164262
 21
760.387894
 31
0.0
  0
LINE
  5
1116
100
AcDbEntity
  8
10000_FRONT
370
    25
390
0
  6
CONTINUOUS
 62
     7
100
AcDbLine
 10
347.164262
 20
760.387894
 30
0.0
 11
347.342824
 21
760.297035
 31
0.0
  0
LINE
  5
1117
100
AcDbEntity
  8
10000_FRONT
370
    25
390
0
  6
CONTINUOUS
 62
     7
100
AcDbLine
 10
347.342824
 20
760.297035
 30
0.0
 11
347.516336
 21
760.198151
 31
0.0
  0
LINE
  5
1118
100
AcDbEntity
  8
10000_FRONT
370
    25
390
0
  6
CONTINUOUS
 62
     7
100
AcDbLine
 10
347.516336
 20
760.198151
 30
0.0
 11
347.684133
 21
760.091682
 31
0.0
  0
LINE
  5
1119
100
AcDbEntity
  8
10000_FRONT
370
    25
390
0
  6
CONTINUOUS
 62
     7
100
AcDbLine
 10
347.684133
 20
760.091682
 30
0.0
 11
347.845586
 21
759.978134
 31
0.0
  0
LINE
  5
111A
100
AcDbEntity
  8
10000_FRONT
370
    25
390
0
  6
CONTINUOUS
 62
     7
100
AcDbLine
 10
347.845586
 20
759.978134
 30
0.0
 11
348.000203
 21
759.858192
 31
0.0
  0
LINE
  5
111B
100
AcDbEntity
  8
10000_FRONT
370
    25
390
0
  6
CONTINUOUS
 62
     7
100
AcDbLine
 10
348.000203
 20
759.858192
 30
0.0
 11
348.147531
 21
759.732635
 31
0.0
  0
LINE
  5
111C
100
AcDbEntity
  8
10000_FRONT
370
    25
390
0
  6
CONTINUOUS
 62
     7
100
AcDbLine
 10
348.147531
 20
759.732635
 30
0.0
 11
348.287126
 21
759.602211
 31
0.0
  0
LINE
  5
111D
100
AcDbEntity
  8
10000_FRONT
370
    25
390
0
  6
CONTINUOUS
 62
     7
100
AcDbLine
 10
348.287126
 20
759.602211
 30
0.0
 11
348.419774
 21
759.466408
 31
0.0
  0
LINE
  5
111E
100
AcDbEntity
  8
10000_FRONT
370
    25
390
0
  6
CONTINUOUS
 62
     7
100
AcDbLine
 10
348.419774
 20
759.466408
 30
0.0
 11
348.547788
 21
759.322792
 31
0.0
  0
LINE
  5
111F
100
AcDbEntity
  8
10000_FRONT
370
    25
390
0
  6
CONTINUOUS
 62
     7
100
AcDbLine
 10
348.547788
 20
759.322792
 30
0.0
 11
348.67053
 21
759.171692
 31
0.0
  0
LINE
  5
1120
100
AcDbEntity
  8
10000_FRONT
370
    25
390
0
  6
CONTINUOUS
 62
     7
100
AcDbLine
 10
348.67053
 20
759.171692
 30
0.0
 11
348.787244
 21
759.013565
 31
0.0
  0
LINE
  5
1121
100
AcDbEntity
  8
10000_FRONT
370
    25
390
0
  6
CONTINUOUS
 62
     7
100
AcDbLine
 10
348.787244
 20
759.013565
 30
0.0
 11
348.89718
 21
758.848869
 31
0.0
  0
LINE
  5
1122
100
AcDbEntity
  8
10000_FRONT
370
    25
390
0
  6
CONTINUOUS
 62
     7
100
AcDbLine
 10
348.89718
 20
758.848869
 30
0.0
 11
348.999761
 21
758.678169
 31
0.0
  0
LINE
  5
1123
100
AcDbEntity
  8
10000_FRONT
370
    25
390
0
  6
CONTINUOUS
 62
     7
100
AcDbLine
 10
348.999761
 20
758.678169
 30
0.0
 11
349.094526
 21
758.502113
 31
0.0
  0
LINE
  5
1124
100
AcDbEntity
  8
10000_FRONT
370
    25
390
0
  6
CONTINUOUS
 62
     7
100
AcDbLine
 10
349.094526
 20
758.502113
 30
0.0
 11
349.181031
 21
758.321365
 31
0.0
  0
LINE
  5
1125
100
AcDbEntity
  8
10000_FRONT
370
    25
390
0
  6
CONTINUOUS
 62
     7
100
AcDbLine
 10
349.181031
 20
758.321365
 30
0.0
 11
349.258828
 21
758.136566
 31
0.0
  0
LINE
  5
1126
100
AcDbEntity
  8
10000_FRONT
370
    25
390
0
  6
CONTINUOUS
 62
     7
100
AcDbLine
 10
349.258828
 20
758.136566
 30
0.0
 11
349.327638
 21
757.948326
 31
0.0
  0
LINE
  5
1127
100
AcDbEntity
  8
10000_FRONT
370
    25
390
0
  6
CONTINUOUS
 62
     7
100
AcDbLine
 10
349.327638
 20
757.948326
 30
0.0
 11
349.387315
 21
757.757401
 31
0.0
  0
LINE
  5
1128
100
AcDbEntity
  8
10000_FRONT
370
    25
390
0
  6
CONTINUOUS
 62
     7
100
AcDbLine
 10
349.387315
 20
757.757401
 30
0.0
 11
349.437719
 21
757.56456
 31
0.0
  0
LINE
  5
1129
100
AcDbEntity
  8
10000_FRONT
370
    25
390
0
  6
CONTINUOUS
 62
     7
100
AcDbLine
 10
349.437719
 20
757.56456
 30
0.0
 11
349.478704
 21
757.37059
 31
0.0
  0
LINE
  5
112A
100
AcDbEntity
  8
10000_FRONT
370
    25
390
0
  6
CONTINUOUS
 62
     7
100
AcDbLine
 10
349.478704
 20
757.37059
 30
0.0
 11
349.510228
 21
757.176308
 31
0.0
  0
LINE
  5
112B
100
AcDbEntity
  8
10000_FRONT
370
    25
390
0
  6
CONTINUOUS
 62
     7
100
AcDbLine
 10
349.510228
 20
757.176308
 30
0.0
 11
349.532472
 21
756.982544
 31
0.0
  0
LINE
  5
112C
100
AcDbEntity
  8
10000_FRONT
370
    25
390
0
  6
CONTINUOUS
 62
     7
100
AcDbLine
 10
349.532472
 20
756.982544
 30
0.0
 11
349.545659
 21
756.790154
 31
0.0
  0
LINE
  5
112D
100
AcDbEntity
  8
10000_FRONT
370
    25
390
0
  6
CONTINUOUS
 62
     7
100
AcDbLine
 10
349.545659
 20
756.790154
 30
0.0
 11
349.550004
 21
756.599998
 31
0.0
  0
LINE
  5
112E
100
AcDbEntity
  8
10000_FRONT
370
    25
390
0
  6
CONTINUOUS
 62
     7
100
AcDbLine
 10
341.150007
 20
769.599998
 30
0.0
 11
341.154355
 21
769.790245
 31
0.0
  0
LINE
  5
112F
100
AcDbEntity
  8
10000_FRONT
370
    25
390
0
  6
CONTINUOUS
 62
     7
100
AcDbLine
 10
341.154355
 20
769.790245
 30
0.0
 11
341.167554
 21
769.982719
 31
0.0
  0
LINE
  5
1130
100
AcDbEntity
  8
10000_FRONT
370
    25
390
0
  6
CONTINUOUS
 62
     7
100
AcDbLine
 10
341.167554
 20
769.982719
 30
0.0
 11
341.189817
 21
770.176559
 31
0.0
  0
LINE
  5
1131
100
AcDbEntity
  8
10000_FRONT
370
    25
390
0
  6
CONTINUOUS
 62
     7
100
AcDbLine
 10
341.189817
 20
770.176559
 30
0.0
 11
341.221368
 21
770.370926
 31
0.0
  0
LINE
  5
1132
100
AcDbEntity
  8
10000_FRONT
370
    25
390
0
  6
CONTINUOUS
 62
     7
100
AcDbLine
 10
341.221368
 20
770.370926
 30
0.0
 11
341.262388
 21
770.564964
 31
0.0
  0
LINE
  5
1133
100
AcDbEntity
  8
10000_FRONT
370
    25
390
0
  6
CONTINUOUS
 62
     7
100
AcDbLine
 10
341.262388
 20
770.564964
 30
0.0
 11
341.312829
 21
770.757866
 31
0.0
  0
LINE
  5
1134
100
AcDbEntity
  8
10000_FRONT
370
    25
390
0
  6
CONTINUOUS
 62
     7
100
AcDbLine
 10
341.312829
 20
770.757866
 30
0.0
 11
341.372552
 21
770.948853
 31
0.0
  0
LINE
  5
1135
100
AcDbEntity
  8
10000_FRONT
370
    25
390
0
  6
CONTINUOUS
 62
     7
100
AcDbLine
 10
341.372552
 20
770.948853
 30
0.0
 11
341.441407
 21
771.137138
 31
0.0
  0
LINE
  5
1136
100
AcDbEntity
  8
10000_FRONT
370
    25
390
0
  6
CONTINUOUS
 62
     7
100
AcDbLine
 10
341.441407
 20
771.137138
 30
0.0
 11
341.519254
 21
771.321976
 31
0.0
  0
LINE
  5
1137
100
AcDbEntity
  8
10000_FRONT
370
    25
390
0
  6
CONTINUOUS
 62
     7
100
AcDbLine
 10
341.519254
 20
771.321976
 30
0.0
 11
341.605809
 21
771.502754
 31
0.0
  0
LINE
  5
1138
100
AcDbEntity
  8
10000_FRONT
370
    25
390
0
  6
CONTINUOUS
 62
     7
100
AcDbLine
 10
341.605809
 20
771.502754
 30
0.0
 11
341.700628
 21
771.678825
 31
0.0
  0
LINE
  5
1139
100
AcDbEntity
  8
10000_FRONT
370
    25
390
0
  6
CONTINUOUS
 62
     7
100
AcDbLine
 10
341.700628
 20
771.678825
 30
0.0
 11
341.803254
 21
771.849541
 31
0.0
  0
LINE
  5
113A
100
AcDbEntity
  8
10000_FRONT
370
    25
390
0
  6
CONTINUOUS
 62
     7
100
AcDbLine
 10
341.803254
 20
771.849541
 30
0.0
 11
341.913236
 21
772.014236
 31
0.0
  0
LINE
  5
113B
100
AcDbEntity
  8
10000_FRONT
370
    25
390
0
  6
CONTINUOUS
 62
     7
100
AcDbLine
 10
341.913236
 20
772.014236
 30
0.0
 11
342.029989
 21
772.172348
 31
0.0
  0
LINE
  5
113C
100
AcDbEntity
  8
10000_FRONT
370
    25
390
0
  6
CONTINUOUS
 62
     7
100
AcDbLine
 10
342.029989
 20
772.172348
 30
0.0
 11
342.152757
 21
772.323418
 31
0.0
  0
LINE
  5
113D
100
AcDbEntity
  8
10000_FRONT
370
    25
390
0
  6
CONTINUOUS
 62
     7
100
AcDbLine
 10
342.152757
 20
772.323418
 30
0.0
 11
342.280793
 21
772.467003
 31
0.0
  0
LINE
  5
113E
100
AcDbEntity
  8
10000_FRONT
370
    25
390
0
  6
CONTINUOUS
 62
     7
100
AcDbLine
 10
342.280793
 20
772.467003
 30
0.0
 11
342.413461
 21
772.602776
 31
0.0
  0
LINE
  5
113F
100
AcDbEntity
  8
10000_FRONT
370
    25
390
0
  6
CONTINUOUS
 62
     7
100
AcDbLine
 10
342.413461
 20
772.602776
 30
0.0
 11
342.553087
 21
772.733177
 31
0.0
  0
LINE
  5
1140
100
AcDbEntity
  8
10000_FRONT
370
    25
390
0
  6
CONTINUOUS
 62
     7
100
AcDbLine
 10
342.553087
 20
772.733177
 30
0.0
 11
342.700441
 21
772.858711
 31
0.0
  0
LINE
  5
1141
100
AcDbEntity
  8
10000_FRONT
370
    25
390
0
  6
CONTINUOUS
 62
     7
100
AcDbLine
 10
342.700441
 20
772.858711
 30
0.0
 11
342.855069
 21
772.978607
 31
0.0
  0
LINE
  5
1142
100
AcDbEntity
  8
10000_FRONT
370
    25
390
0
  6
CONTINUOUS
 62
     7
100
AcDbLine
 10
342.855069
 20
772.978607
 30
0.0
 11
343.016526
 21
773.092117
 31
0.0
  0
LINE
  5
1143
100
AcDbEntity
  8
10000_FRONT
370
    25
390
0
  6
CONTINUOUS
 62
     7
100
AcDbLine
 10
343.016526
 20
773.092117
 30
0.0
 11
343.184316
 21
773.198532
 31
0.0
  0
LINE
  5
1144
100
AcDbEntity
  8
10000_FRONT
370
    25
390
0
  6
CONTINUOUS
 62
     7
100
AcDbLine
 10
343.184316
 20
773.198532
 30
0.0
 11
343.357808
 21
773.297371
 31
0.0
  0
LINE
  5
1145
100
AcDbEntity
  8
10000_FRONT
370
    25
390
0
  6
CONTINUOUS
 62
     7
100
AcDbLine
 10
343.357808
 20
773.297371
 30
0.0
 11
343.536344
 21
773.388176
 31
0.0
  0
LINE
  5
1146
100
AcDbEntity
  8
10000_FRONT
370
    25
390
0
  6
CONTINUOUS
 62
     7
100
AcDbLine
 10
343.536344
 20
773.388176
 30
0.0
 11
343.71927
 21
773.47049
 31
0.0
  0
LINE
  5
1147
100
AcDbEntity
  8
10000_FRONT
370
    25
390
0
  6
CONTINUOUS
 62
     7
100
AcDbLine
 10
343.71927
 20
773.47049
 30
0.0
 11
343.905965
 21
773.543922
 31
0.0
  0
LINE
  5
1148
100
AcDbEntity
  8
10000_FRONT
370
    25
390
0
  6
CONTINUOUS
 62
     7
100
AcDbLine
 10
343.905965
 20
773.543922
 30
0.0
 11
344.095762
 21
773.608276
 31
0.0
  0
LINE
  5
1149
100
AcDbEntity
  8
10000_FRONT
370
    25
390
0
  6
CONTINUOUS
 62
     7
100
AcDbLine
 10
344.095762
 20
773.608276
 30
0.0
 11
344.287877
 21
773.663429
 31
0.0
  0
LINE
  5
114A
100
AcDbEntity
  8
10000_FRONT
370
    25
390
0
  6
CONTINUOUS
 62
     7
100
AcDbLine
 10
344.287877
 20
773.663429
 30
0.0
 11
344.481527
 21
773.709221
 31
0.0
  0
LINE
  5
114B
100
AcDbEntity
  8
10000_FRONT
370
    25
390
0
  6
CONTINUOUS
 62
     7
100
AcDbLine
 10
344.481527
 20
773.709221
 30
0.0
 11
344.67592
 21
773.745529
 31
0.0
  0
LINE
  5
114C
100
AcDbEntity
  8
10000_FRONT
370
    25
390
0
  6
CONTINUOUS
 62
     7
100
AcDbLine
 10
344.67592
 20
773.745529
 30
0.0
 11
344.870229
 21
773.772438
 31
0.0
  0
LINE
  5
114D
100
AcDbEntity
  8
10000_FRONT
370
    25
390
0
  6
CONTINUOUS
 62
     7
100
AcDbLine
 10
344.870229
 20
773.772438
 30
0.0
 11
345.063592
 21
773.790161
 31
0.0
  0
LINE
  5
114E
100
AcDbEntity
  8
10000_FRONT
370
    25
390
0
  6
CONTINUOUS
 62
     7
100
AcDbLine
 10
345.063592
 20
773.790161
 30
0.0
 11
345.255162
 21
773.798912
 31
0.0
  0
LINE
  5
114F
100
AcDbEntity
  8
10000_FRONT
370
    25
390
0
  6
CONTINUOUS
 62
     7
100
AcDbLine
 10
345.255162
 20
773.798912
 30
0.0
 11
345.444848
 21
773.798912
 31
0.0
  0
LINE
  5
1150
100
AcDbEntity
  8
10000_FRONT
370
    25
390
0
  6
CONTINUOUS
 62
     7
100
AcDbLine
 10
345.444848
 20
773.798912
 30
0.0
 11
345.636415
 21
773.790161
 31
0.0
  0
LINE
  5
1151
100
AcDbEntity
  8
10000_FRONT
370
    25
390
0
  6
CONTINUOUS
 62
     7
100
AcDbLine
 10
345.636415
 20
773.790161
 30
0.0
 11
345.829782
 21
773.772438
 31
0.0
  0
LINE
  5
1152
100
AcDbEntity
  8
10000_FRONT
370
    25
390
0
  6
CONTINUOUS
 62
     7
100
AcDbLine
 10
345.829782
 20
773.772438
 30
0.0
 11
346.024091
 21
773.745529
 31
0.0
  0
LINE
  5
1153
100
AcDbEntity
  8
10000_FRONT
370
    25
390
0
  6
CONTINUOUS
 62
     7
100
AcDbLine
 10
346.024091
 20
773.745529
 30
0.0
 11
346.218484
 21
773.709221
 31
0.0
  0
LINE
  5
1154
100
AcDbEntity
  8
10000_FRONT
370
    25
390
0
  6
CONTINUOUS
 62
     7
100
AcDbLine
 10
346.218484
 20
773.709221
 30
0.0
 11
346.41213
 21
773.663429
 31
0.0
  0
LINE
  5
1155
100
AcDbEntity
  8
10000_FRONT
370
    25
390
0
  6
CONTINUOUS
 62
     7
100
AcDbLine
 10
346.41213
 20
773.663429
 30
0.0
 11
346.604245
 21
773.608276
 31
0.0
  0
LINE
  5
1156
100
AcDbEntity
  8
10000_FRONT
370
    25
390
0
  6
CONTINUOUS
 62
     7
100
AcDbLine
 10
346.604245
 20
773.608276
 30
0.0
 11
346.794046
 21
773.543922
 31
0.0
  0
LINE
  5
1157
100
AcDbEntity
  8
10000_FRONT
370
    25
390
0
  6
CONTINUOUS
 62
     7
100
AcDbLine
 10
346.794046
 20
773.543922
 30
0.0
 11
346.980741
 21
773.47049
 31
0.0
  0
LINE
  5
1158
100
AcDbEntity
  8
10000_FRONT
370
    25
390
0
  6
CONTINUOUS
 62
     7
100
AcDbLine
 10
346.980741
 20
773.47049
 30
0.0
 11
347.163663
 21
773.388176
 31
0.0
  0
LINE
  5
1159
100
AcDbEntity
  8
10000_FRONT
370
    25
390
0
  6
CONTINUOUS
 62
     7
100
AcDbLine
 10
347.163663
 20
773.388176
 30
0.0
 11
347.342202
 21
773.297371
 31
0.0
  0
LINE
  5
115A
100
AcDbEntity
  8
10000_FRONT
370
    25
390
0
  6
CONTINUOUS
 62
     7
100
AcDbLine
 10
347.342202
 20
773.297371
 30
0.0
 11
347.515695
 21
773.198532
 31
0.0
  0
LINE
  5
115B
100
AcDbEntity
  8
10000_FRONT
370
    25
390
0
  6
CONTINUOUS
 62
     7
100
AcDbLine
 10
347.515695
 20
773.198532
 30
0.0
 11
347.683484
 21
773.092117
 31
0.0
  0
LINE
  5
115C
100
AcDbEntity
  8
10000_FRONT
370
    25
390
0
  6
CONTINUOUS
 62
     7
100
AcDbLine
 10
347.683484
 20
773.092117
 30
0.0
 11
347.844941
 21
772.978607
 31
0.0
  0
LINE
  5
115D
100
AcDbEntity
  8
10000_FRONT
370
    25
390
0
  6
CONTINUOUS
 62
     7
100
AcDbLine
 10
347.844941
 20
772.978607
 30
0.0
 11
347.99957
 21
772.858711
 31
0.0
  0
LINE
  5
115E
100
AcDbEntity
  8
10000_FRONT
370
    25
390
0
  6
CONTINUOUS
 62
     7
100
AcDbLine
 10
347.99957
 20
772.858711
 30
0.0
 11
348.146924
 21
772.733177
 31
0.0
  0
LINE
  5
115F
100
AcDbEntity
  8
10000_FRONT
370
    25
390
0
  6
CONTINUOUS
 62
     7
100
AcDbLine
 10
348.146924
 20
772.733177
 30
0.0
 11
348.28655
 21
772.602776
 31
0.0
  0
LINE
  5
1160
100
AcDbEntity
  8
10000_FRONT
370
    25
390
0
  6
CONTINUOUS
 62
     7
100
AcDbLine
 10
348.28655
 20
772.602776
 30
0.0
 11
348.419217
 21
772.467003
 31
0.0
  0
LINE
  5
1161
100
AcDbEntity
  8
10000_FRONT
370
    25
390
0
  6
CONTINUOUS
 62
     7
100
AcDbLine
 10
348.419217
 20
772.467003
 30
0.0
 11
348.54725
 21
772.323418
 31
0.0
  0
LINE
  5
1162
100
AcDbEntity
  8
10000_FRONT
370
    25
390
0
  6
CONTINUOUS
 62
     7
100
AcDbLine
 10
348.54725
 20
772.323418
 30
0.0
 11
348.670022
 21
772.172348
 31
0.0
  0
LINE
  5
1163
100
AcDbEntity
  8
10000_FRONT
370
    25
390
0
  6
CONTINUOUS
 62
     7
100
AcDbLine
 10
348.670022
 20
772.172348
 30
0.0
 11
348.786775
 21
772.014236
 31
0.0
  0
LINE
  5
1164
100
AcDbEntity
  8
10000_FRONT
370
    25
390
0
  6
CONTINUOUS
 62
     7
100
AcDbLine
 10
348.786775
 20
772.014236
 30
0.0
 11
348.896756
 21
771.849541
 31
0.0
  0
LINE
  5
1165
100
AcDbEntity
  8
10000_FRONT
370
    25
390
0
  6
CONTINUOUS
 62
     7
100
AcDbLine
 10
348.896756
 20
771.849541
 30
0.0
 11
348.999383
 21
771.678825
 31
0.0
  0
LINE
  5
1166
100
AcDbEntity
  8
10000_FRONT
370
    25
390
0
  6
CONTINUOUS
 62
     7
100
AcDbLine
 10
348.999383
 20
771.678825
 30
0.0
 11
349.094201
 21
771.502754
 31
0.0
  0
LINE
  5
1167
100
AcDbEntity
  8
10000_FRONT
370
    25
390
0
  6
CONTINUOUS
 62
     7
100
AcDbLine
 10
349.094201
 20
771.502754
 30
0.0
 11
349.180757
 21
771.321976
 31
0.0
  0
LINE
  5
1168
100
AcDbEntity
  8
10000_FRONT
370
    25
390
0
  6
CONTINUOUS
 62
     7
100
AcDbLine
 10
349.180757
 20
771.321976
 30
0.0
 11
349.258603
 21
771.137138
 31
0.0
  0
LINE
  5
1169
100
AcDbEntity
  8
10000_FRONT
370
    25
390
0
  6
CONTINUOUS
 62
     7
100
AcDbLine
 10
349.258603
 20
771.137138
 30
0.0
 11
349.327459
 21
770.948853
 31
0.0
  0
LINE
  5
116A
100
AcDbEntity
  8
10000_FRONT
370
    25
390
0
  6
CONTINUOUS
 62
     7
100
AcDbLine
 10
349.327459
 20
770.948853
 30
0.0
 11
349.387182
 21
770.757866
 31
0.0
  0
LINE
  5
116B
100
AcDbEntity
  8
10000_FRONT
370
    25
390
0
  6
CONTINUOUS
 62
     7
100
AcDbLine
 10
349.387182
 20
770.757866
 30
0.0
 11
349.437623
 21
770.564964
 31
0.0
  0
LINE
  5
116C
100
AcDbEntity
  8
10000_FRONT
370
    25
390
0
  6
CONTINUOUS
 62
     7
100
AcDbLine
 10
349.437623
 20
770.564964
 30
0.0
 11
349.478643
 21
770.370926
 31
0.0
  0
LINE
  5
116D
100
AcDbEntity
  8
10000_FRONT
370
    25
390
0
  6
CONTINUOUS
 62
     7
100
AcDbLine
 10
349.478643
 20
770.370926
 30
0.0
 11
349.510194
 21
770.176559
 31
0.0
  0
LINE
  5
116E
100
AcDbEntity
  8
10000_FRONT
370
    25
390
0
  6
CONTINUOUS
 62
     7
100
AcDbLine
 10
349.510194
 20
770.176559
 30
0.0
 11
349.532457
 21
769.982719
 31
0.0
  0
LINE
  5
116F
100
AcDbEntity
  8
10000_FRONT
370
    25
390
0
  6
CONTINUOUS
 62
     7
100
AcDbLine
 10
349.532457
 20
769.982719
 30
0.0
 11
349.545655
 21
769.790245
 31
0.0
  0
LINE
  5
1170
100
AcDbEntity
  8
10000_FRONT
370
    25
390
0
  6
CONTINUOUS
 62
     7
100
AcDbLine
 10
349.545655
 20
769.790245
 30
0.0
 11
349.550004
 21
769.599998
 31
0.0
  0
LINE
  5
1171
100
AcDbEntity
  8
10000_FRONT
370
    25
390
0
  6
CONTINUOUS
 62
     7
100
AcDbLine
 10
341.150007
 20
782.599998
 30
0.0
 11
341.154359
 21
782.790291
 31
0.0
  0
LINE
  5
1172
100
AcDbEntity
  8
10000_FRONT
370
    25
390
0
  6
CONTINUOUS
 62
     7
100
AcDbLine
 10
341.154359
 20
782.790291
 30
0.0
 11
341.167562
 21
782.982811
 31
0.0
  0
LINE
  5
1173
100
AcDbEntity
  8
10000_FRONT
370
    25
390
0
  6
CONTINUOUS
 62
     7
100
AcDbLine
 10
341.167562
 20
782.982811
 30
0.0
 11
341.189836
 21
783.176704
 31
0.0
  0
LINE
  5
1174
100
AcDbEntity
  8
10000_FRONT
370
    25
390
0
  6
CONTINUOUS
 62
     7
100
AcDbLine
 10
341.189836
 20
783.176704
 30
0.0
 11
341.221402
 21
783.371109
 31
0.0
  0
LINE
  5
1175
100
AcDbEntity
  8
10000_FRONT
370
    25
390
0
  6
CONTINUOUS
 62
     7
100
AcDbLine
 10
341.221402
 20
783.371109
 30
0.0
 11
341.262441
 21
783.565186
 31
0.0
  0
LINE
  5
1176
100
AcDbEntity
  8
10000_FRONT
370
    25
390
0
  6
CONTINUOUS
 62
     7
100
AcDbLine
 10
341.262441
 20
783.565186
 30
0.0
 11
341.312902
 21
783.758125
 31
0.0
  0
LINE
  5
1177
100
AcDbEntity
  8
10000_FRONT
370
    25
390
0
  6
CONTINUOUS
 62
     7
100
AcDbLine
 10
341.312902
 20
783.758125
 30
0.0
 11
341.372648
 21
783.949142
 31
0.0
  0
LINE
  5
1178
100
AcDbEntity
  8
10000_FRONT
370
    25
390
0
  6
CONTINUOUS
 62
     7
100
AcDbLine
 10
341.372648
 20
783.949142
 30
0.0
 11
341.44153
 21
784.137451
 31
0.0
  0
LINE
  5
1179
100
AcDbEntity
  8
10000_FRONT
370
    25
390
0
  6
CONTINUOUS
 62
     7
100
AcDbLine
 10
341.44153
 20
784.137451
 30
0.0
 11
341.519403
 21
784.322304
 31
0.0
  0
LINE
  5
117A
100
AcDbEntity
  8
10000_FRONT
370
    25
390
0
  6
CONTINUOUS
 62
     7
100
AcDbLine
 10
341.519403
 20
784.322304
 30
0.0
 11
341.605985
 21
784.503098
 31
0.0
  0
LINE
  5
117B
100
AcDbEntity
  8
10000_FRONT
370
    25
390
0
  6
CONTINUOUS
 62
     7
100
AcDbLine
 10
341.605985
 20
784.503098
 30
0.0
 11
341.700826
 21
784.679176
 31
0.0
  0
LINE
  5
117C
100
AcDbEntity
  8
10000_FRONT
370
    25
390
0
  6
CONTINUOUS
 62
     7
100
AcDbLine
 10
341.700826
 20
784.679176
 30
0.0
 11
341.803479
 21
784.849892
 31
0.0
  0
LINE
  5
117D
100
AcDbEntity
  8
10000_FRONT
370
    25
390
0
  6
CONTINUOUS
 62
     7
100
AcDbLine
 10
341.803479
 20
784.849892
 30
0.0
 11
341.913484
 21
785.014587
 31
0.0
  0
LINE
  5
117E
100
AcDbEntity
  8
10000_FRONT
370
    25
390
0
  6
CONTINUOUS
 62
     7
100
AcDbLine
 10
341.913484
 20
785.014587
 30
0.0
 11
342.030256
 21
785.172691
 31
0.0
  0
LINE
  5
117F
100
AcDbEntity
  8
10000_FRONT
370
    25
390
0
  6
CONTINUOUS
 62
     7
100
AcDbLine
 10
342.030256
 20
785.172691
 30
0.0
 11
342.153039
 21
785.323753
 31
0.0
  0
LINE
  5
1180
100
AcDbEntity
  8
10000_FRONT
370
    25
390
0
  6
CONTINUOUS
 62
     7
100
AcDbLine
 10
342.153039
 20
785.323753
 30
0.0
 11
342.281083
 21
785.467316
 31
0.0
  0
LINE
  5
1181
100
AcDbEntity
  8
10000_FRONT
370
    25
390
0
  6
CONTINUOUS
 62
     7
100
AcDbLine
 10
342.281083
 20
785.467316
 30
0.0
 11
342.413759
 21
785.603073
 31
0.0
  0
LINE
  5
1182
100
AcDbEntity
  8
10000_FRONT
370
    25
390
0
  6
CONTINUOUS
 62
     7
100
AcDbLine
 10
342.413759
 20
785.603073
 30
0.0
 11
342.553403
 21
785.733459
 31
0.0
  0
LINE
  5
1183
100
AcDbEntity
  8
10000_FRONT
370
    25
390
0
  6
CONTINUOUS
 62
     7
100
AcDbLine
 10
342.553403
 20
785.733459
 30
0.0
 11
342.700769
 21
785.858978
 31
0.0
  0
LINE
  5
1184
100
AcDbEntity
  8
10000_FRONT
370
    25
390
0
  6
CONTINUOUS
 62
     7
100
AcDbLine
 10
342.700769
 20
785.858978
 30
0.0
 11
342.855401
 21
785.978851
 31
0.0
  0
LINE
  5
1185
100
AcDbEntity
  8
10000_FRONT
370
    25
390
0
  6
CONTINUOUS
 62
     7
100
AcDbLine
 10
342.855401
 20
785.978851
 30
0.0
 11
343.016858
 21
786.092339
 31
0.0
  0
LINE
  5
1186
100
AcDbEntity
  8
10000_FRONT
370
    25
390
0
  6
CONTINUOUS
 62
     7
100
AcDbLine
 10
343.016858
 20
786.092339
 30
0.0
 11
343.184644
 21
786.19873
 31
0.0
  0
LINE
  5
1187
100
AcDbEntity
  8
10000_FRONT
370
    25
390
0
  6
CONTINUOUS
 62
     7
100
AcDbLine
 10
343.184644
 20
786.19873
 30
0.0
 11
343.358129
 21
786.297546
 31
0.0
  0
LINE
  5
1188
100
AcDbEntity
  8
10000_FRONT
370
    25
390
0
  6
CONTINUOUS
 62
     7
100
AcDbLine
 10
343.358129
 20
786.297546
 30
0.0
 11
343.536649
 21
786.388321
 31
0.0
  0
LINE
  5
1189
100
AcDbEntity
  8
10000_FRONT
370
    25
390
0
  6
CONTINUOUS
 62
     7
100
AcDbLine
 10
343.536649
 20
786.388321
 30
0.0
 11
343.719556
 21
786.470612
 31
0.0
  0
LINE
  5
118A
100
AcDbEntity
  8
10000_FRONT
370
    25
390
0
  6
CONTINUOUS
 62
     7
100
AcDbLine
 10
343.719556
 20
786.470612
 30
0.0
 11
343.906228
 21
786.544014
 31
0.0
  0
LINE
  5
118B
100
AcDbEntity
  8
10000_FRONT
370
    25
390
0
  6
CONTINUOUS
 62
     7
100
AcDbLine
 10
343.906228
 20
786.544014
 30
0.0
 11
344.095998
 21
786.608353
 31
0.0
  0
LINE
  5
118C
100
AcDbEntity
  8
10000_FRONT
370
    25
390
0
  6
CONTINUOUS
 62
     7
100
AcDbLine
 10
344.095998
 20
786.608353
 30
0.0
 11
344.288083
 21
786.663483
 31
0.0
  0
LINE
  5
118D
100
AcDbEntity
  8
10000_FRONT
370
    25
390
0
  6
CONTINUOUS
 62
     7
100
AcDbLine
 10
344.288083
 20
786.663483
 30
0.0
 11
344.481698
 21
786.709259
 31
0.0
  0
LINE
  5
118E
100
AcDbEntity
  8
10000_FRONT
370
    25
390
0
  6
CONTINUOUS
 62
     7
100
AcDbLine
 10
344.481698
 20
786.709259
 30
0.0
 11
344.676057
 21
786.745552
 31
0.0
  0
LINE
  5
118F
100
AcDbEntity
  8
10000_FRONT
370
    25
390
0
  6
CONTINUOUS
 62
     7
100
AcDbLine
 10
344.676057
 20
786.745552
 30
0.0
 11
344.870324
 21
786.772446
 31
0.0
  0
LINE
  5
1190
100
AcDbEntity
  8
10000_FRONT
370
    25
390
0
  6
CONTINUOUS
 62
     7
100
AcDbLine
 10
344.870324
 20
786.772446
 30
0.0
 11
345.063653
 21
786.790161
 31
0.0
  0
LINE
  5
1191
100
AcDbEntity
  8
10000_FRONT
370
    25
390
0
  6
CONTINUOUS
 62
     7
100
AcDbLine
 10
345.063653
 20
786.790161
 30
0.0
 11
345.255182
 21
786.79892
 31
0.0
  0
LINE
  5
1192
100
AcDbEntity
  8
10000_FRONT
370
    25
390
0
  6
CONTINUOUS
 62
     7
100
AcDbLine
 10
345.255182
 20
786.79892
 30
0.0
 11
345.444829
 21
786.79892
 31
0.0
  0
LINE
  5
1193
100
AcDbEntity
  8
10000_FRONT
370
    25
390
0
  6
CONTINUOUS
 62
     7
100
AcDbLine
 10
345.444829
 20
786.79892
 30
0.0
 11
345.636358
 21
786.790161
 31
0.0
  0
LINE
  5
1194
100
AcDbEntity
  8
10000_FRONT
370
    25
390
0
  6
CONTINUOUS
 62
     7
100
AcDbLine
 10
345.636358
 20
786.790161
 30
0.0
 11
345.829683
 21
786.772446
 31
0.0
  0
LINE
  5
1195
100
AcDbEntity
  8
10000_FRONT
370
    25
390
0
  6
CONTINUOUS
 62
     7
100
AcDbLine
 10
345.829683
 20
786.772446
 30
0.0
 11
346.023954
 21
786.745552
 31
0.0
  0
LINE
  5
1196
100
AcDbEntity
  8
10000_FRONT
370
    25
390
0
  6
CONTINUOUS
 62
     7
100
AcDbLine
 10
346.023954
 20
786.745552
 30
0.0
 11
346.218312
 21
786.709259
 31
0.0
  0
LINE
  5
1197
100
AcDbEntity
  8
10000_FRONT
370
    25
390
0
  6
CONTINUOUS
 62
     7
100
AcDbLine
 10
346.218312
 20
786.709259
 30
0.0
 11
346.411927
 21
786.663483
 31
0.0
  0
LINE
  5
1198
100
AcDbEntity
  8
10000_FRONT
370
    25
390
0
  6
CONTINUOUS
 62
     7
100
AcDbLine
 10
346.411927
 20
786.663483
 30
0.0
 11
346.604013
 21
786.608353
 31
0.0
  0
LINE
  5
1199
100
AcDbEntity
  8
10000_FRONT
370
    25
390
0
  6
CONTINUOUS
 62
     7
100
AcDbLine
 10
346.604013
 20
786.608353
 30
0.0
 11
346.793782
 21
786.544014
 31
0.0
  0
LINE
  5
119A
100
AcDbEntity
  8
10000_FRONT
370
    25
390
0
  6
CONTINUOUS
 62
     7
100
AcDbLine
 10
346.793782
 20
786.544014
 30
0.0
 11
346.980455
 21
786.470612
 31
0.0
  0
LINE
  5
119B
100
AcDbEntity
  8
10000_FRONT
370
    25
390
0
  6
CONTINUOUS
 62
     7
100
AcDbLine
 10
346.980455
 20
786.470612
 30
0.0
 11
347.163362
 21
786.388321
 31
0.0
  0
LINE
  5
119C
100
AcDbEntity
  8
10000_FRONT
370
    25
390
0
  6
CONTINUOUS
 62
     7
100
AcDbLine
 10
347.163362
 20
786.388321
 30
0.0
 11
347.341882
 21
786.297546
 31
0.0
  0
LINE
  5
119D
100
AcDbEntity
  8
10000_FRONT
370
    25
390
0
  6
CONTINUOUS
 62
     7
100
AcDbLine
 10
347.341882
 20
786.297546
 30
0.0
 11
347.515367
 21
786.19873
 31
0.0
  0
LINE
  5
119E
100
AcDbEntity
  8
10000_FRONT
370
    25
390
0
  6
CONTINUOUS
 62
     7
100
AcDbLine
 10
347.515367
 20
786.19873
 30
0.0
 11
347.683149
 21
786.092339
 31
0.0
  0
LINE
  5
119F
100
AcDbEntity
  8
10000_FRONT
370
    25
390
0
  6
CONTINUOUS
 62
     7
100
AcDbLine
 10
347.683149
 20
786.092339
 30
0.0
 11
347.844606
 21
785.978851
 31
0.0
  0
LINE
  5
11A0
100
AcDbEntity
  8
10000_FRONT
370
    25
390
0
  6
CONTINUOUS
 62
     7
100
AcDbLine
 10
347.844606
 20
785.978851
 30
0.0
 11
347.999242
 21
785.858978
 31
0.0
  0
LINE
  5
11A1
100
AcDbEntity
  8
10000_FRONT
370
    25
390
0
  6
CONTINUOUS
 62
     7
100
AcDbLine
 10
347.999242
 20
785.858978
 30
0.0
 11
348.146608
 21
785.733459
 31
0.0
  0
LINE
  5
11A2
100
AcDbEntity
  8
10000_FRONT
370
    25
390
0
  6
CONTINUOUS
 62
     7
100
AcDbLine
 10
348.146608
 20
785.733459
 30
0.0
 11
348.286248
 21
785.603073
 31
0.0
  0
LINE
  5
11A3
100
AcDbEntity
  8
10000_FRONT
370
    25
390
0
  6
CONTINUOUS
 62
     7
100
AcDbLine
 10
348.286248
 20
785.603073
 30
0.0
 11
348.418927
 21
785.467316
 31
0.0
  0
LINE
  5
11A4
100
AcDbEntity
  8
10000_FRONT
370
    25
390
0
  6
CONTINUOUS
 62
     7
100
AcDbLine
 10
348.418927
 20
785.467316
 30
0.0
 11
348.546968
 21
785.323753
 31
0.0
  0
LINE
  5
11A5
100
AcDbEntity
  8
10000_FRONT
370
    25
390
0
  6
CONTINUOUS
 62
     7
100
AcDbLine
 10
348.546968
 20
785.323753
 30
0.0
 11
348.669755
 21
785.172691
 31
0.0
  0
LINE
  5
11A6
100
AcDbEntity
  8
10000_FRONT
370
    25
390
0
  6
CONTINUOUS
 62
     7
100
AcDbLine
 10
348.669755
 20
785.172691
 30
0.0
 11
348.786527
 21
785.014587
 31
0.0
  0
LINE
  5
11A7
100
AcDbEntity
  8
10000_FRONT
370
    25
390
0
  6
CONTINUOUS
 62
     7
100
AcDbLine
 10
348.786527
 20
785.014587
 30
0.0
 11
348.896531
 21
784.849892
 31
0.0
  0
LINE
  5
11A8
100
AcDbEntity
  8
10000_FRONT
370
    25
390
0
  6
CONTINUOUS
 62
     7
100
AcDbLine
 10
348.896531
 20
784.849892
 30
0.0
 11
348.999185
 21
784.679176
 31
0.0
  0
LINE
  5
11A9
100
AcDbEntity
  8
10000_FRONT
370
    25
390
0
  6
CONTINUOUS
 62
     7
100
AcDbLine
 10
348.999185
 20
784.679176
 30
0.0
 11
349.094026
 21
784.503098
 31
0.0
  0
LINE
  5
11AA
100
AcDbEntity
  8
10000_FRONT
370
    25
390
0
  6
CONTINUOUS
 62
     7
100
AcDbLine
 10
349.094026
 20
784.503098
 30
0.0
 11
349.180608
 21
784.322304
 31
0.0
  0
LINE
  5
11AB
100
AcDbEntity
  8
10000_FRONT
370
    25
390
0
  6
CONTINUOUS
 62
     7
100
AcDbLine
 10
349.180608
 20
784.322304
 30
0.0
 11
349.258481
 21
784.137451
 31
0.0
  0
LINE
  5
11AC
100
AcDbEntity
  8
10000_FRONT
370
    25
390
0
  6
CONTINUOUS
 62
     7
100
AcDbLine
 10
349.258481
 20
784.137451
 30
0.0
 11
349.327363
 21
783.949142
 31
0.0
  0
LINE
  5
11AD
100
AcDbEntity
  8
10000_FRONT
370
    25
390
0
  6
CONTINUOUS
 62
     7
100
AcDbLine
 10
349.327363
 20
783.949142
 30
0.0
 11
349.387105
 21
783.758125
 31
0.0
  0
LINE
  5
11AE
100
AcDbEntity
  8
10000_FRONT
370
    25
390
0
  6
CONTINUOUS
 62
     7
100
AcDbLine
 10
349.387105
 20
783.758125
 30
0.0
 11
349.43757
 21
783.565186
 31
0.0
  0
LINE
  5
11AF
100
AcDbEntity
  8
10000_FRONT
370
    25
390
0
  6
CONTINUOUS
 62
     7
100
AcDbLine
 10
349.43757
 20
783.565186
 30
0.0
 11
349.478608
 21
783.371109
 31
0.0
  0
LINE
  5
11B0
100
AcDbEntity
  8
10000_FRONT
370
    25
390
0
  6
CONTINUOUS
 62
     7
100
AcDbLine
 10
349.478608
 20
783.371109
 30
0.0
 11
349.510175
 21
783.176704
 31
0.0
  0
LINE
  5
11B1
100
AcDbEntity
  8
10000_FRONT
370
    25
390
0
  6
CONTINUOUS
 62
     7
100
AcDbLine
 10
349.510175
 20
783.176704
 30
0.0
 11
349.532449
 21
782.982811
 31
0.0
  0
LINE
  5
11B2
100
AcDbEntity
  8
10000_FRONT
370
    25
390
0
  6
CONTINUOUS
 62
     7
100
AcDbLine
 10
349.532449
 20
782.982811
 30
0.0
 11
349.545652
 21
782.790291
 31
0.0
  0
LINE
  5
11B3
100
AcDbEntity
  8
10000_FRONT
370
    25
390
0
  6
CONTINUOUS
 62
     7
100
AcDbLine
 10
349.545652
 20
782.790291
 30
0.0
 11
349.550004
 21
782.599998
 31
0.0
  0
LINE
  5
11B4
100
AcDbEntity
  8
10000_FRONT
370
    25
390
0
  6
CONTINUOUS
 62
     7
100
AcDbLine
 10
341.150007
 20
795.599998
 30
0.0
 11
341.154359
 21
795.790306
 31
0.0
  0
LINE
  5
11B5
100
AcDbEntity
  8
10000_FRONT
370
    25
390
0
  6
CONTINUOUS
 62
     7
100
AcDbLine
 10
341.154359
 20
795.790306
 30
0.0
 11
341.167562
 21
795.982834
 31
0.0
  0
LINE
  5
11B6
100
AcDbEntity
  8
10000_FRONT
370
    25
390
0
  6
CONTINUOUS
 62
     7
100
AcDbLine
 10
341.167562
 20
795.982834
 30
0.0
 11
341.18984
 21
796.176735
 31
0.0
  0
LINE
  5
11B7
100
AcDbEntity
  8
10000_FRONT
370
    25
390
0
  6
CONTINUOUS
 62
     7
100
AcDbLine
 10
341.18984
 20
796.176735
 30
0.0
 11
341.221406
 21
796.371147
 31
0.0
  0
LINE
  5
11B8
100
AcDbEntity
  8
10000_FRONT
370
    25
390
0
  6
CONTINUOUS
 62
     7
100
AcDbLine
 10
341.221406
 20
796.371147
 30
0.0
 11
341.262449
 21
796.565224
 31
0.0
  0
LINE
  5
11B9
100
AcDbEntity
  8
10000_FRONT
370
    25
390
0
  6
CONTINUOUS
 62
     7
100
AcDbLine
 10
341.262449
 20
796.565224
 30
0.0
 11
341.312917
 21
796.758163
 31
0.0
  0
LINE
  5
11BA
100
AcDbEntity
  8
10000_FRONT
370
    25
390
0
  6
CONTINUOUS
 62
     7
100
AcDbLine
 10
341.312917
 20
796.758163
 30
0.0
 11
341.372663
 21
796.949188
 31
0.0
  0
LINE
  5
11BB
100
AcDbEntity
  8
10000_FRONT
370
    25
390
0
  6
CONTINUOUS
 62
     7
100
AcDbLine
 10
341.372663
 20
796.949188
 30
0.0
 11
341.441549
 21
797.137497
 31
0.0
  0
LINE
  5
11BC
100
AcDbEntity
  8
10000_FRONT
370
    25
390
0
  6
CONTINUOUS
 62
     7
100
AcDbLine
 10
341.441549
 20
797.137497
 30
0.0
 11
341.519426
 21
797.32235
 31
0.0
  0
LINE
  5
11BD
100
AcDbEntity
  8
10000_FRONT
370
    25
390
0
  6
CONTINUOUS
 62
     7
100
AcDbLine
 10
341.519426
 20
797.32235
 30
0.0
 11
341.606008
 21
797.503143
 31
0.0
  0
LINE
  5
11BE
100
AcDbEntity
  8
10000_FRONT
370
    25
390
0
  6
CONTINUOUS
 62
     7
100
AcDbLine
 10
341.606008
 20
797.503143
 30
0.0
 11
341.700853
 21
797.679222
 31
0.0
  0
LINE
  5
11BF
100
AcDbEntity
  8
10000_FRONT
370
    25
390
0
  6
CONTINUOUS
 62
     7
100
AcDbLine
 10
341.700853
 20
797.679222
 30
0.0
 11
341.803506
 21
797.849937
 31
0.0
  0
LINE
  5
11C0
100
AcDbEntity
  8
10000_FRONT
370
    25
390
0
  6
CONTINUOUS
 62
     7
100
AcDbLine
 10
341.803506
 20
797.849937
 30
0.0
 11
341.913511
 21
798.014626
 31
0.0
  0
LINE
  5
11C1
100
AcDbEntity
  8
10000_FRONT
370
    25
390
0
  6
CONTINUOUS
 62
     7
100
AcDbLine
 10
341.913511
 20
798.014626
 30
0.0
 11
342.030282
 21
798.172729
 31
0.0
  0
LINE
  5
11C2
100
AcDbEntity
  8
10000_FRONT
370
    25
390
0
  6
CONTINUOUS
 62
     7
100
AcDbLine
 10
342.030282
 20
798.172729
 30
0.0
 11
342.15307
 21
798.323784
 31
0.0
  0
LINE
  5
11C3
100
AcDbEntity
  8
10000_FRONT
370
    25
390
0
  6
CONTINUOUS
 62
     7
100
AcDbLine
 10
342.15307
 20
798.323784
 30
0.0
 11
342.28111
 21
798.467346
 31
0.0
  0
LINE
  5
11C4
100
AcDbEntity
  8
10000_FRONT
370
    25
390
0
  6
CONTINUOUS
 62
     7
100
AcDbLine
 10
342.28111
 20
798.467346
 30
0.0
 11
342.413785
 21
798.603096
 31
0.0
  0
LINE
  5
11C5
100
AcDbEntity
  8
10000_FRONT
370
    25
390
0
  6
CONTINUOUS
 62
     7
100
AcDbLine
 10
342.413785
 20
798.603096
 30
0.0
 11
342.553426
 21
798.733482
 31
0.0
  0
LINE
  5
11C6
100
AcDbEntity
  8
10000_FRONT
370
    25
390
0
  6
CONTINUOUS
 62
     7
100
AcDbLine
 10
342.553426
 20
798.733482
 30
0.0
 11
342.700792
 21
798.858994
 31
0.0
  0
LINE
  5
11C7
100
AcDbEntity
  8
10000_FRONT
370
    25
390
0
  6
CONTINUOUS
 62
     7
100
AcDbLine
 10
342.700792
 20
798.858994
 30
0.0
 11
342.855424
 21
798.978874
 31
0.0
  0
LINE
  5
11C8
100
AcDbEntity
  8
10000_FRONT
370
    25
390
0
  6
CONTINUOUS
 62
     7
100
AcDbLine
 10
342.855424
 20
798.978874
 30
0.0
 11
343.016881
 21
799.092354
 31
0.0
  0
LINE
  5
11C9
100
AcDbEntity
  8
10000_FRONT
370
    25
390
0
  6
CONTINUOUS
 62
     7
100
AcDbLine
 10
343.016881
 20
799.092354
 30
0.0
 11
343.184663
 21
799.198746
 31
0.0
  0
LINE
  5
11CA
100
AcDbEntity
  8
10000_FRONT
370
    25
390
0
  6
CONTINUOUS
 62
     7
100
AcDbLine
 10
343.184663
 20
799.198746
 30
0.0
 11
343.358144
 21
799.297554
 31
0.0
  0
LINE
  5
11CB
100
AcDbEntity
  8
10000_FRONT
370
    25
390
0
  6
CONTINUOUS
 62
     7
100
AcDbLine
 10
343.358144
 20
799.297554
 30
0.0
 11
343.536664
 21
799.388329
 31
0.0
  0
LINE
  5
11CC
100
AcDbEntity
  8
10000_FRONT
370
    25
390
0
  6
CONTINUOUS
 62
     7
100
AcDbLine
 10
343.536664
 20
799.388329
 30
0.0
 11
343.719568
 21
799.470619
 31
0.0
  0
LINE
  5
11CD
100
AcDbEntity
  8
10000_FRONT
370
    25
390
0
  6
CONTINUOUS
 62
     7
100
AcDbLine
 10
343.719568
 20
799.470619
 30
0.0
 11
343.906236
 21
799.544022
 31
0.0
  0
LINE
  5
11CE
100
AcDbEntity
  8
10000_FRONT
370
    25
390
0
  6
CONTINUOUS
 62
     7
100
AcDbLine
 10
343.906236
 20
799.544022
 30
0.0
 11
344.096006
 21
799.608353
 31
0.0
  0
LINE
  5
11CF
100
AcDbEntity
  8
10000_FRONT
370
    25
390
0
  6
CONTINUOUS
 62
     7
100
AcDbLine
 10
344.096006
 20
799.608353
 30
0.0
 11
344.288091
 21
799.663483
 31
0.0
  0
LINE
  5
11D0
100
AcDbEntity
  8
10000_FRONT
370
    25
390
0
  6
CONTINUOUS
 62
     7
100
AcDbLine
 10
344.288091
 20
799.663483
 30
0.0
 11
344.481702
 21
799.709259
 31
0.0
  0
LINE
  5
11D1
100
AcDbEntity
  8
10000_FRONT
370
    25
390
0
  6
CONTINUOUS
 62
     7
100
AcDbLine
 10
344.481702
 20
799.709259
 30
0.0
 11
344.676057
 21
799.745552
 31
0.0
  0
LINE
  5
11D2
100
AcDbEntity
  8
10000_FRONT
370
    25
390
0
  6
CONTINUOUS
 62
     7
100
AcDbLine
 10
344.676057
 20
799.745552
 30
0.0
 11
344.870328
 21
799.772446
 31
0.0
  0
LINE
  5
11D3
100
AcDbEntity
  8
10000_FRONT
370
    25
390
0
  6
CONTINUOUS
 62
     7
100
AcDbLine
 10
344.870328
 20
799.772446
 30
0.0
 11
345.063653
 21
799.790161
 31
0.0
  0
LINE
  5
11D4
100
AcDbEntity
  8
10000_FRONT
370
    25
390
0
  6
CONTINUOUS
 62
     7
100
AcDbLine
 10
345.063653
 20
799.790161
 30
0.0
 11
345.255182
 21
799.79892
 31
0.0
  0
LINE
  5
11D5
100
AcDbEntity
  8
10000_FRONT
370
    25
390
0
  6
CONTINUOUS
 62
     7
100
AcDbLine
 10
345.255182
 20
799.79892
 30
0.0
 11
345.444829
 21
799.79892
 31
0.0
  0
LINE
  5
11D6
100
AcDbEntity
  8
10000_FRONT
370
    25
390
0
  6
CONTINUOUS
 62
     7
100
AcDbLine
 10
345.444829
 20
799.79892
 30
0.0
 11
345.636358
 21
799.790161
 31
0.0
  0
LINE
  5
11D7
100
AcDbEntity
  8
10000_FRONT
370
    25
390
0
  6
CONTINUOUS
 62
     7
100
AcDbLine
 10
345.636358
 20
799.790161
 30
0.0
 11
345.829683
 21
799.772446
 31
0.0
  0
LINE
  5
11D8
100
AcDbEntity
  8
10000_FRONT
370
    25
390
0
  6
CONTINUOUS
 62
     7
100
AcDbLine
 10
345.829683
 20
799.772446
 30
0.0
 11
346.02395
 21
799.745552
 31
0.0
  0
LINE
  5
11D9
100
AcDbEntity
  8
10000_FRONT
370
    25
390
0
  6
CONTINUOUS
 62
     7
100
AcDbLine
 10
346.02395
 20
799.745552
 30
0.0
 11
346.218309
 21
799.709259
 31
0.0
  0
LINE
  5
11DA
100
AcDbEntity
  8
10000_FRONT
370
    25
390
0
  6
CONTINUOUS
 62
     7
100
AcDbLine
 10
346.218309
 20
799.709259
 30
0.0
 11
346.41192
 21
799.663483
 31
0.0
  0
LINE
  5
11DB
100
AcDbEntity
  8
10000_FRONT
370
    25
390
0
  6
CONTINUOUS
 62
     7
100
AcDbLine
 10
346.41192
 20
799.663483
 30
0.0
 11
346.604005
 21
799.608353
 31
0.0
  0
LINE
  5
11DC
100
AcDbEntity
  8
10000_FRONT
370
    25
390
0
  6
CONTINUOUS
 62
     7
100
AcDbLine
 10
346.604005
 20
799.608353
 30
0.0
 11
346.793771
 21
799.544022
 31
0.0
  0
LINE
  5
11DD
100
AcDbEntity
  8
10000_FRONT
370
    25
390
0
  6
CONTINUOUS
 62
     7
100
AcDbLine
 10
346.793771
 20
799.544022
 30
0.0
 11
346.980443
 21
799.470619
 31
0.0
  0
LINE
  5
11DE
100
AcDbEntity
  8
10000_FRONT
370
    25
390
0
  6
CONTINUOUS
 62
     7
100
AcDbLine
 10
346.980443
 20
799.470619
 30
0.0
 11
347.163347
 21
799.388329
 31
0.0
  0
LINE
  5
11DF
100
AcDbEntity
  8
10000_FRONT
370
    25
390
0
  6
CONTINUOUS
 62
     7
100
AcDbLine
 10
347.163347
 20
799.388329
 30
0.0
 11
347.341867
 21
799.297554
 31
0.0
  0
LINE
  5
11E0
100
AcDbEntity
  8
10000_FRONT
370
    25
390
0
  6
CONTINUOUS
 62
     7
100
AcDbLine
 10
347.341867
 20
799.297554
 30
0.0
 11
347.515348
 21
799.198746
 31
0.0
  0
LINE
  5
11E1
100
AcDbEntity
  8
10000_FRONT
370
    25
390
0
  6
CONTINUOUS
 62
     7
100
AcDbLine
 10
347.515348
 20
799.198746
 30
0.0
 11
347.68313
 21
799.092354
 31
0.0
  0
LINE
  5
11E2
100
AcDbEntity
  8
10000_FRONT
370
    25
390
0
  6
CONTINUOUS
 62
     7
100
AcDbLine
 10
347.68313
 20
799.092354
 30
0.0
 11
347.844587
 21
798.978874
 31
0.0
  0
LINE
  5
11E3
100
AcDbEntity
  8
10000_FRONT
370
    25
390
0
  6
CONTINUOUS
 62
     7
100
AcDbLine
 10
347.844587
 20
798.978874
 30
0.0
 11
347.999219
 21
798.858994
 31
0.0
  0
LINE
  5
11E4
100
AcDbEntity
  8
10000_FRONT
370
    25
390
0
  6
CONTINUOUS
 62
     7
100
AcDbLine
 10
347.999219
 20
798.858994
 30
0.0
 11
348.146581
 21
798.733482
 31
0.0
  0
LINE
  5
11E5
100
AcDbEntity
  8
10000_FRONT
370
    25
390
0
  6
CONTINUOUS
 62
     7
100
AcDbLine
 10
348.146581
 20
798.733482
 30
0.0
 11
348.286226
 21
798.603096
 31
0.0
  0
LINE
  5
11E6
100
AcDbEntity
  8
10000_FRONT
370
    25
390
0
  6
CONTINUOUS
 62
     7
100
AcDbLine
 10
348.286226
 20
798.603096
 30
0.0
 11
348.418897
 21
798.467346
 31
0.0
  0
LINE
  5
11E7
100
AcDbEntity
  8
10000_FRONT
370
    25
390
0
  6
CONTINUOUS
 62
     7
100
AcDbLine
 10
348.418897
 20
798.467346
 30
0.0
 11
348.546941
 21
798.323784
 31
0.0
  0
LINE
  5
11E8
100
AcDbEntity
  8
10000_FRONT
370
    25
390
0
  6
CONTINUOUS
 62
     7
100
AcDbLine
 10
348.546941
 20
798.323784
 30
0.0
 11
348.669729
 21
798.172729
 31
0.0
  0
LINE
  5
11E9
100
AcDbEntity
  8
10000_FRONT
370
    25
390
0
  6
CONTINUOUS
 62
     7
100
AcDbLine
 10
348.669729
 20
798.172729
 30
0.0
 11
348.7865
 21
798.014626
 31
0.0
  0
LINE
  5
11EA
100
AcDbEntity
  8
10000_FRONT
370
    25
390
0
  6
CONTINUOUS
 62
     7
100
AcDbLine
 10
348.7865
 20
798.014626
 30
0.0
 11
348.896505
 21
797.849937
 31
0.0
  0
LINE
  5
11EB
100
AcDbEntity
  8
10000_FRONT
370
    25
390
0
  6
CONTINUOUS
 62
     7
100
AcDbLine
 10
348.896505
 20
797.849937
 30
0.0
 11
348.999158
 21
797.679222
 31
0.0
  0
LINE
  5
11EC
100
AcDbEntity
  8
10000_FRONT
370
    25
390
0
  6
CONTINUOUS
 62
     7
100
AcDbLine
 10
348.999158
 20
797.679222
 30
0.0
 11
349.094003
 21
797.503143
 31
0.0
  0
LINE
  5
11ED
100
AcDbEntity
  8
10000_FRONT
370
    25
390
0
  6
CONTINUOUS
 62
     7
100
AcDbLine
 10
349.094003
 20
797.503143
 30
0.0
 11
349.180585
 21
797.32235
 31
0.0
  0
LINE
  5
11EE
100
AcDbEntity
  8
10000_FRONT
370
    25
390
0
  6
CONTINUOUS
 62
     7
100
AcDbLine
 10
349.180585
 20
797.32235
 30
0.0
 11
349.258462
 21
797.137497
 31
0.0
  0
LINE
  5
11EF
100
AcDbEntity
  8
10000_FRONT
370
    25
390
0
  6
CONTINUOUS
 62
     7
100
AcDbLine
 10
349.258462
 20
797.137497
 30
0.0
 11
349.327348
 21
796.949188
 31
0.0
  0
LINE
  5
11F0
100
AcDbEntity
  8
10000_FRONT
370
    25
390
0
  6
CONTINUOUS
 62
     7
100
AcDbLine
 10
349.327348
 20
796.949188
 30
0.0
 11
349.387094
 21
796.758163
 31
0.0
  0
LINE
  5
11F1
100
AcDbEntity
  8
10000_FRONT
370
    25
390
0
  6
CONTINUOUS
 62
     7
100
AcDbLine
 10
349.387094
 20
796.758163
 30
0.0
 11
349.437562
 21
796.565224
 31
0.0
  0
LINE
  5
11F2
100
AcDbEntity
  8
10000_FRONT
370
    25
390
0
  6
CONTINUOUS
 62
     7
100
AcDbLine
 10
349.437562
 20
796.565224
 30
0.0
 11
349.478601
 21
796.371147
 31
0.0
  0
LINE
  5
11F3
100
AcDbEntity
  8
10000_FRONT
370
    25
390
0
  6
CONTINUOUS
 62
     7
100
AcDbLine
 10
349.478601
 20
796.371147
 30
0.0
 11
349.510171
 21
796.176735
 31
0.0
  0
LINE
  5
11F4
100
AcDbEntity
  8
10000_FRONT
370
    25
390
0
  6
CONTINUOUS
 62
     7
100
AcDbLine
 10
349.510171
 20
796.176735
 30
0.0
 11
349.532445
 21
795.982834
 31
0.0
  0
LINE
  5
11F5
100
AcDbEntity
  8
10000_FRONT
370
    25
390
0
  6
CONTINUOUS
 62
     7
100
AcDbLine
 10
349.532445
 20
795.982834
 30
0.0
 11
349.545652
 21
795.790306
 31
0.0
  0
LINE
  5
11F6
100
AcDbEntity
  8
10000_FRONT
370
    25
390
0
  6
CONTINUOUS
 62
     7
100
AcDbLine
 10
349.545652
 20
795.790306
 30
0.0
 11
349.550004
 21
795.599998
 31
0.0
  0
LINE
  5
11F7
100
AcDbEntity
  8
10000_FRONT
370
    25
390
0
  6
CONTINUOUS
 62
     7
100
AcDbLine
 10
294.100005
 20
791.199997
 30
0.0
 11
288.100005
 21
791.199997
 31
0.0
  0
LINE
  5
11F8
100
AcDbEntity
  8
10000_FRONT
370
    25
390
0
  6
CONTINUOUS
 62
     7
100
AcDbLine
 10
287.746452
 20
790.846443
 30
0.0
 11
288.100005
 21
791.199997
 31
0.0
  0
ARC
  5
11F9
100
AcDbEntity
  8
10000_FRONT
370
    25
390
0
  6
CONTINUOUS
 62
     7
100
AcDbCircle
 10
288.100005
 20
791.2
 30
0.0
 40
0.5
100
AcDbArc
 50
225.000278
 51
270.000044
  0
LINE
  5
11FA
100
AcDbEntity
  8
10000_FRONT
370
    25
390
0
  6
CONTINUOUS
 62
     7
100
AcDbLine
 10
294.100005
 20
790.699997
 30
0.0
 11
288.100005
 21
790.699997
 31
0.0
  0
ARC
  5
11FB
100
AcDbEntity
  8
10000_FRONT
370
    25
390
0
  6
CONTINUOUS
 62
     7
100
AcDbCircle
 10
294.100005
 20
791.2
 30
0.0
 40
0.5
100
AcDbArc
 50
269.999989
 51
314.999726
  0
LINE
  5
11FC
100
AcDbEntity
  8
10000_FRONT
370
    25
390
0
  6
CONTINUOUS
 62
     7
100
AcDbLine
 10
294.100005
 20
791.199997
 30
0.0
 11
294.453558
 21
790.846443
 31
0.0
  0
ARC
  5
11FD
100
AcDbEntity
  8
10000_FRONT
370
    25
390
0
  6
CONTINUOUS
 62
     7
100
AcDbCircle
 10
288.100005
 20
791.2
 30
0.0
 40
0.5
100
AcDbArc
 50
180.00035
 51
225.000278
  0
LINE
  5
11FE
100
AcDbEntity
  8
10000_FRONT
370
    25
390
0
  6
CONTINUOUS
 62
     7
100
AcDbLine
 10
288.100005
 20
791.199997
 30
0.0
 11
288.100005
 21
797.199997
 31
0.0
  0
LINE
  5
11FF
100
AcDbEntity
  8
10000_FRONT
370
    25
390
0
  6
CONTINUOUS
 62
     7
100
AcDbLine
 10
287.746452
 20
797.553551
 30
0.0
 11
288.100005
 21
797.199997
 31
0.0
  0
ARC
  5
1200
100
AcDbEntity
  8
10000_FRONT
370
    25
390
0
  6
CONTINUOUS
 62
     7
100
AcDbCircle
 10
288.100005
 20
797.2
 30
0.0
 40
0.5
100
AcDbArc
 50
135.000216
 51
180.00035
  0
LINE
  5
1201
100
AcDbEntity
  8
10000_FRONT
370
    25
390
0
  6
CONTINUOUS
 62
     7
100
AcDbLine
 10
287.600005
 20
791.199997
 30
0.0
 11
287.600005
 21
797.199997
 31
0.0
  0
LINE
  5
1202
100
AcDbEntity
  8
10000_FRONT
370
    25
390
0
  6
CONTINUOUS
 62
     7
100
AcDbLine
 10
294.100005
 20
791.199997
 30
0.0
 11
294.100005
 21
797.199997
 31
0.0
  0
LINE
  5
1203
100
AcDbEntity
  8
10000_FRONT
370
    25
390
0
  6
CONTINUOUS
 62
     7
100
AcDbLine
 10
294.100005
 20
797.199997
 30
0.0
 11
288.100005
 21
797.199997
 31
0.0
  0
ARC
  5
1204
100
AcDbEntity
  8
10000_FRONT
370
    25
390
0
  6
CONTINUOUS
 62
     7
100
AcDbCircle
 10
294.100005
 20
791.2
 30
0.0
 40
0.5
100
AcDbArc
 50
314.999726
 51
359.99965
  0
LINE
  5
1205
100
AcDbEntity
  8
10000_FRONT
370
    25
390
0
  6
CONTINUOUS
 62
     7
100
AcDbLine
 10
294.600005
 20
791.199997
 30
0.0
 11
294.600005
 21
797.199997
 31
0.0
  0
ARC
  5
1206
100
AcDbEntity
  8
10000_FRONT
370
    25
390
0
  6
CONTINUOUS
 62
     7
100
AcDbCircle
 10
294.100005
 20
797.2
 30
0.0
 40
0.5
100
AcDbArc
 50
359.99965
 51
44.99978
  0
LINE
  5
1207
100
AcDbEntity
  8
10000_FRONT
370
    25
390
0
  6
CONTINUOUS
 62
     7
100
AcDbLine
 10
294.100005
 20
797.199997
 30
0.0
 11
294.453558
 21
797.553551
 31
0.0
  0
ARC
  5
1208
100
AcDbEntity
  8
10000_FRONT
370
    25
390
0
  6
CONTINUOUS
 62
     7
100
AcDbCircle
 10
294.100005
 20
797.2
 30
0.0
 40
0.5
100
AcDbArc
 50
44.99978
 51
90.000011
  0
LINE
  5
1209
100
AcDbEntity
  8
10000_FRONT
370
    25
390
0
  6
CONTINUOUS
 62
     7
100
AcDbLine
 10
294.100005
 20
797.699997
 30
0.0
 11
288.100005
 21
797.699997
 31
0.0
  0
ARC
  5
120A
100
AcDbEntity
  8
10000_FRONT
370
    25
390
0
  6
CONTINUOUS
 62
     7
100
AcDbCircle
 10
288.100005
 20
797.2
 30
0.0
 40
0.5
100
AcDbArc
 50
89.999956
 51
135.000216
  0
LINE
  5
120B
100
AcDbEntity
  8
10000_FRONT
370
    25
390
0
  6
CONTINUOUS
 62
     7
100
AcDbLine
 10
287.500005
 20
791.099998
 30
0.0
 11
287.500005
 21
797.300003
 31
0.0
  0
LINE
  5
120C
100
AcDbEntity
  8
10000_FRONT
370
    25
390
0
  6
CONTINUOUS
 62
     7
100
AcDbLine
 10
287.500005
 20
797.300003
 30
0.0
 11
287.500497
 21
797.321671
 31
0.0
  0
LINE
  5
120D
100
AcDbEntity
  8
10000_FRONT
370
    25
390
0
  6
CONTINUOUS
 62
     7
100
AcDbLine
 10
287.500497
 20
797.321671
 30
0.0
 11
287.501976
 21
797.34359
 31
0.0
  0
LINE
  5
120E
100
AcDbEntity
  8
10000_FRONT
370
    25
390
0
  6
CONTINUOUS
 62
     7
100
AcDbLine
 10
287.501976
 20
797.34359
 30
0.0
 11
287.504446
 21
797.365662
 31
0.0
  0
LINE
  5
120F
100
AcDbEntity
  8
10000_FRONT
370
    25
390
0
  6
CONTINUOUS
 62
     7
100
AcDbLine
 10
287.504446
 20
797.365662
 30
0.0
 11
287.507911
 21
797.38781
 31
0.0
  0
LINE
  5
1210
100
AcDbEntity
  8
10000_FRONT
370
    25
390
0
  6
CONTINUOUS
 62
     7
100
AcDbLine
 10
287.507911
 20
797.38781
 30
0.0
 11
287.512373
 21
797.409935
 31
0.0
  0
LINE
  5
1211
100
AcDbEntity
  8
10000_FRONT
370
    25
390
0
  6
CONTINUOUS
 62
     7
100
AcDbLine
 10
287.512373
 20
797.409935
 30
0.0
 11
287.517839
 21
797.431969
 31
0.0
  0
LINE
  5
1212
100
AcDbEntity
  8
10000_FRONT
370
    25
390
0
  6
CONTINUOUS
 62
     7
100
AcDbLine
 10
287.517839
 20
797.431969
 30
0.0
 11
287.524308
 21
797.453812
 31
0.0
  0
LINE
  5
1213
100
AcDbEntity
  8
10000_FRONT
370
    25
390
0
  6
CONTINUOUS
 62
     7
100
AcDbLine
 10
287.524308
 20
797.453812
 30
0.0
 11
287.531789
 21
797.475388
 31
0.0
  0
LINE
  5
1214
100
AcDbEntity
  8
10000_FRONT
370
    25
390
0
  6
CONTINUOUS
 62
     7
100
AcDbLine
 10
287.531789
 20
797.475388
 30
0.0
 11
287.540282
 21
797.496605
 31
0.0
  0
LINE
  5
1215
100
AcDbEntity
  8
10000_FRONT
370
    25
390
0
  6
CONTINUOUS
 62
     7
100
AcDbLine
 10
287.540282
 20
797.496605
 30
0.0
 11
287.549771
 21
797.517387
 31
0.0
  0
LINE
  5
1216
100
AcDbEntity
  8
10000_FRONT
370
    25
390
0
  6
CONTINUOUS
 62
     7
100
AcDbLine
 10
287.549771
 20
797.517387
 30
0.0
 11
287.560197
 21
797.537682
 31
0.0
  0
LINE
  5
1217
100
AcDbEntity
  8
10000_FRONT
370
    25
390
0
  6
CONTINUOUS
 62
     7
100
AcDbLine
 10
287.560197
 20
797.537682
 30
0.0
 11
287.571497
 21
797.557419
 31
0.0
  0
LINE
  5
1218
100
AcDbEntity
  8
10000_FRONT
370
    25
390
0
  6
CONTINUOUS
 62
     7
100
AcDbLine
 10
287.571497
 20
797.557419
 30
0.0
 11
287.583608
 21
797.576546
 31
0.0
  0
LINE
  5
1219
100
AcDbEntity
  8
10000_FRONT
370
    25
390
0
  6
CONTINUOUS
 62
     7
100
AcDbLine
 10
287.583608
 20
797.576546
 30
0.0
 11
287.596466
 21
797.595009
 31
0.0
  0
LINE
  5
121A
100
AcDbEntity
  8
10000_FRONT
370
    25
390
0
  6
CONTINUOUS
 62
     7
100
AcDbLine
 10
287.596466
 20
797.595009
 30
0.0
 11
287.610009
 21
797.612755
 31
0.0
  0
LINE
  5
121B
100
AcDbEntity
  8
10000_FRONT
370
    25
390
0
  6
CONTINUOUS
 62
     7
100
AcDbLine
 10
287.610009
 20
797.612755
 30
0.0
 11
287.624174
 21
797.629707
 31
0.0
  0
LINE
  5
121C
100
AcDbEntity
  8
10000_FRONT
370
    25
390
0
  6
CONTINUOUS
 62
     7
100
AcDbLine
 10
287.624174
 20
797.629707
 30
0.0
 11
287.638897
 21
797.645828
 31
0.0
  0
LINE
  5
121D
100
AcDbEntity
  8
10000_FRONT
370
    25
390
0
  6
CONTINUOUS
 62
     7
100
AcDbLine
 10
287.638897
 20
797.645828
 30
0.0
 11
287.654172
 21
797.661102
 31
0.0
  0
LINE
  5
121E
100
AcDbEntity
  8
10000_FRONT
370
    25
390
0
  6
CONTINUOUS
 62
     7
100
AcDbLine
 10
287.654172
 20
797.661102
 30
0.0
 11
287.670288
 21
797.675827
 31
0.0
  0
LINE
  5
121F
100
AcDbEntity
  8
10000_FRONT
370
    25
390
0
  6
CONTINUOUS
 62
     7
100
AcDbLine
 10
287.670288
 20
797.675827
 30
0.0
 11
287.687245
 21
797.689987
 31
0.0
  0
LINE
  5
1220
100
AcDbEntity
  8
10000_FRONT
370
    25
390
0
  6
CONTINUOUS
 62
     7
100
AcDbLine
 10
287.687245
 20
797.689987
 30
0.0
 11
287.704984
 21
797.703529
 31
0.0
  0
LINE
  5
1221
100
AcDbEntity
  8
10000_FRONT
370
    25
390
0
  6
CONTINUOUS
 62
     7
100
AcDbLine
 10
287.704984
 20
797.703529
 30
0.0
 11
287.723448
 21
797.716393
 31
0.0
  0
LINE
  5
1222
100
AcDbEntity
  8
10000_FRONT
370
    25
390
0
  6
CONTINUOUS
 62
     7
100
AcDbLine
 10
287.723448
 20
797.716393
 30
0.0
 11
287.742579
 21
797.7285
 31
0.0
  0
LINE
  5
1223
100
AcDbEntity
  8
10000_FRONT
370
    25
390
0
  6
CONTINUOUS
 62
     7
100
AcDbLine
 10
287.742579
 20
797.7285
 30
0.0
 11
287.762318
 21
797.739807
 31
0.0
  0
LINE
  5
1224
100
AcDbEntity
  8
10000_FRONT
370
    25
390
0
  6
CONTINUOUS
 62
     7
100
AcDbLine
 10
287.762318
 20
797.739807
 30
0.0
 11
287.782609
 21
797.750229
 31
0.0
  0
LINE
  5
1225
100
AcDbEntity
  8
10000_FRONT
370
    25
390
0
  6
CONTINUOUS
 62
     7
100
AcDbLine
 10
287.782609
 20
797.750229
 30
0.0
 11
287.803393
 21
797.75972
 31
0.0
  0
LINE
  5
1226
100
AcDbEntity
  8
10000_FRONT
370
    25
390
0
  6
CONTINUOUS
 62
     7
100
AcDbLine
 10
287.803393
 20
797.75972
 30
0.0
 11
287.824611
 21
797.768211
 31
0.0
  0
LINE
  5
1227
100
AcDbEntity
  8
10000_FRONT
370
    25
390
0
  6
CONTINUOUS
 62
     7
100
AcDbLine
 10
287.824611
 20
797.768211
 30
0.0
 11
287.846185
 21
797.775696
 31
0.0
  0
LINE
  5
1228
100
AcDbEntity
  8
10000_FRONT
370
    25
390
0
  6
CONTINUOUS
 62
     7
100
AcDbLine
 10
287.846185
 20
797.775696
 30
0.0
 11
287.86803
 21
797.782166
 31
0.0
  0
LINE
  5
1229
100
AcDbEntity
  8
10000_FRONT
370
    25
390
0
  6
CONTINUOUS
 62
     7
100
AcDbLine
 10
287.86803
 20
797.782166
 30
0.0
 11
287.890062
 21
797.787628
 31
0.0
  0
LINE
  5
122A
100
AcDbEntity
  8
10000_FRONT
370
    25
390
0
  6
CONTINUOUS
 62
     7
100
AcDbLine
 10
287.890062
 20
797.787628
 30
0.0
 11
287.912193
 21
797.792091
 31
0.0
  0
LINE
  5
122B
100
AcDbEntity
  8
10000_FRONT
370
    25
390
0
  6
CONTINUOUS
 62
     7
100
AcDbLine
 10
287.912193
 20
797.792091
 30
0.0
 11
287.934338
 21
797.795555
 31
0.0
  0
LINE
  5
122C
100
AcDbEntity
  8
10000_FRONT
370
    25
390
0
  6
CONTINUOUS
 62
     7
100
AcDbLine
 10
287.934338
 20
797.795555
 30
0.0
 11
287.956413
 21
797.798027
 31
0.0
  0
LINE
  5
122D
100
AcDbEntity
  8
10000_FRONT
370
    25
390
0
  6
CONTINUOUS
 62
     7
100
AcDbLine
 10
287.956413
 20
797.798027
 30
0.0
 11
287.97833
 21
797.799507
 31
0.0
  0
LINE
  5
122E
100
AcDbEntity
  8
10000_FRONT
370
    25
390
0
  6
CONTINUOUS
 62
     7
100
AcDbLine
 10
287.97833
 20
797.799507
 30
0.0
 11
288.000005
 21
797.800003
 31
0.0
  0
LINE
  5
122F
100
AcDbEntity
  8
10000_FRONT
370
    25
390
0
  6
CONTINUOUS
 62
     7
100
AcDbLine
 10
288.000005
 20
797.800003
 30
0.0
 11
294.200005
 21
797.800003
 31
0.0
  0
LINE
  5
1230
100
AcDbEntity
  8
10000_FRONT
370
    25
390
0
  6
CONTINUOUS
 62
     7
100
AcDbLine
 10
294.200005
 20
797.800003
 30
0.0
 11
294.22168
 21
797.799507
 31
0.0
  0
LINE
  5
1231
100
AcDbEntity
  8
10000_FRONT
370
    25
390
0
  6
CONTINUOUS
 62
     7
100
AcDbLine
 10
294.22168
 20
797.799507
 30
0.0
 11
294.243598
 21
797.798027
 31
0.0
  0
LINE
  5
1232
100
AcDbEntity
  8
10000_FRONT
370
    25
390
0
  6
CONTINUOUS
 62
     7
100
AcDbLine
 10
294.243598
 20
797.798027
 30
0.0
 11
294.265672
 21
797.795555
 31
0.0
  0
LINE
  5
1233
100
AcDbEntity
  8
10000_FRONT
370
    25
390
0
  6
CONTINUOUS
 62
     7
100
AcDbLine
 10
294.265672
 20
797.795555
 30
0.0
 11
294.287818
 21
797.792091
 31
0.0
  0
LINE
  5
1234
100
AcDbEntity
  8
10000_FRONT
370
    25
390
0
  6
CONTINUOUS
 62
     7
100
AcDbLine
 10
294.287818
 20
797.792091
 30
0.0
 11
294.309949
 21
797.787628
 31
0.0
  0
LINE
  5
1235
100
AcDbEntity
  8
10000_FRONT
370
    25
390
0
  6
CONTINUOUS
 62
     7
100
AcDbLine
 10
294.309949
 20
797.787628
 30
0.0
 11
294.33198
 21
797.782166
 31
0.0
  0
LINE
  5
1236
100
AcDbEntity
  8
10000_FRONT
370
    25
390
0
  6
CONTINUOUS
 62
     7
100
AcDbLine
 10
294.33198
 20
797.782166
 30
0.0
 11
294.353825
 21
797.775696
 31
0.0
  0
LINE
  5
1237
100
AcDbEntity
  8
10000_FRONT
370
    25
390
0
  6
CONTINUOUS
 62
     7
100
AcDbLine
 10
294.353825
 20
797.775696
 30
0.0
 11
294.375399
 21
797.768211
 31
0.0
  0
LINE
  5
1238
100
AcDbEntity
  8
10000_FRONT
370
    25
390
0
  6
CONTINUOUS
 62
     7
100
AcDbLine
 10
294.375399
 20
797.768211
 30
0.0
 11
294.396617
 21
797.75972
 31
0.0
  0
LINE
  5
1239
100
AcDbEntity
  8
10000_FRONT
370
    25
390
0
  6
CONTINUOUS
 62
     7
100
AcDbLine
 10
294.396617
 20
797.75972
 30
0.0
 11
294.417401
 21
797.750229
 31
0.0
  0
LINE
  5
123A
100
AcDbEntity
  8
10000_FRONT
370
    25
390
0
  6
CONTINUOUS
 62
     7
100
AcDbLine
 10
294.417401
 20
797.750229
 30
0.0
 11
294.437692
 21
797.739807
 31
0.0
  0
LINE
  5
123B
100
AcDbEntity
  8
10000_FRONT
370
    25
390
0
  6
CONTINUOUS
 62
     7
100
AcDbLine
 10
294.437692
 20
797.739807
 30
0.0
 11
294.457432
 21
797.7285
 31
0.0
  0
LINE
  5
123C
100
AcDbEntity
  8
10000_FRONT
370
    25
390
0
  6
CONTINUOUS
 62
     7
100
AcDbLine
 10
294.457432
 20
797.7285
 30
0.0
 11
294.476562
 21
797.716393
 31
0.0
  0
LINE
  5
123D
100
AcDbEntity
  8
10000_FRONT
370
    25
390
0
  6
CONTINUOUS
 62
     7
100
AcDbLine
 10
294.476562
 20
797.716393
 30
0.0
 11
294.495026
 21
797.703529
 31
0.0
  0
LINE
  5
123E
100
AcDbEntity
  8
10000_FRONT
370
    25
390
0
  6
CONTINUOUS
 62
     7
100
AcDbLine
 10
294.495026
 20
797.703529
 30
0.0
 11
294.512765
 21
797.689987
 31
0.0
  0
LINE
  5
123F
100
AcDbEntity
  8
10000_FRONT
370
    25
390
0
  6
CONTINUOUS
 62
     7
100
AcDbLine
 10
294.512765
 20
797.689987
 30
0.0
 11
294.529721
 21
797.675827
 31
0.0
  0
LINE
  5
1240
100
AcDbEntity
  8
10000_FRONT
370
    25
390
0
  6
CONTINUOUS
 62
     7
100
AcDbLine
 10
294.529721
 20
797.675827
 30
0.0
 11
294.545837
 21
797.661102
 31
0.0
  0
LINE
  5
1241
100
AcDbEntity
  8
10000_FRONT
370
    25
390
0
  6
CONTINUOUS
 62
     7
100
AcDbLine
 10
294.545837
 20
797.661102
 30
0.0
 11
294.561113
 21
797.645828
 31
0.0
  0
LINE
  5
1242
100
AcDbEntity
  8
10000_FRONT
370
    25
390
0
  6
CONTINUOUS
 62
     7
100
AcDbLine
 10
294.561113
 20
797.645828
 30
0.0
 11
294.575836
 21
797.629707
 31
0.0
  0
LINE
  5
1243
100
AcDbEntity
  8
10000_FRONT
370
    25
390
0
  6
CONTINUOUS
 62
     7
100
AcDbLine
 10
294.575836
 20
797.629707
 30
0.0
 11
294.59
 21
797.612755
 31
0.0
  0
LINE
  5
1244
100
AcDbEntity
  8
10000_FRONT
370
    25
390
0
  6
CONTINUOUS
 62
     7
100
AcDbLine
 10
294.59
 20
797.612755
 30
0.0
 11
294.603544
 21
797.595009
 31
0.0
  0
LINE
  5
1245
100
AcDbEntity
  8
10000_FRONT
370
    25
390
0
  6
CONTINUOUS
 62
     7
100
AcDbLine
 10
294.603544
 20
797.595009
 30
0.0
 11
294.616402
 21
797.576546
 31
0.0
  0
LINE
  5
1246
100
AcDbEntity
  8
10000_FRONT
370
    25
390
0
  6
CONTINUOUS
 62
     7
100
AcDbLine
 10
294.616402
 20
797.576546
 30
0.0
 11
294.628513
 21
797.557419
 31
0.0
  0
LINE
  5
1247
100
AcDbEntity
  8
10000_FRONT
370
    25
390
0
  6
CONTINUOUS
 62
     7
100
AcDbLine
 10
294.628513
 20
797.557419
 30
0.0
 11
294.639813
 21
797.537682
 31
0.0
  0
LINE
  5
1248
100
AcDbEntity
  8
10000_FRONT
370
    25
390
0
  6
CONTINUOUS
 62
     7
100
AcDbLine
 10
294.639813
 20
797.537682
 30
0.0
 11
294.650239
 21
797.517387
 31
0.0
  0
LINE
  5
1249
100
AcDbEntity
  8
10000_FRONT
370
    25
390
0
  6
CONTINUOUS
 62
     7
100
AcDbLine
 10
294.650239
 20
797.517387
 30
0.0
 11
294.659728
 21
797.496605
 31
0.0
  0
LINE
  5
124A
100
AcDbEntity
  8
10000_FRONT
370
    25
390
0
  6
CONTINUOUS
 62
     7
100
AcDbLine
 10
294.659728
 20
797.496605
 30
0.0
 11
294.668221
 21
797.475388
 31
0.0
  0
LINE
  5
124B
100
AcDbEntity
  8
10000_FRONT
370
    25
390
0
  6
CONTINUOUS
 62
     7
100
AcDbLine
 10
294.668221
 20
797.475388
 30
0.0
 11
294.675701
 21
797.453812
 31
0.0
  0
LINE
  5
124C
100
AcDbEntity
  8
10000_FRONT
370
    25
390
0
  6
CONTINUOUS
 62
     7
100
AcDbLine
 10
294.675701
 20
797.453812
 30
0.0
 11
294.682172
 21
797.431969
 31
0.0
  0
LINE
  5
124D
100
AcDbEntity
  8
10000_FRONT
370
    25
390
0
  6
CONTINUOUS
 62
     7
100
AcDbLine
 10
294.682172
 20
797.431969
 30
0.0
 11
294.687636
 21
797.409935
 31
0.0
  0
LINE
  5
124E
100
AcDbEntity
  8
10000_FRONT
370
    25
390
0
  6
CONTINUOUS
 62
     7
100
AcDbLine
 10
294.687636
 20
797.409935
 30
0.0
 11
294.692099
 21
797.38781
 31
0.0
  0
LINE
  5
124F
100
AcDbEntity
  8
10000_FRONT
370
    25
390
0
  6
CONTINUOUS
 62
     7
100
AcDbLine
 10
294.692099
 20
797.38781
 30
0.0
 11
294.695564
 21
797.365662
 31
0.0
  0
LINE
  5
1250
100
AcDbEntity
  8
10000_FRONT
370
    25
390
0
  6
CONTINUOUS
 62
     7
100
AcDbLine
 10
294.695564
 20
797.365662
 30
0.0
 11
294.698034
 21
797.34359
 31
0.0
  0
LINE
  5
1251
100
AcDbEntity
  8
10000_FRONT
370
    25
390
0
  6
CONTINUOUS
 62
     7
100
AcDbLine
 10
294.698034
 20
797.34359
 30
0.0
 11
294.699513
 21
797.321671
 31
0.0
  0
LINE
  5
1252
100
AcDbEntity
  8
10000_FRONT
370
    25
390
0
  6
CONTINUOUS
 62
     7
100
AcDbLine
 10
294.699513
 20
797.321671
 30
0.0
 11
294.700005
 21
797.300003
 31
0.0
  0
LINE
  5
1253
100
AcDbEntity
  8
10000_FRONT
370
    25
390
0
  6
CONTINUOUS
 62
     7
100
AcDbLine
 10
294.700005
 20
791.099998
 30
0.0
 11
294.700005
 21
797.300003
 31
0.0
  0
LINE
  5
1254
100
AcDbEntity
  8
10000_FRONT
370
    25
390
0
  6
CONTINUOUS
 62
     7
100
AcDbLine
 10
294.700005
 20
791.099998
 30
0.0
 11
294.699513
 21
791.078323
 31
0.0
  0
LINE
  5
1255
100
AcDbEntity
  8
10000_FRONT
370
    25
390
0
  6
CONTINUOUS
 62
     7
100
AcDbLine
 10
294.699513
 20
791.078323
 30
0.0
 11
294.698034
 21
791.056412
 31
0.0
  0
LINE
  5
1256
100
AcDbEntity
  8
10000_FRONT
370
    25
390
0
  6
CONTINUOUS
 62
     7
100
AcDbLine
 10
294.698034
 20
791.056412
 30
0.0
 11
294.695563
 21
791.034332
 31
0.0
  0
LINE
  5
1257
100
AcDbEntity
  8
10000_FRONT
370
    25
390
0
  6
CONTINUOUS
 62
     7
100
AcDbLine
 10
294.695563
 20
791.034332
 30
0.0
 11
294.692099
 21
791.012192
 31
0.0
  0
LINE
  5
1258
100
AcDbEntity
  8
10000_FRONT
370
    25
390
0
  6
CONTINUOUS
 62
     7
100
AcDbLine
 10
294.692099
 20
791.012192
 30
0.0
 11
294.687636
 21
790.990059
 31
0.0
  0
LINE
  5
1259
100
AcDbEntity
  8
10000_FRONT
370
    25
390
0
  6
CONTINUOUS
 62
     7
100
AcDbLine
 10
294.687636
 20
790.990059
 30
0.0
 11
294.682171
 21
790.968025
 31
0.0
  0
LINE
  5
125A
100
AcDbEntity
  8
10000_FRONT
370
    25
390
0
  6
CONTINUOUS
 62
     7
100
AcDbLine
 10
294.682171
 20
790.968025
 30
0.0
 11
294.6757
 21
790.946182
 31
0.0
  0
LINE
  5
125B
100
AcDbEntity
  8
10000_FRONT
370
    25
390
0
  6
CONTINUOUS
 62
     7
100
AcDbLine
 10
294.6757
 20
790.946182
 30
0.0
 11
294.66822
 21
790.924606
 31
0.0
  0
LINE
  5
125C
100
AcDbEntity
  8
10000_FRONT
370
    25
390
0
  6
CONTINUOUS
 62
     7
100
AcDbLine
 10
294.66822
 20
790.924606
 30
0.0
 11
294.659726
 21
790.903389
 31
0.0
  0
LINE
  5
125D
100
AcDbEntity
  8
10000_FRONT
370
    25
390
0
  6
CONTINUOUS
 62
     7
100
AcDbLine
 10
294.659726
 20
790.903389
 30
0.0
 11
294.650237
 21
790.882607
 31
0.0
  0
LINE
  5
125E
100
AcDbEntity
  8
10000_FRONT
370
    25
390
0
  6
CONTINUOUS
 62
     7
100
AcDbLine
 10
294.650237
 20
790.882607
 30
0.0
 11
294.639811
 21
790.86232
 31
0.0
  0
LINE
  5
125F
100
AcDbEntity
  8
10000_FRONT
370
    25
390
0
  6
CONTINUOUS
 62
     7
100
AcDbLine
 10
294.639811
 20
790.86232
 30
0.0
 11
294.62851
 21
790.842575
 31
0.0
  0
LINE
  5
1260
100
AcDbEntity
  8
10000_FRONT
370
    25
390
0
  6
CONTINUOUS
 62
     7
100
AcDbLine
 10
294.62851
 20
790.842575
 30
0.0
 11
294.616399
 21
790.823448
 31
0.0
  0
LINE
  5
1261
100
AcDbEntity
  8
10000_FRONT
370
    25
390
0
  6
CONTINUOUS
 62
     7
100
AcDbLine
 10
294.616399
 20
790.823448
 30
0.0
 11
294.60354
 21
790.804985
 31
0.0
  0
LINE
  5
1262
100
AcDbEntity
  8
10000_FRONT
370
    25
390
0
  6
CONTINUOUS
 62
     7
100
AcDbLine
 10
294.60354
 20
790.804985
 30
0.0
 11
294.589997
 21
790.787247
 31
0.0
  0
LINE
  5
1263
100
AcDbEntity
  8
10000_FRONT
370
    25
390
0
  6
CONTINUOUS
 62
     7
100
AcDbLine
 10
294.589997
 20
790.787247
 30
0.0
 11
294.575832
 21
790.770287
 31
0.0
  0
LINE
  5
1264
100
AcDbEntity
  8
10000_FRONT
370
    25
390
0
  6
CONTINUOUS
 62
     7
100
AcDbLine
 10
294.575832
 20
790.770287
 30
0.0
 11
294.561109
 21
790.754173
 31
0.0
  0
LINE
  5
1265
100
AcDbEntity
  8
10000_FRONT
370
    25
390
0
  6
CONTINUOUS
 62
     7
100
AcDbLine
 10
294.561109
 20
790.754173
 30
0.0
 11
294.545834
 21
790.738899
 31
0.0
  0
LINE
  5
1266
100
AcDbEntity
  8
10000_FRONT
370
    25
390
0
  6
CONTINUOUS
 62
     7
100
AcDbLine
 10
294.545834
 20
790.738899
 30
0.0
 11
294.529717
 21
790.724174
 31
0.0
  0
LINE
  5
1267
100
AcDbEntity
  8
10000_FRONT
370
    25
390
0
  6
CONTINUOUS
 62
     7
100
AcDbLine
 10
294.529717
 20
790.724174
 30
0.0
 11
294.512761
 21
790.710007
 31
0.0
  0
LINE
  5
1268
100
AcDbEntity
  8
10000_FRONT
370
    25
390
0
  6
CONTINUOUS
 62
     7
100
AcDbLine
 10
294.512761
 20
790.710007
 30
0.0
 11
294.495021
 21
790.696465
 31
0.0
  0
LINE
  5
1269
100
AcDbEntity
  8
10000_FRONT
370
    25
390
0
  6
CONTINUOUS
 62
     7
100
AcDbLine
 10
294.495021
 20
790.696465
 30
0.0
 11
294.476558
 21
790.683609
 31
0.0
  0
LINE
  5
126A
100
AcDbEntity
  8
10000_FRONT
370
    25
390
0
  6
CONTINUOUS
 62
     7
100
AcDbLine
 10
294.476558
 20
790.683609
 30
0.0
 11
294.457427
 21
790.671494
 31
0.0
  0
LINE
  5
126B
100
AcDbEntity
  8
10000_FRONT
370
    25
390
0
  6
CONTINUOUS
 62
     7
100
AcDbLine
 10
294.457427
 20
790.671494
 30
0.0
 11
294.437687
 21
790.660194
 31
0.0
  0
LINE
  5
126C
100
AcDbEntity
  8
10000_FRONT
370
    25
390
0
  6
CONTINUOUS
 62
     7
100
AcDbLine
 10
294.437687
 20
790.660194
 30
0.0
 11
294.417397
 21
790.649765
 31
0.0
  0
LINE
  5
126D
100
AcDbEntity
  8
10000_FRONT
370
    25
390
0
  6
CONTINUOUS
 62
     7
100
AcDbLine
 10
294.417397
 20
790.649765
 30
0.0
 11
294.396613
 21
790.640282
 31
0.0
  0
LINE
  5
126E
100
AcDbEntity
  8
10000_FRONT
370
    25
390
0
  6
CONTINUOUS
 62
     7
100
AcDbLine
 10
294.396613
 20
790.640282
 30
0.0
 11
294.375396
 21
790.631783
 31
0.0
  0
LINE
  5
126F
100
AcDbEntity
  8
10000_FRONT
370
    25
390
0
  6
CONTINUOUS
 62
     7
100
AcDbLine
 10
294.375396
 20
790.631783
 30
0.0
 11
294.353822
 21
790.624306
 31
0.0
  0
LINE
  5
1270
100
AcDbEntity
  8
10000_FRONT
370
    25
390
0
  6
CONTINUOUS
 62
     7
100
AcDbLine
 10
294.353822
 20
790.624306
 30
0.0
 11
294.331977
 21
790.617836
 31
0.0
  0
LINE
  5
1271
100
AcDbEntity
  8
10000_FRONT
370
    25
390
0
  6
CONTINUOUS
 62
     7
100
AcDbLine
 10
294.331977
 20
790.617836
 30
0.0
 11
294.309946
 21
790.612366
 31
0.0
  0
LINE
  5
1272
100
AcDbEntity
  8
10000_FRONT
370
    25
390
0
  6
CONTINUOUS
 62
     7
100
AcDbLine
 10
294.309946
 20
790.612366
 30
0.0
 11
294.287816
 21
790.607903
 31
0.0
  0
LINE
  5
1273
100
AcDbEntity
  8
10000_FRONT
370
    25
390
0
  6
CONTINUOUS
 62
     7
100
AcDbLine
 10
294.287816
 20
790.607903
 30
0.0
 11
294.265671
 21
790.604439
 31
0.0
  0
LINE
  5
1274
100
AcDbEntity
  8
10000_FRONT
370
    25
390
0
  6
CONTINUOUS
 62
     7
100
AcDbLine
 10
294.265671
 20
790.604439
 30
0.0
 11
294.243597
 21
790.601974
 31
0.0
  0
LINE
  5
1275
100
AcDbEntity
  8
10000_FRONT
370
    25
390
0
  6
CONTINUOUS
 62
     7
100
AcDbLine
 10
294.243597
 20
790.601974
 30
0.0
 11
294.22168
 21
790.600494
 31
0.0
  0
LINE
  5
1276
100
AcDbEntity
  8
10000_FRONT
370
    25
390
0
  6
CONTINUOUS
 62
     7
100
AcDbLine
 10
294.22168
 20
790.600494
 30
0.0
 11
294.200005
 21
790.599998
 31
0.0
  0
LINE
  5
1277
100
AcDbEntity
  8
10000_FRONT
370
    25
390
0
  6
CONTINUOUS
 62
     7
100
AcDbLine
 10
294.200005
 20
790.599998
 30
0.0
 11
288.000005
 21
790.599998
 31
0.0
  0
LINE
  5
1278
100
AcDbEntity
  8
10000_FRONT
370
    25
390
0
  6
CONTINUOUS
 62
     7
100
AcDbLine
 10
288.000005
 20
790.599998
 30
0.0
 11
287.97833
 21
790.600494
 31
0.0
  0
LINE
  5
1279
100
AcDbEntity
  8
10000_FRONT
370
    25
390
0
  6
CONTINUOUS
 62
     7
100
AcDbLine
 10
287.97833
 20
790.600494
 30
0.0
 11
287.956414
 21
790.601974
 31
0.0
  0
LINE
  5
127A
100
AcDbEntity
  8
10000_FRONT
370
    25
390
0
  6
CONTINUOUS
 62
     7
100
AcDbLine
 10
287.956414
 20
790.601974
 30
0.0
 11
287.93434
 21
790.604439
 31
0.0
  0
LINE
  5
127B
100
AcDbEntity
  8
10000_FRONT
370
    25
390
0
  6
CONTINUOUS
 62
     7
100
AcDbLine
 10
287.93434
 20
790.604439
 30
0.0
 11
287.912194
 21
790.607903
 31
0.0
  0
LINE
  5
127C
100
AcDbEntity
  8
10000_FRONT
370
    25
390
0
  6
CONTINUOUS
 62
     7
100
AcDbLine
 10
287.912194
 20
790.607903
 30
0.0
 11
287.890064
 21
790.612366
 31
0.0
  0
LINE
  5
127D
100
AcDbEntity
  8
10000_FRONT
370
    25
390
0
  6
CONTINUOUS
 62
     7
100
AcDbLine
 10
287.890064
 20
790.612366
 30
0.0
 11
287.868034
 21
790.617836
 31
0.0
  0
LINE
  5
127E
100
AcDbEntity
  8
10000_FRONT
370
    25
390
0
  6
CONTINUOUS
 62
     7
100
AcDbLine
 10
287.868034
 20
790.617836
 30
0.0
 11
287.846188
 21
790.624306
 31
0.0
  0
LINE
  5
127F
100
AcDbEntity
  8
10000_FRONT
370
    25
390
0
  6
CONTINUOUS
 62
     7
100
AcDbLine
 10
287.846188
 20
790.624306
 30
0.0
 11
287.824615
 21
790.631783
 31
0.0
  0
LINE
  5
1280
100
AcDbEntity
  8
10000_FRONT
370
    25
390
0
  6
CONTINUOUS
 62
     7
100
AcDbLine
 10
287.824615
 20
790.631783
 30
0.0
 11
287.803397
 21
790.640282
 31
0.0
  0
LINE
  5
1281
100
AcDbEntity
  8
10000_FRONT
370
    25
390
0
  6
CONTINUOUS
 62
     7
100
AcDbLine
 10
287.803397
 20
790.640282
 30
0.0
 11
287.782613
 21
790.649765
 31
0.0
  0
LINE
  5
1282
100
AcDbEntity
  8
10000_FRONT
370
    25
390
0
  6
CONTINUOUS
 62
     7
100
AcDbLine
 10
287.782613
 20
790.649765
 30
0.0
 11
287.762323
 21
790.660194
 31
0.0
  0
LINE
  5
1283
100
AcDbEntity
  8
10000_FRONT
370
    25
390
0
  6
CONTINUOUS
 62
     7
100
AcDbLine
 10
287.762323
 20
790.660194
 30
0.0
 11
287.742583
 21
790.671494
 31
0.0
  0
LINE
  5
1284
100
AcDbEntity
  8
10000_FRONT
370
    25
390
0
  6
CONTINUOUS
 62
     7
100
AcDbLine
 10
287.742583
 20
790.671494
 30
0.0
 11
287.723453
 21
790.683609
 31
0.0
  0
LINE
  5
1285
100
AcDbEntity
  8
10000_FRONT
370
    25
390
0
  6
CONTINUOUS
 62
     7
100
AcDbLine
 10
287.723453
 20
790.683609
 30
0.0
 11
287.704989
 21
790.696465
 31
0.0
  0
LINE
  5
1286
100
AcDbEntity
  8
10000_FRONT
370
    25
390
0
  6
CONTINUOUS
 62
     7
100
AcDbLine
 10
287.704989
 20
790.696465
 30
0.0
 11
287.687249
 21
790.710007
 31
0.0
  0
LINE
  5
1287
100
AcDbEntity
  8
10000_FRONT
370
    25
390
0
  6
CONTINUOUS
 62
     7
100
AcDbLine
 10
287.687249
 20
790.710007
 30
0.0
 11
287.670293
 21
790.724174
 31
0.0
  0
LINE
  5
1288
100
AcDbEntity
  8
10000_FRONT
370
    25
390
0
  6
CONTINUOUS
 62
     7
100
AcDbLine
 10
287.670293
 20
790.724174
 30
0.0
 11
287.654177
 21
790.738899
 31
0.0
  0
LINE
  5
1289
100
AcDbEntity
  8
10000_FRONT
370
    25
390
0
  6
CONTINUOUS
 62
     7
100
AcDbLine
 10
287.654177
 20
790.738899
 30
0.0
 11
287.638901
 21
790.754173
 31
0.0
  0
LINE
  5
128A
100
AcDbEntity
  8
10000_FRONT
370
    25
390
0
  6
CONTINUOUS
 62
     7
100
AcDbLine
 10
287.638901
 20
790.754173
 30
0.0
 11
287.624178
 21
790.770287
 31
0.0
  0
LINE
  5
128B
100
AcDbEntity
  8
10000_FRONT
370
    25
390
0
  6
CONTINUOUS
 62
     7
100
AcDbLine
 10
287.624178
 20
790.770287
 30
0.0
 11
287.610013
 21
790.787247
 31
0.0
  0
LINE
  5
128C
100
AcDbEntity
  8
10000_FRONT
370
    25
390
0
  6
CONTINUOUS
 62
     7
100
AcDbLine
 10
287.610013
 20
790.787247
 30
0.0
 11
287.59647
 21
790.804985
 31
0.0
  0
LINE
  5
128D
100
AcDbEntity
  8
10000_FRONT
370
    25
390
0
  6
CONTINUOUS
 62
     7
100
AcDbLine
 10
287.59647
 20
790.804985
 30
0.0
 11
287.583611
 21
790.823448
 31
0.0
  0
LINE
  5
128E
100
AcDbEntity
  8
10000_FRONT
370
    25
390
0
  6
CONTINUOUS
 62
     7
100
AcDbLine
 10
287.583611
 20
790.823448
 30
0.0
 11
287.5715
 21
790.842575
 31
0.0
  0
LINE
  5
128F
100
AcDbEntity
  8
10000_FRONT
370
    25
390
0
  6
CONTINUOUS
 62
     7
100
AcDbLine
 10
287.5715
 20
790.842575
 30
0.0
 11
287.560199
 21
790.86232
 31
0.0
  0
LINE
  5
1290
100
AcDbEntity
  8
10000_FRONT
370
    25
390
0
  6
CONTINUOUS
 62
     7
100
AcDbLine
 10
287.560199
 20
790.86232
 30
0.0
 11
287.549772
 21
790.882607
 31
0.0
  0
LINE
  5
1291
100
AcDbEntity
  8
10000_FRONT
370
    25
390
0
  6
CONTINUOUS
 62
     7
100
AcDbLine
 10
287.549772
 20
790.882607
 30
0.0
 11
287.540283
 21
790.903389
 31
0.0
  0
LINE
  5
1292
100
AcDbEntity
  8
10000_FRONT
370
    25
390
0
  6
CONTINUOUS
 62
     7
100
AcDbLine
 10
287.540283
 20
790.903389
 30
0.0
 11
287.53179
 21
790.924606
 31
0.0
  0
LINE
  5
1293
100
AcDbEntity
  8
10000_FRONT
370
    25
390
0
  6
CONTINUOUS
 62
     7
100
AcDbLine
 10
287.53179
 20
790.924606
 30
0.0
 11
287.524309
 21
790.946182
 31
0.0
  0
LINE
  5
1294
100
AcDbEntity
  8
10000_FRONT
370
    25
390
0
  6
CONTINUOUS
 62
     7
100
AcDbLine
 10
287.524309
 20
790.946182
 30
0.0
 11
287.517839
 21
790.968025
 31
0.0
  0
LINE
  5
1295
100
AcDbEntity
  8
10000_FRONT
370
    25
390
0
  6
CONTINUOUS
 62
     7
100
AcDbLine
 10
287.517839
 20
790.968025
 30
0.0
 11
287.512374
 21
790.990059
 31
0.0
  0
LINE
  5
1296
100
AcDbEntity
  8
10000_FRONT
370
    25
390
0
  6
CONTINUOUS
 62
     7
100
AcDbLine
 10
287.512374
 20
790.990059
 30
0.0
 11
287.507911
 21
791.012192
 31
0.0
  0
LINE
  5
1297
100
AcDbEntity
  8
10000_FRONT
370
    25
390
0
  6
CONTINUOUS
 62
     7
100
AcDbLine
 10
287.507911
 20
791.012192
 30
0.0
 11
287.504446
 21
791.034332
 31
0.0
  0
LINE
  5
1298
100
AcDbEntity
  8
10000_FRONT
370
    25
390
0
  6
CONTINUOUS
 62
     7
100
AcDbLine
 10
287.504446
 20
791.034332
 30
0.0
 11
287.501976
 21
791.056412
 31
0.0
  0
LINE
  5
1299
100
AcDbEntity
  8
10000_FRONT
370
    25
390
0
  6
CONTINUOUS
 62
     7
100
AcDbLine
 10
287.501976
 20
791.056412
 30
0.0
 11
287.500497
 21
791.078323
 31
0.0
  0
LINE
  5
129A
100
AcDbEntity
  8
10000_FRONT
370
    25
390
0
  6
CONTINUOUS
 62
     7
100
AcDbLine
 10
287.500497
 20
791.078323
 30
0.0
 11
287.500005
 21
791.099998
 31
0.0
  0
LINE
  5
129B
100
AcDbEntity
  8
10000_FRONT
370
    25
390
0
  6
CONTINUOUS
 62
     7
100
AcDbLine
 10
349.550004
 20
795.599998
 30
0.0
 11
349.546018
 21
795.417908
 31
0.0
  0
LINE
  5
129C
100
AcDbEntity
  8
10000_FRONT
370
    25
390
0
  6
CONTINUOUS
 62
     7
100
AcDbLine
 10
349.546018
 20
795.417908
 30
0.0
 11
349.533933
 21
795.233742
 31
0.0
  0
LINE
  5
129D
100
AcDbEntity
  8
10000_FRONT
370
    25
390
0
  6
CONTINUOUS
 62
     7
100
AcDbLine
 10
349.533933
 20
795.233742
 30
0.0
 11
349.513551
 21
795.048248
 31
0.0
  0
LINE
  5
129E
100
AcDbEntity
  8
10000_FRONT
370
    25
390
0
  6
CONTINUOUS
 62
     7
100
AcDbLine
 10
349.513551
 20
795.048248
 30
0.0
 11
349.484685
 21
794.86219
 31
0.0
  0
LINE
  5
129F
100
AcDbEntity
  8
10000_FRONT
370
    25
390
0
  6
CONTINUOUS
 62
     7
100
AcDbLine
 10
349.484685
 20
794.86219
 30
0.0
 11
349.447156
 21
794.6763
 31
0.0
  0
LINE
  5
12A0
100
AcDbEntity
  8
10000_FRONT
370
    25
390
0
  6
CONTINUOUS
 62
     7
100
AcDbLine
 10
349.447156
 20
794.6763
 30
0.0
 11
349.400968
 21
794.491302
 31
0.0
  0
LINE
  5
12A1
100
AcDbEntity
  8
10000_FRONT
370
    25
390
0
  6
CONTINUOUS
 62
     7
100
AcDbLine
 10
349.400968
 20
794.491302
 30
0.0
 11
349.346238
 21
794.307877
 31
0.0
  0
LINE
  5
12A2
100
AcDbEntity
  8
10000_FRONT
370
    25
390
0
  6
CONTINUOUS
 62
     7
100
AcDbLine
 10
349.346238
 20
794.307877
 30
0.0
 11
349.283101
 21
794.126717
 31
0.0
  0
LINE
  5
12A3
100
AcDbEntity
  8
10000_FRONT
370
    25
390
0
  6
CONTINUOUS
 62
     7
100
AcDbLine
 10
349.283101
 20
794.126717
 30
0.0
 11
349.211679
 21
793.948502
 31
0.0
  0
LINE
  5
12A4
100
AcDbEntity
  8
10000_FRONT
370
    25
390
0
  6
CONTINUOUS
 62
     7
100
AcDbLine
 10
349.211679
 20
793.948502
 30
0.0
 11
349.13215
 21
793.773804
 31
0.0
  0
LINE
  5
12A5
100
AcDbEntity
  8
10000_FRONT
370
    25
390
0
  6
CONTINUOUS
 62
     7
100
AcDbLine
 10
349.13215
 20
793.773804
 30
0.0
 11
349.04487
 21
793.603157
 31
0.0
  0
LINE
  5
12A6
100
AcDbEntity
  8
10000_FRONT
370
    25
390
0
  6
CONTINUOUS
 62
     7
100
AcDbLine
 10
349.04487
 20
793.603157
 30
0.0
 11
348.950242
 21
793.437149
 31
0.0
  0
LINE
  5
12A7
100
AcDbEntity
  8
10000_FRONT
370
    25
390
0
  6
CONTINUOUS
 62
     7
100
AcDbLine
 10
348.950242
 20
793.437149
 30
0.0
 11
348.848665
 21
793.276344
 31
0.0
  0
LINE
  5
12A8
100
AcDbEntity
  8
10000_FRONT
370
    25
390
0
  6
CONTINUOUS
 62
     7
100
AcDbLine
 10
348.848665
 20
793.276344
 30
0.0
 11
348.740556
 21
793.121307
 31
0.0
  0
LINE
  5
12A9
100
AcDbEntity
  8
10000_FRONT
370
    25
390
0
  6
CONTINUOUS
 62
     7
100
AcDbLine
 10
348.740556
 20
793.121307
 30
0.0
 11
348.626519
 21
792.972481
 31
0.0
  0
LINE
  5
12AA
100
AcDbEntity
  8
10000_FRONT
370
    25
390
0
  6
CONTINUOUS
 62
     7
100
AcDbLine
 10
348.626519
 20
792.972481
 30
0.0
 11
348.507222
 21
792.830261
 31
0.0
  0
LINE
  5
12AB
100
AcDbEntity
  8
10000_FRONT
370
    25
390
0
  6
CONTINUOUS
 62
     7
100
AcDbLine
 10
348.507222
 20
792.830261
 30
0.0
 11
348.383329
 21
792.69503
 31
0.0
  0
LINE
  5
12AC
100
AcDbEntity
  8
10000_FRONT
370
    25
390
0
  6
CONTINUOUS
 62
     7
100
AcDbLine
 10
348.383329
 20
792.69503
 30
0.0
 11
348.254998
 21
792.566704
 31
0.0
  0
LINE
  5
12AD
100
AcDbEntity
  8
10000_FRONT
370
    25
390
0
  6
CONTINUOUS
 62
     7
100
AcDbLine
 10
348.254998
 20
792.566704
 30
0.0
 11
348.119771
 21
792.442802
 31
0.0
  0
LINE
  5
12AE
100
AcDbEntity
  8
10000_FRONT
370
    25
390
0
  6
CONTINUOUS
 62
     7
100
AcDbLine
 10
348.119771
 20
792.442802
 30
0.0
 11
347.977548
 21
792.323509
 31
0.0
  0
LINE
  5
12AF
100
AcDbEntity
  8
10000_FRONT
370
    25
390
0
  6
CONTINUOUS
 62
     7
100
AcDbLine
 10
347.977548
 20
792.323509
 30
0.0
 11
347.828721
 21
792.209465
 31
0.0
  0
LINE
  5
12B0
100
AcDbEntity
  8
10000_FRONT
370
    25
390
0
  6
CONTINUOUS
 62
     7
100
AcDbLine
 10
347.828721
 20
792.209465
 30
0.0
 11
347.673688
 21
792.101357
 31
0.0
  0
LINE
  5
12B1
100
AcDbEntity
  8
10000_FRONT
370
    25
390
0
  6
CONTINUOUS
 62
     7
100
AcDbLine
 10
347.673688
 20
792.101357
 30
0.0
 11
347.512887
 21
791.999779
 31
0.0
  0
LINE
  5
12B2
100
AcDbEntity
  8
10000_FRONT
370
    25
390
0
  6
CONTINUOUS
 62
     7
100
AcDbLine
 10
347.512887
 20
791.999779
 30
0.0
 11
347.346875
 21
791.905151
 31
0.0
  0
LINE
  5
12B3
100
AcDbEntity
  8
10000_FRONT
370
    25
390
0
  6
CONTINUOUS
 62
     7
100
AcDbLine
 10
347.346875
 20
791.905151
 30
0.0
 11
347.176233
 21
791.817871
 31
0.0
  0
LINE
  5
12B4
100
AcDbEntity
  8
10000_FRONT
370
    25
390
0
  6
CONTINUOUS
 62
     7
100
AcDbLine
 10
347.176233
 20
791.817871
 30
0.0
 11
347.001527
 21
791.738335
 31
0.0
  0
LINE
  5
12B5
100
AcDbEntity
  8
10000_FRONT
370
    25
390
0
  6
CONTINUOUS
 62
     7
100
AcDbLine
 10
347.001527
 20
791.738335
 30
0.0
 11
346.823312
 21
791.666916
 31
0.0
  0
LINE
  5
12B6
100
AcDbEntity
  8
10000_FRONT
370
    25
390
0
  6
CONTINUOUS
 62
     7
100
AcDbLine
 10
346.823312
 20
791.666916
 30
0.0
 11
346.642148
 21
791.603775
 31
0.0
  0
LINE
  5
12B7
100
AcDbEntity
  8
10000_FRONT
370
    25
390
0
  6
CONTINUOUS
 62
     7
100
AcDbLine
 10
346.642148
 20
791.603775
 30
0.0
 11
346.458722
 21
791.549042
 31
0.0
  0
LINE
  5
12B8
100
AcDbEntity
  8
10000_FRONT
370
    25
390
0
  6
CONTINUOUS
 62
     7
100
AcDbLine
 10
346.458722
 20
791.549042
 30
0.0
 11
346.273721
 21
791.502853
 31
0.0
  0
LINE
  5
12B9
100
AcDbEntity
  8
10000_FRONT
370
    25
390
0
  6
CONTINUOUS
 62
     7
100
AcDbLine
 10
346.273721
 20
791.502853
 30
0.0
 11
346.087831
 21
791.465324
 31
0.0
  0
LINE
  5
12BA
100
AcDbEntity
  8
10000_FRONT
370
    25
390
0
  6
CONTINUOUS
 62
     7
100
AcDbLine
 10
346.087831
 20
791.465324
 30
0.0
 11
345.901765
 21
791.436455
 31
0.0
  0
LINE
  5
12BB
100
AcDbEntity
  8
10000_FRONT
370
    25
390
0
  6
CONTINUOUS
 62
     7
100
AcDbLine
 10
345.901765
 20
791.436455
 30
0.0
 11
345.716272
 21
791.416077
 31
0.0
  0
LINE
  5
12BC
100
AcDbEntity
  8
10000_FRONT
370
    25
390
0
  6
CONTINUOUS
 62
     7
100
AcDbLine
 10
345.716272
 20
791.416077
 30
0.0
 11
345.532102
 21
791.403984
 31
0.0
  0
LINE
  5
12BD
100
AcDbEntity
  8
10000_FRONT
370
    25
390
0
  6
CONTINUOUS
 62
     7
100
AcDbLine
 10
345.532102
 20
791.403984
 30
0.0
 11
345.350003
 21
791.400002
 31
0.0
  0
LINE
  5
12BE
100
AcDbEntity
  8
10000_FRONT
370
    25
390
0
  6
CONTINUOUS
 62
     7
100
AcDbLine
 10
345.350003
 20
791.400002
 30
0.0
 11
345.167909
 21
791.403984
 31
0.0
  0
LINE
  5
12BF
100
AcDbEntity
  8
10000_FRONT
370
    25
390
0
  6
CONTINUOUS
 62
     7
100
AcDbLine
 10
345.167909
 20
791.403984
 30
0.0
 11
344.983739
 21
791.416077
 31
0.0
  0
LINE
  5
12C0
100
AcDbEntity
  8
10000_FRONT
370
    25
390
0
  6
CONTINUOUS
 62
     7
100
AcDbLine
 10
344.983739
 20
791.416077
 30
0.0
 11
344.798246
 21
791.436455
 31
0.0
  0
LINE
  5
12C1
100
AcDbEntity
  8
10000_FRONT
370
    25
390
0
  6
CONTINUOUS
 62
     7
100
AcDbLine
 10
344.798246
 20
791.436455
 30
0.0
 11
344.61218
 21
791.465324
 31
0.0
  0
LINE
  5
12C2
100
AcDbEntity
  8
10000_FRONT
370
    25
390
0
  6
CONTINUOUS
 62
     7
100
AcDbLine
 10
344.61218
 20
791.465324
 30
0.0
 11
344.42629
 21
791.502853
 31
0.0
  0
LINE
  5
12C3
100
AcDbEntity
  8
10000_FRONT
370
    25
390
0
  6
CONTINUOUS
 62
     7
100
AcDbLine
 10
344.42629
 20
791.502853
 30
0.0
 11
344.241288
 21
791.549042
 31
0.0
  0
LINE
  5
12C4
100
AcDbEntity
  8
10000_FRONT
370
    25
390
0
  6
CONTINUOUS
 62
     7
100
AcDbLine
 10
344.241288
 20
791.549042
 30
0.0
 11
344.057859
 21
791.603775
 31
0.0
  0
LINE
  5
12C5
100
AcDbEntity
  8
10000_FRONT
370
    25
390
0
  6
CONTINUOUS
 62
     7
100
AcDbLine
 10
344.057859
 20
791.603775
 30
0.0
 11
343.876699
 21
791.666916
 31
0.0
  0
LINE
  5
12C6
100
AcDbEntity
  8
10000_FRONT
370
    25
390
0
  6
CONTINUOUS
 62
     7
100
AcDbLine
 10
343.876699
 20
791.666916
 30
0.0
 11
343.698484
 21
791.738335
 31
0.0
  0
LINE
  5
12C7
100
AcDbEntity
  8
10000_FRONT
370
    25
390
0
  6
CONTINUOUS
 62
     7
100
AcDbLine
 10
343.698484
 20
791.738335
 30
0.0
 11
343.523778
 21
791.817871
 31
0.0
  0
LINE
  5
12C8
100
AcDbEntity
  8
10000_FRONT
370
    25
390
0
  6
CONTINUOUS
 62
     7
100
AcDbLine
 10
343.523778
 20
791.817871
 30
0.0
 11
343.353132
 21
791.905151
 31
0.0
  0
LINE
  5
12C9
100
AcDbEntity
  8
10000_FRONT
370
    25
390
0
  6
CONTINUOUS
 62
     7
100
AcDbLine
 10
343.353132
 20
791.905151
 30
0.0
 11
343.187124
 21
791.999779
 31
0.0
  0
LINE
  5
12CA
100
AcDbEntity
  8
10000_FRONT
370
    25
390
0
  6
CONTINUOUS
 62
     7
100
AcDbLine
 10
343.187124
 20
791.999779
 30
0.0
 11
343.026323
 21
792.101357
 31
0.0
  0
LINE
  5
12CB
100
AcDbEntity
  8
10000_FRONT
370
    25
390
0
  6
CONTINUOUS
 62
     7
100
AcDbLine
 10
343.026323
 20
792.101357
 30
0.0
 11
342.871286
 21
792.209465
 31
0.0
  0
LINE
  5
12CC
100
AcDbEntity
  8
10000_FRONT
370
    25
390
0
  6
CONTINUOUS
 62
     7
100
AcDbLine
 10
342.871286
 20
792.209465
 30
0.0
 11
342.722463
 21
792.323509
 31
0.0
  0
LINE
  5
12CD
100
AcDbEntity
  8
10000_FRONT
370
    25
390
0
  6
CONTINUOUS
 62
     7
100
AcDbLine
 10
342.722463
 20
792.323509
 30
0.0
 11
342.580236
 21
792.442802
 31
0.0
  0
LINE
  5
12CE
100
AcDbEntity
  8
10000_FRONT
370
    25
390
0
  6
CONTINUOUS
 62
     7
100
AcDbLine
 10
342.580236
 20
792.442802
 30
0.0
 11
342.445012
 21
792.566704
 31
0.0
  0
LINE
  5
12CF
100
AcDbEntity
  8
10000_FRONT
370
    25
390
0
  6
CONTINUOUS
 62
     7
100
AcDbLine
 10
342.445012
 20
792.566704
 30
0.0
 11
342.316682
 21
792.69503
 31
0.0
  0
LINE
  5
12D0
100
AcDbEntity
  8
10000_FRONT
370
    25
390
0
  6
CONTINUOUS
 62
     7
100
AcDbLine
 10
342.316682
 20
792.69503
 30
0.0
 11
342.192788
 21
792.830261
 31
0.0
  0
LINE
  5
12D1
100
AcDbEntity
  8
10000_FRONT
370
    25
390
0
  6
CONTINUOUS
 62
     7
100
AcDbLine
 10
342.192788
 20
792.830261
 30
0.0
 11
342.073488
 21
792.972481
 31
0.0
  0
LINE
  5
12D2
100
AcDbEntity
  8
10000_FRONT
370
    25
390
0
  6
CONTINUOUS
 62
     7
100
AcDbLine
 10
342.073488
 20
792.972481
 30
0.0
 11
341.959455
 21
793.121307
 31
0.0
  0
LINE
  5
12D3
100
AcDbEntity
  8
10000_FRONT
370
    25
390
0
  6
CONTINUOUS
 62
     7
100
AcDbLine
 10
341.959455
 20
793.121307
 30
0.0
 11
341.851346
 21
793.276344
 31
0.0
  0
LINE
  5
12D4
100
AcDbEntity
  8
10000_FRONT
370
    25
390
0
  6
CONTINUOUS
 62
     7
100
AcDbLine
 10
341.851346
 20
793.276344
 30
0.0
 11
341.749765
 21
793.437149
 31
0.0
  0
LINE
  5
12D5
100
AcDbEntity
  8
10000_FRONT
370
    25
390
0
  6
CONTINUOUS
 62
     7
100
AcDbLine
 10
341.749765
 20
793.437149
 30
0.0
 11
341.655137
 21
793.603157
 31
0.0
  0
LINE
  5
12D6
100
AcDbEntity
  8
10000_FRONT
370
    25
390
0
  6
CONTINUOUS
 62
     7
100
AcDbLine
 10
341.655137
 20
793.603157
 30
0.0
 11
341.567861
 21
793.773804
 31
0.0
  0
LINE
  5
12D7
100
AcDbEntity
  8
10000_FRONT
370
    25
390
0
  6
CONTINUOUS
 62
     7
100
AcDbLine
 10
341.567861
 20
793.773804
 30
0.0
 11
341.488328
 21
793.948502
 31
0.0
  0
LINE
  5
12D8
100
AcDbEntity
  8
10000_FRONT
370
    25
390
0
  6
CONTINUOUS
 62
     7
100
AcDbLine
 10
341.488328
 20
793.948502
 30
0.0
 11
341.416909
 21
794.126717
 31
0.0
  0
LINE
  5
12D9
100
AcDbEntity
  8
10000_FRONT
370
    25
390
0
  6
CONTINUOUS
 62
     7
100
AcDbLine
 10
341.416909
 20
794.126717
 30
0.0
 11
341.353772
 21
794.307877
 31
0.0
  0
LINE
  5
12DA
100
AcDbEntity
  8
10000_FRONT
370
    25
390
0
  6
CONTINUOUS
 62
     7
100
AcDbLine
 10
341.353772
 20
794.307877
 30
0.0
 11
341.299043
 21
794.491302
 31
0.0
  0
LINE
  5
12DB
100
AcDbEntity
  8
10000_FRONT
370
    25
390
0
  6
CONTINUOUS
 62
     7
100
AcDbLine
 10
341.299043
 20
794.491302
 30
0.0
 11
341.252855
 21
794.6763
 31
0.0
  0
LINE
  5
12DC
100
AcDbEntity
  8
10000_FRONT
370
    25
390
0
  6
CONTINUOUS
 62
     7
100
AcDbLine
 10
341.252855
 20
794.6763
 30
0.0
 11
341.215326
 21
794.86219
 31
0.0
  0
LINE
  5
12DD
100
AcDbEntity
  8
10000_FRONT
370
    25
390
0
  6
CONTINUOUS
 62
     7
100
AcDbLine
 10
341.215326
 20
794.86219
 30
0.0
 11
341.18646
 21
795.048248
 31
0.0
  0
LINE
  5
12DE
100
AcDbEntity
  8
10000_FRONT
370
    25
390
0
  6
CONTINUOUS
 62
     7
100
AcDbLine
 10
341.18646
 20
795.048248
 30
0.0
 11
341.166078
 21
795.233742
 31
0.0
  0
LINE
  5
12DF
100
AcDbEntity
  8
10000_FRONT
370
    25
390
0
  6
CONTINUOUS
 62
     7
100
AcDbLine
 10
341.166078
 20
795.233742
 30
0.0
 11
341.153993
 21
795.417908
 31
0.0
  0
LINE
  5
12E0
100
AcDbEntity
  8
10000_FRONT
370
    25
390
0
  6
CONTINUOUS
 62
     7
100
AcDbLine
 10
341.153993
 20
795.417908
 30
0.0
 11
341.150007
 21
795.599998
 31
0.0
  0
LINE
  5
12E1
100
AcDbEntity
  8
10000_FRONT
370
    25
390
0
  6
CONTINUOUS
 62
     7
100
AcDbLine
 10
349.550004
 20
782.599998
 30
0.0
 11
349.546018
 21
782.417908
 31
0.0
  0
LINE
  5
12E2
100
AcDbEntity
  8
10000_FRONT
370
    25
390
0
  6
CONTINUOUS
 62
     7
100
AcDbLine
 10
349.546018
 20
782.417908
 30
0.0
 11
349.533933
 21
782.233742
 31
0.0
  0
LINE
  5
12E3
100
AcDbEntity
  8
10000_FRONT
370
    25
390
0
  6
CONTINUOUS
 62
     7
100
AcDbLine
 10
349.533933
 20
782.233742
 30
0.0
 11
349.513551
 21
782.048256
 31
0.0
  0
LINE
  5
12E4
100
AcDbEntity
  8
10000_FRONT
370
    25
390
0
  6
CONTINUOUS
 62
     7
100
AcDbLine
 10
349.513551
 20
782.048256
 30
0.0
 11
349.484685
 21
781.862198
 31
0.0
  0
LINE
  5
12E5
100
AcDbEntity
  8
10000_FRONT
370
    25
390
0
  6
CONTINUOUS
 62
     7
100
AcDbLine
 10
349.484685
 20
781.862198
 30
0.0
 11
349.44716
 21
781.676315
 31
0.0
  0
LINE
  5
12E6
100
AcDbEntity
  8
10000_FRONT
370
    25
390
0
  6
CONTINUOUS
 62
     7
100
AcDbLine
 10
349.44716
 20
781.676315
 30
0.0
 11
349.400972
 21
781.491325
 31
0.0
  0
LINE
  5
12E7
100
AcDbEntity
  8
10000_FRONT
370
    25
390
0
  6
CONTINUOUS
 62
     7
100
AcDbLine
 10
349.400972
 20
781.491325
 30
0.0
 11
349.346246
 21
781.307899
 31
0.0
  0
LINE
  5
12E8
100
AcDbEntity
  8
10000_FRONT
370
    25
390
0
  6
CONTINUOUS
 62
     7
100
AcDbLine
 10
349.346246
 20
781.307899
 30
0.0
 11
349.283113
 21
781.126747
 31
0.0
  0
LINE
  5
12E9
100
AcDbEntity
  8
10000_FRONT
370
    25
390
0
  6
CONTINUOUS
 62
     7
100
AcDbLine
 10
349.283113
 20
781.126747
 30
0.0
 11
349.211694
 21
780.94854
 31
0.0
  0
LINE
  5
12EA
100
AcDbEntity
  8
10000_FRONT
370
    25
390
0
  6
CONTINUOUS
 62
     7
100
AcDbLine
 10
349.211694
 20
780.94854
 30
0.0
 11
349.132169
 21
780.773842
 31
0.0
  0
LINE
  5
12EB
100
AcDbEntity
  8
10000_FRONT
370
    25
390
0
  6
CONTINUOUS
 62
     7
100
AcDbLine
 10
349.132169
 20
780.773842
 30
0.0
 11
349.044896
 21
780.603203
 31
0.0
  0
LINE
  5
12EC
100
AcDbEntity
  8
10000_FRONT
370
    25
390
0
  6
CONTINUOUS
 62
     7
100
AcDbLine
 10
349.044896
 20
780.603203
 30
0.0
 11
348.950273
 21
780.437195
 31
0.0
  0
LINE
  5
12ED
100
AcDbEntity
  8
10000_FRONT
370
    25
390
0
  6
CONTINUOUS
 62
     7
100
AcDbLine
 10
348.950273
 20
780.437195
 30
0.0
 11
348.848699
 21
780.276398
 31
0.0
  0
LINE
  5
12EE
100
AcDbEntity
  8
10000_FRONT
370
    25
390
0
  6
CONTINUOUS
 62
     7
100
AcDbLine
 10
348.848699
 20
780.276398
 30
0.0
 11
348.740594
 21
780.121361
 31
0.0
  0
LINE
  5
12EF
100
AcDbEntity
  8
10000_FRONT
370
    25
390
0
  6
CONTINUOUS
 62
     7
100
AcDbLine
 10
348.740594
 20
780.121361
 30
0.0
 11
348.626565
 21
779.972534
 31
0.0
  0
LINE
  5
12F0
100
AcDbEntity
  8
10000_FRONT
370
    25
390
0
  6
CONTINUOUS
 62
     7
100
AcDbLine
 10
348.626565
 20
779.972534
 30
0.0
 11
348.507272
 21
779.830315
 31
0.0
  0
LINE
  5
12F1
100
AcDbEntity
  8
10000_FRONT
370
    25
390
0
  6
CONTINUOUS
 62
     7
100
AcDbLine
 10
348.507272
 20
779.830315
 30
0.0
 11
348.383378
 21
779.695084
 31
0.0
  0
LINE
  5
12F2
100
AcDbEntity
  8
10000_FRONT
370
    25
390
0
  6
CONTINUOUS
 62
     7
100
AcDbLine
 10
348.383378
 20
779.695084
 30
0.0
 11
348.255056
 21
779.566757
 31
0.0
  0
LINE
  5
12F3
100
AcDbEntity
  8
10000_FRONT
370
    25
390
0
  6
CONTINUOUS
 62
     7
100
AcDbLine
 10
348.255056
 20
779.566757
 30
0.0
 11
348.119832
 21
779.442856
 31
0.0
  0
LINE
  5
12F4
100
AcDbEntity
  8
10000_FRONT
370
    25
390
0
  6
CONTINUOUS
 62
     7
100
AcDbLine
 10
348.119832
 20
779.442856
 30
0.0
 11
347.977617
 21
779.323563
 31
0.0
  0
LINE
  5
12F5
100
AcDbEntity
  8
10000_FRONT
370
    25
390
0
  6
CONTINUOUS
 62
     7
100
AcDbLine
 10
347.977617
 20
779.323563
 30
0.0
 11
347.828794
 21
779.209518
 31
0.0
  0
LINE
  5
12F6
100
AcDbEntity
  8
10000_FRONT
370
    25
390
0
  6
CONTINUOUS
 62
     7
100
AcDbLine
 10
347.828794
 20
779.209518
 30
0.0
 11
347.673761
 21
779.10141
 31
0.0
  0
LINE
  5
12F7
100
AcDbEntity
  8
10000_FRONT
370
    25
390
0
  6
CONTINUOUS
 62
     7
100
AcDbLine
 10
347.673761
 20
779.10141
 30
0.0
 11
347.51296
 21
778.999825
 31
0.0
  0
LINE
  5
12F8
100
AcDbEntity
  8
10000_FRONT
370
    25
390
0
  6
CONTINUOUS
 62
     7
100
AcDbLine
 10
347.51296
 20
778.999825
 30
0.0
 11
347.346948
 21
778.90519
 31
0.0
  0
LINE
  5
12F9
100
AcDbEntity
  8
10000_FRONT
370
    25
390
0
  6
CONTINUOUS
 62
     7
100
AcDbLine
 10
347.346948
 20
778.90519
 30
0.0
 11
347.176301
 21
778.817902
 31
0.0
  0
LINE
  5
12FA
100
AcDbEntity
  8
10000_FRONT
370
    25
390
0
  6
CONTINUOUS
 62
     7
100
AcDbLine
 10
347.176301
 20
778.817902
 30
0.0
 11
347.001596
 21
778.738365
 31
0.0
  0
LINE
  5
12FB
100
AcDbEntity
  8
10000_FRONT
370
    25
390
0
  6
CONTINUOUS
 62
     7
100
AcDbLine
 10
347.001596
 20
778.738365
 30
0.0
 11
346.823377
 21
778.666939
 31
0.0
  0
LINE
  5
12FC
100
AcDbEntity
  8
10000_FRONT
370
    25
390
0
  6
CONTINUOUS
 62
     7
100
AcDbLine
 10
346.823377
 20
778.666939
 30
0.0
 11
346.642209
 21
778.60379
 31
0.0
  0
LINE
  5
12FD
100
AcDbEntity
  8
10000_FRONT
370
    25
390
0
  6
CONTINUOUS
 62
     7
100
AcDbLine
 10
346.642209
 20
778.60379
 30
0.0
 11
346.458776
 21
778.549057
 31
0.0
  0
LINE
  5
12FE
100
AcDbEntity
  8
10000_FRONT
370
    25
390
0
  6
CONTINUOUS
 62
     7
100
AcDbLine
 10
346.458776
 20
778.549057
 30
0.0
 11
346.273767
 21
778.502861
 31
0.0
  0
LINE
  5
12FF
100
AcDbEntity
  8
10000_FRONT
370
    25
390
0
  6
CONTINUOUS
 62
     7
100
AcDbLine
 10
346.273767
 20
778.502861
 30
0.0
 11
346.087869
 21
778.465332
 31
0.0
  0
LINE
  5
1300
100
AcDbEntity
  8
10000_FRONT
370
    25
390
0
  6
CONTINUOUS
 62
     7
100
AcDbLine
 10
346.087869
 20
778.465332
 30
0.0
 11
345.901796
 21
778.436462
 31
0.0
  0
LINE
  5
1301
100
AcDbEntity
  8
10000_FRONT
370
    25
390
0
  6
CONTINUOUS
 62
     7
100
AcDbLine
 10
345.901796
 20
778.436462
 30
0.0
 11
345.716295
 21
778.416077
 31
0.0
  0
LINE
  5
1302
100
AcDbEntity
  8
10000_FRONT
370
    25
390
0
  6
CONTINUOUS
 62
     7
100
AcDbLine
 10
345.716295
 20
778.416077
 30
0.0
 11
345.532113
 21
778.403984
 31
0.0
  0
LINE
  5
1303
100
AcDbEntity
  8
10000_FRONT
370
    25
390
0
  6
CONTINUOUS
 62
     7
100
AcDbLine
 10
345.532113
 20
778.403984
 30
0.0
 11
345.350003
 21
778.400002
 31
0.0
  0
LINE
  5
1304
100
AcDbEntity
  8
10000_FRONT
370
    25
390
0
  6
CONTINUOUS
 62
     7
100
AcDbLine
 10
345.350003
 20
778.400002
 30
0.0
 11
345.167897
 21
778.403984
 31
0.0
  0
LINE
  5
1305
100
AcDbEntity
  8
10000_FRONT
370
    25
390
0
  6
CONTINUOUS
 62
     7
100
AcDbLine
 10
345.167897
 20
778.403984
 30
0.0
 11
344.983716
 21
778.416077
 31
0.0
  0
LINE
  5
1306
100
AcDbEntity
  8
10000_FRONT
370
    25
390
0
  6
CONTINUOUS
 62
     7
100
AcDbLine
 10
344.983716
 20
778.416077
 30
0.0
 11
344.798215
 21
778.436462
 31
0.0
  0
LINE
  5
1307
100
AcDbEntity
  8
10000_FRONT
370
    25
390
0
  6
CONTINUOUS
 62
     7
100
AcDbLine
 10
344.798215
 20
778.436462
 30
0.0
 11
344.612142
 21
778.465332
 31
0.0
  0
LINE
  5
1308
100
AcDbEntity
  8
10000_FRONT
370
    25
390
0
  6
CONTINUOUS
 62
     7
100
AcDbLine
 10
344.612142
 20
778.465332
 30
0.0
 11
344.426244
 21
778.502861
 31
0.0
  0
LINE
  5
1309
100
AcDbEntity
  8
10000_FRONT
370
    25
390
0
  6
CONTINUOUS
 62
     7
100
AcDbLine
 10
344.426244
 20
778.502861
 30
0.0
 11
344.241231
 21
778.549057
 31
0.0
  0
LINE
  5
130A
100
AcDbEntity
  8
10000_FRONT
370
    25
390
0
  6
CONTINUOUS
 62
     7
100
AcDbLine
 10
344.241231
 20
778.549057
 30
0.0
 11
344.057801
 21
778.60379
 31
0.0
  0
LINE
  5
130B
100
AcDbEntity
  8
10000_FRONT
370
    25
390
0
  6
CONTINUOUS
 62
     7
100
AcDbLine
 10
344.057801
 20
778.60379
 30
0.0
 11
343.876634
 21
778.666939
 31
0.0
  0
LINE
  5
130C
100
AcDbEntity
  8
10000_FRONT
370
    25
390
0
  6
CONTINUOUS
 62
     7
100
AcDbLine
 10
343.876634
 20
778.666939
 30
0.0
 11
343.698415
 21
778.738365
 31
0.0
  0
LINE
  5
130D
100
AcDbEntity
  8
10000_FRONT
370
    25
390
0
  6
CONTINUOUS
 62
     7
100
AcDbLine
 10
343.698415
 20
778.738365
 30
0.0
 11
343.523706
 21
778.817902
 31
0.0
  0
LINE
  5
130E
100
AcDbEntity
  8
10000_FRONT
370
    25
390
0
  6
CONTINUOUS
 62
     7
100
AcDbLine
 10
343.523706
 20
778.817902
 30
0.0
 11
343.353059
 21
778.90519
 31
0.0
  0
LINE
  5
130F
100
AcDbEntity
  8
10000_FRONT
370
    25
390
0
  6
CONTINUOUS
 62
     7
100
AcDbLine
 10
343.353059
 20
778.90519
 30
0.0
 11
343.187047
 21
778.999825
 31
0.0
  0
LINE
  5
1310
100
AcDbEntity
  8
10000_FRONT
370
    25
390
0
  6
CONTINUOUS
 62
     7
100
AcDbLine
 10
343.187047
 20
778.999825
 30
0.0
 11
343.02625
 21
779.10141
 31
0.0
  0
LINE
  5
1311
100
AcDbEntity
  8
10000_FRONT
370
    25
390
0
  6
CONTINUOUS
 62
     7
100
AcDbLine
 10
343.02625
 20
779.10141
 30
0.0
 11
342.871217
 21
779.209518
 31
0.0
  0
LINE
  5
1312
100
AcDbEntity
  8
10000_FRONT
370
    25
390
0
  6
CONTINUOUS
 62
     7
100
AcDbLine
 10
342.871217
 20
779.209518
 30
0.0
 11
342.722394
 21
779.323563
 31
0.0
  0
LINE
  5
1313
100
AcDbEntity
  8
10000_FRONT
370
    25
390
0
  6
CONTINUOUS
 62
     7
100
AcDbLine
 10
342.722394
 20
779.323563
 30
0.0
 11
342.580175
 21
779.442856
 31
0.0
  0
LINE
  5
1314
100
AcDbEntity
  8
10000_FRONT
370
    25
390
0
  6
CONTINUOUS
 62
     7
100
AcDbLine
 10
342.580175
 20
779.442856
 30
0.0
 11
342.444955
 21
779.566757
 31
0.0
  0
LINE
  5
1315
100
AcDbEntity
  8
10000_FRONT
370
    25
390
0
  6
CONTINUOUS
 62
     7
100
AcDbLine
 10
342.444955
 20
779.566757
 30
0.0
 11
342.316633
 21
779.695084
 31
0.0
  0
LINE
  5
1316
100
AcDbEntity
  8
10000_FRONT
370
    25
390
0
  6
CONTINUOUS
 62
     7
100
AcDbLine
 10
342.316633
 20
779.695084
 30
0.0
 11
342.192739
 21
779.830315
 31
0.0
  0
LINE
  5
1317
100
AcDbEntity
  8
10000_FRONT
370
    25
390
0
  6
CONTINUOUS
 62
     7
100
AcDbLine
 10
342.192739
 20
779.830315
 30
0.0
 11
342.073446
 21
779.972534
 31
0.0
  0
LINE
  5
1318
100
AcDbEntity
  8
10000_FRONT
370
    25
390
0
  6
CONTINUOUS
 62
     7
100
AcDbLine
 10
342.073446
 20
779.972534
 30
0.0
 11
341.959413
 21
780.121361
 31
0.0
  0
LINE
  5
1319
100
AcDbEntity
  8
10000_FRONT
370
    25
390
0
  6
CONTINUOUS
 62
     7
100
AcDbLine
 10
341.959413
 20
780.121361
 30
0.0
 11
341.851312
 21
780.276398
 31
0.0
  0
LINE
  5
131A
100
AcDbEntity
  8
10000_FRONT
370
    25
390
0
  6
CONTINUOUS
 62
     7
100
AcDbLine
 10
341.851312
 20
780.276398
 30
0.0
 11
341.749738
 21
780.437195
 31
0.0
  0
LINE
  5
131B
100
AcDbEntity
  8
10000_FRONT
370
    25
390
0
  6
CONTINUOUS
 62
     7
100
AcDbLine
 10
341.749738
 20
780.437195
 30
0.0
 11
341.655114
 21
780.603203
 31
0.0
  0
LINE
  5
131C
100
AcDbEntity
  8
10000_FRONT
370
    25
390
0
  6
CONTINUOUS
 62
     7
100
AcDbLine
 10
341.655114
 20
780.603203
 30
0.0
 11
341.567842
 21
780.773842
 31
0.0
  0
LINE
  5
131D
100
AcDbEntity
  8
10000_FRONT
370
    25
390
0
  6
CONTINUOUS
 62
     7
100
AcDbLine
 10
341.567842
 20
780.773842
 30
0.0
 11
341.488317
 21
780.94854
 31
0.0
  0
LINE
  5
131E
100
AcDbEntity
  8
10000_FRONT
370
    25
390
0
  6
CONTINUOUS
 62
     7
100
AcDbLine
 10
341.488317
 20
780.94854
 30
0.0
 11
341.416898
 21
781.126747
 31
0.0
  0
LINE
  5
131F
100
AcDbEntity
  8
10000_FRONT
370
    25
390
0
  6
CONTINUOUS
 62
     7
100
AcDbLine
 10
341.416898
 20
781.126747
 30
0.0
 11
341.353765
 21
781.307899
 31
0.0
  0
LINE
  5
1320
100
AcDbEntity
  8
10000_FRONT
370
    25
390
0
  6
CONTINUOUS
 62
     7
100
AcDbLine
 10
341.353765
 20
781.307899
 30
0.0
 11
341.299039
 21
781.491325
 31
0.0
  0
LINE
  5
1321
100
AcDbEntity
  8
10000_FRONT
370
    25
390
0
  6
CONTINUOUS
 62
     7
100
AcDbLine
 10
341.299039
 20
781.491325
 30
0.0
 11
341.252851
 21
781.676315
 31
0.0
  0
LINE
  5
1322
100
AcDbEntity
  8
10000_FRONT
370
    25
390
0
  6
CONTINUOUS
 62
     7
100
AcDbLine
 10
341.252851
 20
781.676315
 30
0.0
 11
341.215326
 21
781.862198
 31
0.0
  0
LINE
  5
1323
100
AcDbEntity
  8
10000_FRONT
370
    25
390
0
  6
CONTINUOUS
 62
     7
100
AcDbLine
 10
341.215326
 20
781.862198
 30
0.0
 11
341.18646
 21
782.048256
 31
0.0
  0
LINE
  5
1324
100
AcDbEntity
  8
10000_FRONT
370
    25
390
0
  6
CONTINUOUS
 62
     7
100
AcDbLine
 10
341.18646
 20
782.048256
 30
0.0
 11
341.166078
 21
782.233742
 31
0.0
  0
LINE
  5
1325
100
AcDbEntity
  8
10000_FRONT
370
    25
390
0
  6
CONTINUOUS
 62
     7
100
AcDbLine
 10
341.166078
 20
782.233742
 30
0.0
 11
341.153993
 21
782.417908
 31
0.0
  0
LINE
  5
1326
100
AcDbEntity
  8
10000_FRONT
370
    25
390
0
  6
CONTINUOUS
 62
     7
100
AcDbLine
 10
341.153993
 20
782.417908
 30
0.0
 11
341.150007
 21
782.599998
 31
0.0
  0
LINE
  5
1327
100
AcDbEntity
  8
10000_FRONT
370
    25
390
0
  6
CONTINUOUS
 62
     7
100
AcDbLine
 10
349.550004
 20
769.599998
 30
0.0
 11
349.546022
 21
769.417946
 31
0.0
  0
LINE
  5
1328
100
AcDbEntity
  8
10000_FRONT
370
    25
390
0
  6
CONTINUOUS
 62
     7
100
AcDbLine
 10
349.546022
 20
769.417946
 30
0.0
 11
349.533937
 21
769.233818
 31
0.0
  0
LINE
  5
1329
100
AcDbEntity
  8
10000_FRONT
370
    25
390
0
  6
CONTINUOUS
 62
     7
100
AcDbLine
 10
349.533937
 20
769.233818
 30
0.0
 11
349.513566
 21
769.04837
 31
0.0
  0
LINE
  5
132A
100
AcDbEntity
  8
10000_FRONT
370
    25
390
0
  6
CONTINUOUS
 62
     7
100
AcDbLine
 10
349.513566
 20
769.04837
 30
0.0
 11
349.484712
 21
768.86235
 31
0.0
  0
LINE
  5
132B
100
AcDbEntity
  8
10000_FRONT
370
    25
390
0
  6
CONTINUOUS
 62
     7
100
AcDbLine
 10
349.484712
 20
768.86235
 30
0.0
 11
349.447202
 21
768.676506
 31
0.0
  0
LINE
  5
132C
100
AcDbEntity
  8
10000_FRONT
370
    25
390
0
  6
CONTINUOUS
 62
     7
100
AcDbLine
 10
349.447202
 20
768.676506
 30
0.0
 11
349.401033
 21
768.491547
 31
0.0
  0
LINE
  5
132D
100
AcDbEntity
  8
10000_FRONT
370
    25
390
0
  6
CONTINUOUS
 62
     7
100
AcDbLine
 10
349.401033
 20
768.491547
 30
0.0
 11
349.34633
 21
768.308159
 31
0.0
  0
LINE
  5
132E
100
AcDbEntity
  8
10000_FRONT
370
    25
390
0
  6
CONTINUOUS
 62
     7
100
AcDbLine
 10
349.34633
 20
768.308159
 30
0.0
 11
349.28322
 21
768.127029
 31
0.0
  0
LINE
  5
132F
100
AcDbEntity
  8
10000_FRONT
370
    25
390
0
  6
CONTINUOUS
 62
     7
100
AcDbLine
 10
349.28322
 20
768.127029
 30
0.0
 11
349.211828
 21
767.948845
 31
0.0
  0
LINE
  5
1330
100
AcDbEntity
  8
10000_FRONT
370
    25
390
0
  6
CONTINUOUS
 62
     7
100
AcDbLine
 10
349.211828
 20
767.948845
 30
0.0
 11
349.132325
 21
767.77417
 31
0.0
  0
LINE
  5
1331
100
AcDbEntity
  8
10000_FRONT
370
    25
390
0
  6
CONTINUOUS
 62
     7
100
AcDbLine
 10
349.132325
 20
767.77417
 30
0.0
 11
349.045083
 21
767.603546
 31
0.0
  0
LINE
  5
1332
100
AcDbEntity
  8
10000_FRONT
370
    25
390
0
  6
CONTINUOUS
 62
     7
100
AcDbLine
 10
349.045083
 20
767.603546
 30
0.0
 11
348.950486
 21
767.437553
 31
0.0
  0
LINE
  5
1333
100
AcDbEntity
  8
10000_FRONT
370
    25
390
0
  6
CONTINUOUS
 62
     7
100
AcDbLine
 10
348.950486
 20
767.437553
 30
0.0
 11
348.848939
 21
767.276756
 31
0.0
  0
LINE
  5
1334
100
AcDbEntity
  8
10000_FRONT
370
    25
390
0
  6
CONTINUOUS
 62
     7
100
AcDbLine
 10
348.848939
 20
767.276756
 30
0.0
 11
348.740861
 21
767.121727
 31
0.0
  0
LINE
  5
1335
100
AcDbEntity
  8
10000_FRONT
370
    25
390
0
  6
CONTINUOUS
 62
     7
100
AcDbLine
 10
348.740861
 20
767.121727
 30
0.0
 11
348.626851
 21
766.972893
 31
0.0
  0
LINE
  5
1336
100
AcDbEntity
  8
10000_FRONT
370
    25
390
0
  6
CONTINUOUS
 62
     7
100
AcDbLine
 10
348.626851
 20
766.972893
 30
0.0
 11
348.507577
 21
766.830658
 31
0.0
  0
LINE
  5
1337
100
AcDbEntity
  8
10000_FRONT
370
    25
390
0
  6
CONTINUOUS
 62
     7
100
AcDbLine
 10
348.507577
 20
766.830658
 30
0.0
 11
348.383699
 21
766.695419
 31
0.0
  0
LINE
  5
1338
100
AcDbEntity
  8
10000_FRONT
370
    25
390
0
  6
CONTINUOUS
 62
     7
100
AcDbLine
 10
348.383699
 20
766.695419
 30
0.0
 11
348.255391
 21
766.567078
 31
0.0
  0
LINE
  5
1339
100
AcDbEntity
  8
10000_FRONT
370
    25
390
0
  6
CONTINUOUS
 62
     7
100
AcDbLine
 10
348.255391
 20
766.567078
 30
0.0
 11
348.120191
 21
766.443169
 31
0.0
  0
LINE
  5
133A
100
AcDbEntity
  8
10000_FRONT
370
    25
390
0
  6
CONTINUOUS
 62
     7
100
AcDbLine
 10
348.120191
 20
766.443169
 30
0.0
 11
347.977987
 21
766.32386
 31
0.0
  0
LINE
  5
133B
100
AcDbEntity
  8
10000_FRONT
370
    25
390
0
  6
CONTINUOUS
 62
     7
100
AcDbLine
 10
347.977987
 20
766.32386
 30
0.0
 11
347.829175
 21
766.209801
 31
0.0
  0
LINE
  5
133C
100
AcDbEntity
  8
10000_FRONT
370
    25
390
0
  6
CONTINUOUS
 62
     7
100
AcDbLine
 10
347.829175
 20
766.209801
 30
0.0
 11
347.674146
 21
766.101662
 31
0.0
  0
LINE
  5
133D
100
AcDbEntity
  8
10000_FRONT
370
    25
390
0
  6
CONTINUOUS
 62
     7
100
AcDbLine
 10
347.674146
 20
766.101662
 30
0.0
 11
347.513345
 21
766.000053
 31
0.0
  0
LINE
  5
133E
100
AcDbEntity
  8
10000_FRONT
370
    25
390
0
  6
CONTINUOUS
 62
     7
100
AcDbLine
 10
347.513345
 20
766.000053
 30
0.0
 11
347.347326
 21
765.905396
 31
0.0
  0
LINE
  5
133F
100
AcDbEntity
  8
10000_FRONT
370
    25
390
0
  6
CONTINUOUS
 62
     7
100
AcDbLine
 10
347.347326
 20
765.905396
 30
0.0
 11
347.176667
 21
765.818077
 31
0.0
  0
LINE
  5
1340
100
AcDbEntity
  8
10000_FRONT
370
    25
390
0
  6
CONTINUOUS
 62
     7
100
AcDbLine
 10
347.176667
 20
765.818077
 30
0.0
 11
347.001939
 21
765.73851
 31
0.0
  0
LINE
  5
1341
100
AcDbEntity
  8
10000_FRONT
370
    25
390
0
  6
CONTINUOUS
 62
     7
100
AcDbLine
 10
347.001939
 20
765.73851
 30
0.0
 11
346.823697
 21
765.667053
 31
0.0
  0
LINE
  5
1342
100
AcDbEntity
  8
10000_FRONT
370
    25
390
0
  6
CONTINUOUS
 62
     7
100
AcDbLine
 10
346.823697
 20
765.667053
 30
0.0
 11
346.642503
 21
765.603889
 31
0.0
  0
LINE
  5
1343
100
AcDbEntity
  8
10000_FRONT
370
    25
390
0
  6
CONTINUOUS
 62
     7
100
AcDbLine
 10
346.642503
 20
765.603889
 30
0.0
 11
346.459039
 21
765.549133
 31
0.0
  0
LINE
  5
1344
100
AcDbEntity
  8
10000_FRONT
370
    25
390
0
  6
CONTINUOUS
 62
     7
100
AcDbLine
 10
346.459039
 20
765.549133
 30
0.0
 11
346.273992
 21
765.502914
 31
0.0
  0
LINE
  5
1345
100
AcDbEntity
  8
10000_FRONT
370
    25
390
0
  6
CONTINUOUS
 62
     7
100
AcDbLine
 10
346.273992
 20
765.502914
 30
0.0
 11
346.088052
 21
765.465363
 31
0.0
  0
LINE
  5
1346
100
AcDbEntity
  8
10000_FRONT
370
    25
390
0
  6
CONTINUOUS
 62
     7
100
AcDbLine
 10
346.088052
 20
765.465363
 30
0.0
 11
345.901937
 21
765.436478
 31
0.0
  0
LINE
  5
1347
100
AcDbEntity
  8
10000_FRONT
370
    25
390
0
  6
CONTINUOUS
 62
     7
100
AcDbLine
 10
345.901937
 20
765.436478
 30
0.0
 11
345.716386
 21
765.416084
 31
0.0
  0
LINE
  5
1348
100
AcDbEntity
  8
10000_FRONT
370
    25
390
0
  6
CONTINUOUS
 62
     7
100
AcDbLine
 10
345.716386
 20
765.416084
 30
0.0
 11
345.532159
 21
765.403992
 31
0.0
  0
LINE
  5
1349
100
AcDbEntity
  8
10000_FRONT
370
    25
390
0
  6
CONTINUOUS
 62
     7
100
AcDbLine
 10
345.532159
 20
765.403992
 30
0.0
 11
345.350003
 21
765.400002
 31
0.0
  0
LINE
  5
134A
100
AcDbEntity
  8
10000_FRONT
370
    25
390
0
  6
CONTINUOUS
 62
     7
100
AcDbLine
 10
345.350003
 20
765.400002
 30
0.0
 11
345.167848
 21
765.403992
 31
0.0
  0
LINE
  5
134B
100
AcDbEntity
  8
10000_FRONT
370
    25
390
0
  6
CONTINUOUS
 62
     7
100
AcDbLine
 10
345.167848
 20
765.403992
 30
0.0
 11
344.983621
 21
765.416084
 31
0.0
  0
LINE
  5
134C
100
AcDbEntity
  8
10000_FRONT
370
    25
390
0
  6
CONTINUOUS
 62
     7
100
AcDbLine
 10
344.983621
 20
765.416084
 30
0.0
 11
344.798074
 21
765.436478
 31
0.0
  0
LINE
  5
134D
100
AcDbEntity
  8
10000_FRONT
370
    25
390
0
  6
CONTINUOUS
 62
     7
100
AcDbLine
 10
344.798074
 20
765.436478
 30
0.0
 11
344.611959
 21
765.465363
 31
0.0
  0
LINE
  5
134E
100
AcDbEntity
  8
10000_FRONT
370
    25
390
0
  6
CONTINUOUS
 62
     7
100
AcDbLine
 10
344.611959
 20
765.465363
 30
0.0
 11
344.426019
 21
765.502914
 31
0.0
  0
LINE
  5
134F
100
AcDbEntity
  8
10000_FRONT
370
    25
390
0
  6
CONTINUOUS
 62
     7
100
AcDbLine
 10
344.426019
 20
765.502914
 30
0.0
 11
344.240972
 21
765.549133
 31
0.0
  0
LINE
  5
1350
100
AcDbEntity
  8
10000_FRONT
370
    25
390
0
  6
CONTINUOUS
 62
     7
100
AcDbLine
 10
344.240972
 20
765.549133
 30
0.0
 11
344.057508
 21
765.603889
 31
0.0
  0
LINE
  5
1351
100
AcDbEntity
  8
10000_FRONT
370
    25
390
0
  6
CONTINUOUS
 62
     7
100
AcDbLine
 10
344.057508
 20
765.603889
 30
0.0
 11
343.87631
 21
765.667053
 31
0.0
  0
LINE
  5
1352
100
AcDbEntity
  8
10000_FRONT
370
    25
390
0
  6
CONTINUOUS
 62
     7
100
AcDbLine
 10
343.87631
 20
765.667053
 30
0.0
 11
343.698068
 21
765.73851
 31
0.0
  0
LINE
  5
1353
100
AcDbEntity
  8
10000_FRONT
370
    25
390
0
  6
CONTINUOUS
 62
     7
100
AcDbLine
 10
343.698068
 20
765.73851
 30
0.0
 11
343.523343
 21
765.818077
 31
0.0
  0
LINE
  5
1354
100
AcDbEntity
  8
10000_FRONT
370
    25
390
0
  6
CONTINUOUS
 62
     7
100
AcDbLine
 10
343.523343
 20
765.818077
 30
0.0
 11
343.352685
 21
765.905396
 31
0.0
  0
LINE
  5
1355
100
AcDbEntity
  8
10000_FRONT
370
    25
390
0
  6
CONTINUOUS
 62
     7
100
AcDbLine
 10
343.352685
 20
765.905396
 30
0.0
 11
343.186666
 21
766.000053
 31
0.0
  0
LINE
  5
1356
100
AcDbEntity
  8
10000_FRONT
370
    25
390
0
  6
CONTINUOUS
 62
     7
100
AcDbLine
 10
343.186666
 20
766.000053
 30
0.0
 11
343.025865
 21
766.101662
 31
0.0
  0
LINE
  5
1357
100
AcDbEntity
  8
10000_FRONT
370
    25
390
0
  6
CONTINUOUS
 62
     7
100
AcDbLine
 10
343.025865
 20
766.101662
 30
0.0
 11
342.870836
 21
766.209801
 31
0.0
  0
LINE
  5
1358
100
AcDbEntity
  8
10000_FRONT
370
    25
390
0
  6
CONTINUOUS
 62
     7
100
AcDbLine
 10
342.870836
 20
766.209801
 30
0.0
 11
342.722024
 21
766.32386
 31
0.0
  0
LINE
  5
1359
100
AcDbEntity
  8
10000_FRONT
370
    25
390
0
  6
CONTINUOUS
 62
     7
100
AcDbLine
 10
342.722024
 20
766.32386
 30
0.0
 11
342.57982
 21
766.443169
 31
0.0
  0
LINE
  5
135A
100
AcDbEntity
  8
10000_FRONT
370
    25
390
0
  6
CONTINUOUS
 62
     7
100
AcDbLine
 10
342.57982
 20
766.443169
 30
0.0
 11
342.444619
 21
766.567078
 31
0.0
  0
LINE
  5
135B
100
AcDbEntity
  8
10000_FRONT
370
    25
390
0
  6
CONTINUOUS
 62
     7
100
AcDbLine
 10
342.444619
 20
766.567078
 30
0.0
 11
342.316312
 21
766.695419
 31
0.0
  0
LINE
  5
135C
100
AcDbEntity
  8
10000_FRONT
370
    25
390
0
  6
CONTINUOUS
 62
     7
100
AcDbLine
 10
342.316312
 20
766.695419
 30
0.0
 11
342.192434
 21
766.830658
 31
0.0
  0
LINE
  5
135D
100
AcDbEntity
  8
10000_FRONT
370
    25
390
0
  6
CONTINUOUS
 62
     7
100
AcDbLine
 10
342.192434
 20
766.830658
 30
0.0
 11
342.073159
 21
766.972893
 31
0.0
  0
LINE
  5
135E
100
AcDbEntity
  8
10000_FRONT
370
    25
390
0
  6
CONTINUOUS
 62
     7
100
AcDbLine
 10
342.073159
 20
766.972893
 30
0.0
 11
341.95915
 21
767.121727
 31
0.0
  0
LINE
  5
135F
100
AcDbEntity
  8
10000_FRONT
370
    25
390
0
  6
CONTINUOUS
 62
     7
100
AcDbLine
 10
341.95915
 20
767.121727
 30
0.0
 11
341.851072
 21
767.276756
 31
0.0
  0
LINE
  5
1360
100
AcDbEntity
  8
10000_FRONT
370
    25
390
0
  6
CONTINUOUS
 62
     7
100
AcDbLine
 10
341.851072
 20
767.276756
 30
0.0
 11
341.749524
 21
767.437553
 31
0.0
  0
LINE
  5
1361
100
AcDbEntity
  8
10000_FRONT
370
    25
390
0
  6
CONTINUOUS
 62
     7
100
AcDbLine
 10
341.749524
 20
767.437553
 30
0.0
 11
341.654927
 21
767.603546
 31
0.0
  0
LINE
  5
1362
100
AcDbEntity
  8
10000_FRONT
370
    25
390
0
  6
CONTINUOUS
 62
     7
100
AcDbLine
 10
341.654927
 20
767.603546
 30
0.0
 11
341.567682
 21
767.77417
 31
0.0
  0
LINE
  5
1363
100
AcDbEntity
  8
10000_FRONT
370
    25
390
0
  6
CONTINUOUS
 62
     7
100
AcDbLine
 10
341.567682
 20
767.77417
 30
0.0
 11
341.488183
 21
767.948845
 31
0.0
  0
LINE
  5
1364
100
AcDbEntity
  8
10000_FRONT
370
    25
390
0
  6
CONTINUOUS
 62
     7
100
AcDbLine
 10
341.488183
 20
767.948845
 30
0.0
 11
341.416791
 21
768.127029
 31
0.0
  0
LINE
  5
1365
100
AcDbEntity
  8
10000_FRONT
370
    25
390
0
  6
CONTINUOUS
 62
     7
100
AcDbLine
 10
341.416791
 20
768.127029
 30
0.0
 11
341.353681
 21
768.308159
 31
0.0
  0
LINE
  5
1366
100
AcDbEntity
  8
10000_FRONT
370
    25
390
0
  6
CONTINUOUS
 62
     7
100
AcDbLine
 10
341.353681
 20
768.308159
 30
0.0
 11
341.298978
 21
768.491547
 31
0.0
  0
LINE
  5
1367
100
AcDbEntity
  8
10000_FRONT
370
    25
390
0
  6
CONTINUOUS
 62
     7
100
AcDbLine
 10
341.298978
 20
768.491547
 30
0.0
 11
341.252809
 21
768.676506
 31
0.0
  0
LINE
  5
1368
100
AcDbEntity
  8
10000_FRONT
370
    25
390
0
  6
CONTINUOUS
 62
     7
100
AcDbLine
 10
341.252809
 20
768.676506
 30
0.0
 11
341.215295
 21
768.86235
 31
0.0
  0
LINE
  5
1369
100
AcDbEntity
  8
10000_FRONT
370
    25
390
0
  6
CONTINUOUS
 62
     7
100
AcDbLine
 10
341.215295
 20
768.86235
 30
0.0
 11
341.186445
 21
769.04837
 31
0.0
  0
LINE
  5
136A
100
AcDbEntity
  8
10000_FRONT
370
    25
390
0
  6
CONTINUOUS
 62
     7
100
AcDbLine
 10
341.186445
 20
769.04837
 30
0.0
 11
341.16607
 21
769.233818
 31
0.0
  0
LINE
  5
136B
100
AcDbEntity
  8
10000_FRONT
370
    25
390
0
  6
CONTINUOUS
 62
     7
100
AcDbLine
 10
341.16607
 20
769.233818
 30
0.0
 11
341.153989
 21
769.417946
 31
0.0
  0
LINE
  5
136C
100
AcDbEntity
  8
10000_FRONT
370
    25
390
0
  6
CONTINUOUS
 62
     7
100
AcDbLine
 10
341.153989
 20
769.417946
 30
0.0
 11
341.150007
 21
769.599998
 31
0.0
  0
LINE
  5
136D
100
AcDbEntity
  8
10000_FRONT
370
    25
390
0
  6
CONTINUOUS
 62
     7
100
AcDbLine
 10
349.550004
 20
756.599998
 30
0.0
 11
349.546022
 21
756.418022
 31
0.0
  0
LINE
  5
136E
100
AcDbEntity
  8
10000_FRONT
370
    25
390
0
  6
CONTINUOUS
 62
     7
100
AcDbLine
 10
349.546022
 20
756.418022
 30
0.0
 11
349.533952
 21
756.233971
 31
0.0
  0
LINE
  5
136F
100
AcDbEntity
  8
10000_FRONT
370
    25
390
0
  6
CONTINUOUS
 62
     7
100
AcDbLine
 10
349.533952
 20
756.233971
 30
0.0
 11
349.513597
 21
756.048599
 31
0.0
  0
LINE
  5
1370
100
AcDbEntity
  8
10000_FRONT
370
    25
390
0
  6
CONTINUOUS
 62
     7
100
AcDbLine
 10
349.513597
 20
756.048599
 30
0.0
 11
349.484765
 21
755.862648
 31
0.0
  0
LINE
  5
1371
100
AcDbEntity
  8
10000_FRONT
370
    25
390
0
  6
CONTINUOUS
 62
     7
100
AcDbLine
 10
349.484765
 20
755.862648
 30
0.0
 11
349.447286
 21
755.676872
 31
0.0
  0
LINE
  5
1372
100
AcDbEntity
  8
10000_FRONT
370
    25
390
0
  6
CONTINUOUS
 62
     7
100
AcDbLine
 10
349.447286
 20
755.676872
 30
0.0
 11
349.401151
 21
755.491974
 31
0.0
  0
LINE
  5
1373
100
AcDbEntity
  8
10000_FRONT
370
    25
390
0
  6
CONTINUOUS
 62
     7
100
AcDbLine
 10
349.401151
 20
755.491974
 30
0.0
 11
349.346486
 21
755.308647
 31
0.0
  0
LINE
  5
1374
100
AcDbEntity
  8
10000_FRONT
370
    25
390
0
  6
CONTINUOUS
 62
     7
100
AcDbLine
 10
349.346486
 20
755.308647
 30
0.0
 11
349.283422
 21
755.127571
 31
0.0
  0
LINE
  5
1375
100
AcDbEntity
  8
10000_FRONT
370
    25
390
0
  6
CONTINUOUS
 62
     7
100
AcDbLine
 10
349.283422
 20
755.127571
 30
0.0
 11
349.212079
 21
754.949432
 31
0.0
  0
LINE
  5
1376
100
AcDbEntity
  8
10000_FRONT
370
    25
390
0
  6
CONTINUOUS
 62
     7
100
AcDbLine
 10
349.212079
 20
754.949432
 30
0.0
 11
349.132627
 21
754.774796
 31
0.0
  0
LINE
  5
1377
100
AcDbEntity
  8
10000_FRONT
370
    25
390
0
  6
CONTINUOUS
 62
     7
100
AcDbLine
 10
349.132627
 20
754.774796
 30
0.0
 11
349.045434
 21
754.604195
 31
0.0
  0
LINE
  5
1378
100
AcDbEntity
  8
10000_FRONT
370
    25
390
0
  6
CONTINUOUS
 62
     7
100
AcDbLine
 10
349.045434
 20
754.604195
 30
0.0
 11
348.950887
 21
754.438217
 31
0.0
  0
LINE
  5
1379
100
AcDbEntity
  8
10000_FRONT
370
    25
390
0
  6
CONTINUOUS
 62
     7
100
AcDbLine
 10
348.950887
 20
754.438217
 30
0.0
 11
348.849389
 21
754.277435
 31
0.0
  0
LINE
  5
137A
100
AcDbEntity
  8
10000_FRONT
370
    25
390
0
  6
CONTINUOUS
 62
     7
100
AcDbLine
 10
348.849389
 20
754.277435
 30
0.0
 11
348.741357
 21
754.122406
 31
0.0
  0
LINE
  5
137B
100
AcDbEntity
  8
10000_FRONT
370
    25
390
0
  6
CONTINUOUS
 62
     7
100
AcDbLine
 10
348.741357
 20
754.122406
 30
0.0
 11
348.627385
 21
753.973564
 31
0.0
  0
LINE
  5
137C
100
AcDbEntity
  8
10000_FRONT
370
    25
390
0
  6
CONTINUOUS
 62
     7
100
AcDbLine
 10
348.627385
 20
753.973564
 30
0.0
 11
348.508138
 21
753.831306
 31
0.0
  0
LINE
  5
137D
100
AcDbEntity
  8
10000_FRONT
370
    25
390
0
  6
CONTINUOUS
 62
     7
100
AcDbLine
 10
348.508138
 20
753.831306
 30
0.0
 11
348.384282
 21
753.69603
 31
0.0
  0
LINE
  5
137E
100
AcDbEntity
  8
10000_FRONT
370
    25
390
0
  6
CONTINUOUS
 62
     7
100
AcDbLine
 10
348.384282
 20
753.69603
 30
0.0
 11
348.256006
 21
753.567665
 31
0.0
  0
LINE
  5
137F
100
AcDbEntity
  8
10000_FRONT
370
    25
390
0
  6
CONTINUOUS
 62
     7
100
AcDbLine
 10
348.256006
 20
753.567665
 30
0.0
 11
348.120839
 21
753.443741
 31
0.0
  0
LINE
  5
1380
100
AcDbEntity
  8
10000_FRONT
370
    25
390
0
  6
CONTINUOUS
 62
     7
100
AcDbLine
 10
348.120839
 20
753.443741
 30
0.0
 11
347.978662
 21
753.324402
 31
0.0
  0
LINE
  5
1381
100
AcDbEntity
  8
10000_FRONT
370
    25
390
0
  6
CONTINUOUS
 62
     7
100
AcDbLine
 10
347.978662
 20
753.324402
 30
0.0
 11
347.829866
 21
753.210312
 31
0.0
  0
LINE
  5
1382
100
AcDbEntity
  8
10000_FRONT
370
    25
390
0
  6
CONTINUOUS
 62
     7
100
AcDbLine
 10
347.829866
 20
753.210312
 30
0.0
 11
347.674848
 21
753.102127
 31
0.0
  0
LINE
  5
1383
100
AcDbEntity
  8
10000_FRONT
370
    25
390
0
  6
CONTINUOUS
 62
     7
100
AcDbLine
 10
347.674848
 20
753.102127
 30
0.0
 11
347.514039
 21
753.000473
 31
0.0
  0
LINE
  5
1384
100
AcDbEntity
  8
10000_FRONT
370
    25
390
0
  6
CONTINUOUS
 62
     7
100
AcDbLine
 10
347.514039
 20
753.000473
 30
0.0
 11
347.348008
 21
752.905762
 31
0.0
  0
LINE
  5
1385
100
AcDbEntity
  8
10000_FRONT
370
    25
390
0
  6
CONTINUOUS
 62
     7
100
AcDbLine
 10
347.348008
 20
752.905762
 30
0.0
 11
347.177324
 21
752.81839
 31
0.0
  0
LINE
  5
1386
100
AcDbEntity
  8
10000_FRONT
370
    25
390
0
  6
CONTINUOUS
 62
     7
100
AcDbLine
 10
347.177324
 20
752.81839
 30
0.0
 11
347.002565
 21
752.738785
 31
0.0
  0
LINE
  5
1387
100
AcDbEntity
  8
10000_FRONT
370
    25
390
0
  6
CONTINUOUS
 62
     7
100
AcDbLine
 10
347.002565
 20
752.738785
 30
0.0
 11
346.824277
 21
752.667267
 31
0.0
  0
LINE
  5
1388
100
AcDbEntity
  8
10000_FRONT
370
    25
390
0
  6
CONTINUOUS
 62
     7
100
AcDbLine
 10
346.824277
 20
752.667267
 30
0.0
 11
346.643029
 21
752.604065
 31
0.0
  0
LINE
  5
1389
100
AcDbEntity
  8
10000_FRONT
370
    25
390
0
  6
CONTINUOUS
 62
     7
100
AcDbLine
 10
346.643029
 20
752.604065
 30
0.0
 11
346.459504
 21
752.549255
 31
0.0
  0
LINE
  5
138A
100
AcDbEntity
  8
10000_FRONT
370
    25
390
0
  6
CONTINUOUS
 62
     7
100
AcDbLine
 10
346.459504
 20
752.549255
 30
0.0
 11
346.274392
 21
752.503006
 31
0.0
  0
LINE
  5
138B
100
AcDbEntity
  8
10000_FRONT
370
    25
390
0
  6
CONTINUOUS
 62
     7
100
AcDbLine
 10
346.274392
 20
752.503006
 30
0.0
 11
346.08838
 21
752.465424
 31
0.0
  0
LINE
  5
138C
100
AcDbEntity
  8
10000_FRONT
370
    25
390
0
  6
CONTINUOUS
 62
     7
100
AcDbLine
 10
346.08838
 20
752.465424
 30
0.0
 11
345.902185
 21
752.436508
 31
0.0
  0
LINE
  5
138D
100
AcDbEntity
  8
10000_FRONT
370
    25
390
0
  6
CONTINUOUS
 62
     7
100
AcDbLine
 10
345.902185
 20
752.436508
 30
0.0
 11
345.716558
 21
752.416107
 31
0.0
  0
LINE
  5
138E
100
AcDbEntity
  8
10000_FRONT
370
    25
390
0
  6
CONTINUOUS
 62
     7
100
AcDbLine
 10
345.716558
 20
752.416107
 30
0.0
 11
345.532247
 21
752.403992
 31
0.0
  0
LINE
  5
138F
100
AcDbEntity
  8
10000_FRONT
370
    25
390
0
  6
CONTINUOUS
 62
     7
100
AcDbLine
 10
345.532247
 20
752.403992
 30
0.0
 11
345.350003
 21
752.399994
 31
0.0
  0
LINE
  5
1390
100
AcDbEntity
  8
10000_FRONT
370
    25
390
0
  6
CONTINUOUS
 62
     7
100
AcDbLine
 10
345.350003
 20
752.399994
 30
0.0
 11
345.167764
 21
752.403992
 31
0.0
  0
LINE
  5
1391
100
AcDbEntity
  8
10000_FRONT
370
    25
390
0
  6
CONTINUOUS
 62
     7
100
AcDbLine
 10
345.167764
 20
752.403992
 30
0.0
 11
344.983453
 21
752.416107
 31
0.0
  0
LINE
  5
1392
100
AcDbEntity
  8
10000_FRONT
370
    25
390
0
  6
CONTINUOUS
 62
     7
100
AcDbLine
 10
344.983453
 20
752.416107
 30
0.0
 11
344.797822
 21
752.436508
 31
0.0
  0
LINE
  5
1393
100
AcDbEntity
  8
10000_FRONT
370
    25
390
0
  6
CONTINUOUS
 62
     7
100
AcDbLine
 10
344.797822
 20
752.436508
 30
0.0
 11
344.611631
 21
752.465424
 31
0.0
  0
LINE
  5
1394
100
AcDbEntity
  8
10000_FRONT
370
    25
390
0
  6
CONTINUOUS
 62
     7
100
AcDbLine
 10
344.611631
 20
752.465424
 30
0.0
 11
344.425618
 21
752.503006
 31
0.0
  0
LINE
  5
1395
100
AcDbEntity
  8
10000_FRONT
370
    25
390
0
  6
CONTINUOUS
 62
     7
100
AcDbLine
 10
344.425618
 20
752.503006
 30
0.0
 11
344.240506
 21
752.549255
 31
0.0
  0
LINE
  5
1396
100
AcDbEntity
  8
10000_FRONT
370
    25
390
0
  6
CONTINUOUS
 62
     7
100
AcDbLine
 10
344.240506
 20
752.549255
 30
0.0
 11
344.056981
 21
752.604065
 31
0.0
  0
LINE
  5
1397
100
AcDbEntity
  8
10000_FRONT
370
    25
390
0
  6
CONTINUOUS
 62
     7
100
AcDbLine
 10
344.056981
 20
752.604065
 30
0.0
 11
343.875734
 21
752.667267
 31
0.0
  0
LINE
  5
1398
100
AcDbEntity
  8
10000_FRONT
370
    25
390
0
  6
CONTINUOUS
 62
     7
100
AcDbLine
 10
343.875734
 20
752.667267
 30
0.0
 11
343.697446
 21
752.738785
 31
0.0
  0
LINE
  5
1399
100
AcDbEntity
  8
10000_FRONT
370
    25
390
0
  6
CONTINUOUS
 62
     7
100
AcDbLine
 10
343.697446
 20
752.738785
 30
0.0
 11
343.522687
 21
752.81839
 31
0.0
  0
LINE
  5
139A
100
AcDbEntity
  8
10000_FRONT
370
    25
390
0
  6
CONTINUOUS
 62
     7
100
AcDbLine
 10
343.522687
 20
752.81839
 30
0.0
 11
343.352002
 21
752.905762
 31
0.0
  0
LINE
  5
139B
100
AcDbEntity
  8
10000_FRONT
370
    25
390
0
  6
CONTINUOUS
 62
     7
100
AcDbLine
 10
343.352002
 20
752.905762
 30
0.0
 11
343.185968
 21
753.000473
 31
0.0
  0
LINE
  5
139C
100
AcDbEntity
  8
10000_FRONT
370
    25
390
0
  6
CONTINUOUS
 62
     7
100
AcDbLine
 10
343.185968
 20
753.000473
 30
0.0
 11
343.025163
 21
753.102127
 31
0.0
  0
LINE
  5
139D
100
AcDbEntity
  8
10000_FRONT
370
    25
390
0
  6
CONTINUOUS
 62
     7
100
AcDbLine
 10
343.025163
 20
753.102127
 30
0.0
 11
342.870141
 21
753.210312
 31
0.0
  0
LINE
  5
139E
100
AcDbEntity
  8
10000_FRONT
370
    25
390
0
  6
CONTINUOUS
 62
     7
100
AcDbLine
 10
342.870141
 20
753.210312
 30
0.0
 11
342.721345
 21
753.324402
 31
0.0
  0
LINE
  5
139F
100
AcDbEntity
  8
10000_FRONT
370
    25
390
0
  6
CONTINUOUS
 62
     7
100
AcDbLine
 10
342.721345
 20
753.324402
 30
0.0
 11
342.579168
 21
753.443741
 31
0.0
  0
LINE
  5
13A0
100
AcDbEntity
  8
10000_FRONT
370
    25
390
0
  6
CONTINUOUS
 62
     7
100
AcDbLine
 10
342.579168
 20
753.443741
 30
0.0
 11
342.444005
 21
753.567665
 31
0.0
  0
LINE
  5
13A1
100
AcDbEntity
  8
10000_FRONT
370
    25
390
0
  6
CONTINUOUS
 62
     7
100
AcDbLine
 10
342.444005
 20
753.567665
 30
0.0
 11
342.315728
 21
753.69603
 31
0.0
  0
LINE
  5
13A2
100
AcDbEntity
  8
10000_FRONT
370
    25
390
0
  6
CONTINUOUS
 62
     7
100
AcDbLine
 10
342.315728
 20
753.69603
 30
0.0
 11
342.191869
 21
753.831306
 31
0.0
  0
LINE
  5
13A3
100
AcDbEntity
  8
10000_FRONT
370
    25
390
0
  6
CONTINUOUS
 62
     7
100
AcDbLine
 10
342.191869
 20
753.831306
 30
0.0
 11
342.072625
 21
753.973564
 31
0.0
  0
LINE
  5
13A4
100
AcDbEntity
  8
10000_FRONT
370
    25
390
0
  6
CONTINUOUS
 62
     7
100
AcDbLine
 10
342.072625
 20
753.973564
 30
0.0
 11
341.958654
 21
754.122406
 31
0.0
  0
LINE
  5
13A5
100
AcDbEntity
  8
10000_FRONT
370
    25
390
0
  6
CONTINUOUS
 62
     7
100
AcDbLine
 10
341.958654
 20
754.122406
 30
0.0
 11
341.850621
 21
754.277435
 31
0.0
  0
LINE
  5
13A6
100
AcDbEntity
  8
10000_FRONT
370
    25
390
0
  6
CONTINUOUS
 62
     7
100
AcDbLine
 10
341.850621
 20
754.277435
 30
0.0
 11
341.74912
 21
754.438217
 31
0.0
  0
LINE
  5
13A7
100
AcDbEntity
  8
10000_FRONT
370
    25
390
0
  6
CONTINUOUS
 62
     7
100
AcDbLine
 10
341.74912
 20
754.438217
 30
0.0
 11
341.654577
 21
754.604195
 31
0.0
  0
LINE
  5
13A8
100
AcDbEntity
  8
10000_FRONT
370
    25
390
0
  6
CONTINUOUS
 62
     7
100
AcDbLine
 10
341.654577
 20
754.604195
 30
0.0
 11
341.567384
 21
754.774796
 31
0.0
  0
LINE
  5
13A9
100
AcDbEntity
  8
10000_FRONT
370
    25
390
0
  6
CONTINUOUS
 62
     7
100
AcDbLine
 10
341.567384
 20
754.774796
 30
0.0
 11
341.487931
 21
754.949432
 31
0.0
  0
LINE
  5
13AA
100
AcDbEntity
  8
10000_FRONT
370
    25
390
0
  6
CONTINUOUS
 62
     7
100
AcDbLine
 10
341.487931
 20
754.949432
 30
0.0
 11
341.416589
 21
755.127571
 31
0.0
  0
LINE
  5
13AB
100
AcDbEntity
  8
10000_FRONT
370
    25
390
0
  6
CONTINUOUS
 62
     7
100
AcDbLine
 10
341.416589
 20
755.127571
 30
0.0
 11
341.353521
 21
755.308647
 31
0.0
  0
LINE
  5
13AC
100
AcDbEntity
  8
10000_FRONT
370
    25
390
0
  6
CONTINUOUS
 62
     7
100
AcDbLine
 10
341.353521
 20
755.308647
 30
0.0
 11
341.29886
 21
755.491974
 31
0.0
  0
LINE
  5
13AD
100
AcDbEntity
  8
10000_FRONT
370
    25
390
0
  6
CONTINUOUS
 62
     7
100
AcDbLine
 10
341.29886
 20
755.491974
 30
0.0
 11
341.252725
 21
755.676872
 31
0.0
  0
LINE
  5
13AE
100
AcDbEntity
  8
10000_FRONT
370
    25
390
0
  6
CONTINUOUS
 62
     7
100
AcDbLine
 10
341.252725
 20
755.676872
 30
0.0
 11
341.215242
 21
755.862648
 31
0.0
  0
LINE
  5
13AF
100
AcDbEntity
  8
10000_FRONT
370
    25
390
0
  6
CONTINUOUS
 62
     7
100
AcDbLine
 10
341.215242
 20
755.862648
 30
0.0
 11
341.186414
 21
756.048599
 31
0.0
  0
LINE
  5
13B0
100
AcDbEntity
  8
10000_FRONT
370
    25
390
0
  6
CONTINUOUS
 62
     7
100
AcDbLine
 10
341.186414
 20
756.048599
 30
0.0
 11
341.166059
 21
756.233971
 31
0.0
  0
LINE
  5
13B1
100
AcDbEntity
  8
10000_FRONT
370
    25
390
0
  6
CONTINUOUS
 62
     7
100
AcDbLine
 10
341.166059
 20
756.233971
 30
0.0
 11
341.153985
 21
756.418022
 31
0.0
  0
LINE
  5
13B2
100
AcDbEntity
  8
10000_FRONT
370
    25
390
0
  6
CONTINUOUS
 62
     7
100
AcDbLine
 10
341.153985
 20
756.418022
 30
0.0
 11
341.150007
 21
756.599998
 31
0.0
  0
LINE
  5
13B3
100
AcDbEntity
  8
10000_FRONT
370
    25
390
0
  6
CONTINUOUS
 62
     7
100
AcDbLine
 10
310.200005
 20
756.599998
 30
0.0
 11
310.196023
 21
756.418022
 31
0.0
  0
LINE
  5
13B4
100
AcDbEntity
  8
10000_FRONT
370
    25
390
0
  6
CONTINUOUS
 62
     7
100
AcDbLine
 10
310.196023
 20
756.418022
 30
0.0
 11
310.183951
 21
756.233971
 31
0.0
  0
LINE
  5
13B5
100
AcDbEntity
  8
10000_FRONT
370
    25
390
0
  6
CONTINUOUS
 62
     7
100
AcDbLine
 10
310.183951
 20
756.233971
 30
0.0
 11
310.163595
 21
756.048592
 31
0.0
  0
LINE
  5
13B6
100
AcDbEntity
  8
10000_FRONT
370
    25
390
0
  6
CONTINUOUS
 62
     7
100
AcDbLine
 10
310.163595
 20
756.048592
 30
0.0
 11
310.134764
 21
755.86264
 31
0.0
  0
LINE
  5
13B7
100
AcDbEntity
  8
10000_FRONT
370
    25
390
0
  6
CONTINUOUS
 62
     7
100
AcDbLine
 10
310.134764
 20
755.86264
 30
0.0
 11
310.09728
 21
755.676857
 31
0.0
  0
LINE
  5
13B8
100
AcDbEntity
  8
10000_FRONT
370
    25
390
0
  6
CONTINUOUS
 62
     7
100
AcDbLine
 10
310.09728
 20
755.676857
 30
0.0
 11
310.051143
 21
755.491951
 31
0.0
  0
LINE
  5
13B9
100
AcDbEntity
  8
10000_FRONT
370
    25
390
0
  6
CONTINUOUS
 62
     7
100
AcDbLine
 10
310.051143
 20
755.491951
 30
0.0
 11
309.996477
 21
755.308617
 31
0.0
  0
LINE
  5
13BA
100
AcDbEntity
  8
10000_FRONT
370
    25
390
0
  6
CONTINUOUS
 62
     7
100
AcDbLine
 10
309.996477
 20
755.308617
 30
0.0
 11
309.933408
 21
755.127533
 31
0.0
  0
LINE
  5
13BB
100
AcDbEntity
  8
10000_FRONT
370
    25
390
0
  6
CONTINUOUS
 62
     7
100
AcDbLine
 10
309.933408
 20
755.127533
 30
0.0
 11
309.86206
 21
754.949394
 31
0.0
  0
LINE
  5
13BC
100
AcDbEntity
  8
10000_FRONT
370
    25
390
0
  6
CONTINUOUS
 62
     7
100
AcDbLine
 10
309.86206
 20
754.949394
 30
0.0
 11
309.782605
 21
754.77475
 31
0.0
  0
LINE
  5
13BD
100
AcDbEntity
  8
10000_FRONT
370
    25
390
0
  6
CONTINUOUS
 62
     7
100
AcDbLine
 10
309.782605
 20
754.77475
 30
0.0
 11
309.695408
 21
754.604149
 31
0.0
  0
LINE
  5
13BE
100
AcDbEntity
  8
10000_FRONT
370
    25
390
0
  6
CONTINUOUS
 62
     7
100
AcDbLine
 10
309.695408
 20
754.604149
 30
0.0
 11
309.600861
 21
754.438171
 31
0.0
  0
LINE
  5
13BF
100
AcDbEntity
  8
10000_FRONT
370
    25
390
0
  6
CONTINUOUS
 62
     7
100
AcDbLine
 10
309.600861
 20
754.438171
 30
0.0
 11
309.499359
 21
754.27739
 31
0.0
  0
LINE
  5
13C0
100
AcDbEntity
  8
10000_FRONT
370
    25
390
0
  6
CONTINUOUS
 62
     7
100
AcDbLine
 10
309.499359
 20
754.27739
 30
0.0
 11
309.391327
 21
754.12236
 31
0.0
  0
LINE
  5
13C1
100
AcDbEntity
  8
10000_FRONT
370
    25
390
0
  6
CONTINUOUS
 62
     7
100
AcDbLine
 10
309.391327
 20
754.12236
 30
0.0
 11
309.277359
 21
753.973526
 31
0.0
  0
LINE
  5
13C2
100
AcDbEntity
  8
10000_FRONT
370
    25
390
0
  6
CONTINUOUS
 62
     7
100
AcDbLine
 10
309.277359
 20
753.973526
 30
0.0
 11
309.158119
 21
753.831284
 31
0.0
  0
LINE
  5
13C3
100
AcDbEntity
  8
10000_FRONT
370
    25
390
0
  6
CONTINUOUS
 62
     7
100
AcDbLine
 10
309.158119
 20
753.831284
 30
0.0
 11
309.034272
 21
753.696014
 31
0.0
  0
LINE
  5
13C4
100
AcDbEntity
  8
10000_FRONT
370
    25
390
0
  6
CONTINUOUS
 62
     7
100
AcDbLine
 10
309.034272
 20
753.696014
 30
0.0
 11
308.905994
 21
753.56765
 31
0.0
  0
LINE
  5
13C5
100
AcDbEntity
  8
10000_FRONT
370
    25
390
0
  6
CONTINUOUS
 62
     7
100
AcDbLine
 10
308.905994
 20
753.56765
 30
0.0
 11
308.770817
 21
753.443726
 31
0.0
  0
LINE
  5
13C6
100
AcDbEntity
  8
10000_FRONT
370
    25
390
0
  6
CONTINUOUS
 62
     7
100
AcDbLine
 10
308.770817
 20
753.443726
 30
0.0
 11
308.628631
 21
753.324371
 31
0.0
  0
LINE
  5
13C7
100
AcDbEntity
  8
10000_FRONT
370
    25
390
0
  6
CONTINUOUS
 62
     7
100
AcDbLine
 10
308.628631
 20
753.324371
 30
0.0
 11
308.479827
 21
753.210281
 31
0.0
  0
LINE
  5
13C8
100
AcDbEntity
  8
10000_FRONT
370
    25
390
0
  6
CONTINUOUS
 62
     7
100
AcDbLine
 10
308.479827
 20
753.210281
 30
0.0
 11
308.324802
 21
753.102097
 31
0.0
  0
LINE
  5
13C9
100
AcDbEntity
  8
10000_FRONT
370
    25
390
0
  6
CONTINUOUS
 62
     7
100
AcDbLine
 10
308.324802
 20
753.102097
 30
0.0
 11
308.163994
 21
753.000443
 31
0.0
  0
LINE
  5
13CA
100
AcDbEntity
  8
10000_FRONT
370
    25
390
0
  6
CONTINUOUS
 62
     7
100
AcDbLine
 10
308.163994
 20
753.000443
 30
0.0
 11
307.99796
 21
752.905731
 31
0.0
  0
LINE
  5
13CB
100
AcDbEntity
  8
10000_FRONT
370
    25
390
0
  6
CONTINUOUS
 62
     7
100
AcDbLine
 10
307.99796
 20
752.905731
 30
0.0
 11
307.827276
 21
752.818375
 31
0.0
  0
LINE
  5
13CC
100
AcDbEntity
  8
10000_FRONT
370
    25
390
0
  6
CONTINUOUS
 62
     7
100
AcDbLine
 10
307.827276
 20
752.818375
 30
0.0
 11
307.65252
 21
752.738754
 31
0.0
  0
LINE
  5
13CD
100
AcDbEntity
  8
10000_FRONT
370
    25
390
0
  6
CONTINUOUS
 62
     7
100
AcDbLine
 10
307.65252
 20
752.738754
 30
0.0
 11
307.47424
 21
752.667267
 31
0.0
  0
LINE
  5
13CE
100
AcDbEntity
  8
10000_FRONT
370
    25
390
0
  6
CONTINUOUS
 62
     7
100
AcDbLine
 10
307.47424
 20
752.667267
 30
0.0
 11
307.292998
 21
752.60405
 31
0.0
  0
LINE
  5
13CF
100
AcDbEntity
  8
10000_FRONT
370
    25
390
0
  6
CONTINUOUS
 62
     7
100
AcDbLine
 10
307.292998
 20
752.60405
 30
0.0
 11
307.109478
 21
752.549255
 31
0.0
  0
LINE
  5
13D0
100
AcDbEntity
  8
10000_FRONT
370
    25
390
0
  6
CONTINUOUS
 62
     7
100
AcDbLine
 10
307.109478
 20
752.549255
 30
0.0
 11
306.924372
 21
752.503006
 31
0.0
  0
LINE
  5
13D1
100
AcDbEntity
  8
10000_FRONT
370
    25
390
0
  6
CONTINUOUS
 62
     7
100
AcDbLine
 10
306.924372
 20
752.503006
 30
0.0
 11
306.738367
 21
752.465424
 31
0.0
  0
LINE
  5
13D2
100
AcDbEntity
  8
10000_FRONT
370
    25
390
0
  6
CONTINUOUS
 62
     7
100
AcDbLine
 10
306.738367
 20
752.465424
 30
0.0
 11
306.552178
 21
752.436508
 31
0.0
  0
LINE
  5
13D3
100
AcDbEntity
  8
10000_FRONT
370
    25
390
0
  6
CONTINUOUS
 62
     7
100
AcDbLine
 10
306.552178
 20
752.436508
 30
0.0
 11
306.366553
 21
752.416092
 31
0.0
  0
LINE
  5
13D4
100
AcDbEntity
  8
10000_FRONT
370
    25
390
0
  6
CONTINUOUS
 62
     7
100
AcDbLine
 10
306.366553
 20
752.416092
 30
0.0
 11
306.182245
 21
752.403992
 31
0.0
  0
LINE
  5
13D5
100
AcDbEntity
  8
10000_FRONT
370
    25
390
0
  6
CONTINUOUS
 62
     7
100
AcDbLine
 10
306.182245
 20
752.403992
 30
0.0
 11
306.000005
 21
752.399994
 31
0.0
  0
LINE
  5
13D6
100
AcDbEntity
  8
10000_FRONT
370
    25
390
0
  6
CONTINUOUS
 62
     7
100
AcDbLine
 10
306.000005
 20
752.399994
 30
0.0
 11
305.817764
 21
752.403992
 31
0.0
  0
LINE
  5
13D7
100
AcDbEntity
  8
10000_FRONT
370
    25
390
0
  6
CONTINUOUS
 62
     7
100
AcDbLine
 10
305.817764
 20
752.403992
 30
0.0
 11
305.633453
 21
752.416107
 31
0.0
  0
LINE
  5
13D8
100
AcDbEntity
  8
10000_FRONT
370
    25
390
0
  6
CONTINUOUS
 62
     7
100
AcDbLine
 10
305.633453
 20
752.416107
 30
0.0
 11
305.447824
 21
752.436508
 31
0.0
  0
LINE
  5
13D9
100
AcDbEntity
  8
10000_FRONT
370
    25
390
0
  6
CONTINUOUS
 62
     7
100
AcDbLine
 10
305.447824
 20
752.436508
 30
0.0
 11
305.261629
 21
752.465424
 31
0.0
  0
LINE
  5
13DA
100
AcDbEntity
  8
10000_FRONT
370
    25
390
0
  6
CONTINUOUS
 62
     7
100
AcDbLine
 10
305.261629
 20
752.465424
 30
0.0
 11
305.075618
 21
752.503006
 31
0.0
  0
LINE
  5
13DB
100
AcDbEntity
  8
10000_FRONT
370
    25
390
0
  6
CONTINUOUS
 62
     7
100
AcDbLine
 10
305.075618
 20
752.503006
 30
0.0
 11
304.890505
 21
752.549255
 31
0.0
  0
LINE
  5
13DC
100
AcDbEntity
  8
10000_FRONT
370
    25
390
0
  6
CONTINUOUS
 62
     7
100
AcDbLine
 10
304.890505
 20
752.549255
 30
0.0
 11
304.70698
 21
752.604065
 31
0.0
  0
LINE
  5
13DD
100
AcDbEntity
  8
10000_FRONT
370
    25
390
0
  6
CONTINUOUS
 62
     7
100
AcDbLine
 10
304.70698
 20
752.604065
 30
0.0
 11
304.525732
 21
752.667267
 31
0.0
  0
LINE
  5
13DE
100
AcDbEntity
  8
10000_FRONT
370
    25
390
0
  6
CONTINUOUS
 62
     7
100
AcDbLine
 10
304.525732
 20
752.667267
 30
0.0
 11
304.347447
 21
752.738785
 31
0.0
  0
LINE
  5
13DF
100
AcDbEntity
  8
10000_FRONT
370
    25
390
0
  6
CONTINUOUS
 62
     7
100
AcDbLine
 10
304.347447
 20
752.738785
 30
0.0
 11
304.172688
 21
752.81839
 31
0.0
  0
LINE
  5
13E0
100
AcDbEntity
  8
10000_FRONT
370
    25
390
0
  6
CONTINUOUS
 62
     7
100
AcDbLine
 10
304.172688
 20
752.81839
 30
0.0
 11
304.002002
 21
752.905762
 31
0.0
  0
LINE
  5
13E1
100
AcDbEntity
  8
10000_FRONT
370
    25
390
0
  6
CONTINUOUS
 62
     7
100
AcDbLine
 10
304.002002
 20
752.905762
 30
0.0
 11
303.835969
 21
753.000473
 31
0.0
  0
LINE
  5
13E2
100
AcDbEntity
  8
10000_FRONT
370
    25
390
0
  6
CONTINUOUS
 62
     7
100
AcDbLine
 10
303.835969
 20
753.000473
 30
0.0
 11
303.675163
 21
753.102127
 31
0.0
  0
LINE
  5
13E3
100
AcDbEntity
  8
10000_FRONT
370
    25
390
0
  6
CONTINUOUS
 62
     7
100
AcDbLine
 10
303.675163
 20
753.102127
 30
0.0
 11
303.520143
 21
753.210312
 31
0.0
  0
LINE
  5
13E4
100
AcDbEntity
  8
10000_FRONT
370
    25
390
0
  6
CONTINUOUS
 62
     7
100
AcDbLine
 10
303.520143
 20
753.210312
 30
0.0
 11
303.371346
 21
753.324402
 31
0.0
  0
LINE
  5
13E5
100
AcDbEntity
  8
10000_FRONT
370
    25
390
0
  6
CONTINUOUS
 62
     7
100
AcDbLine
 10
303.371346
 20
753.324402
 30
0.0
 11
303.229169
 21
753.443741
 31
0.0
  0
LINE
  5
13E6
100
AcDbEntity
  8
10000_FRONT
370
    25
390
0
  6
CONTINUOUS
 62
     7
100
AcDbLine
 10
303.229169
 20
753.443741
 30
0.0
 11
303.094005
 21
753.567665
 31
0.0
  0
LINE
  5
13E7
100
AcDbEntity
  8
10000_FRONT
370
    25
390
0
  6
CONTINUOUS
 62
     7
100
AcDbLine
 10
303.094005
 20
753.567665
 30
0.0
 11
302.965727
 21
753.69603
 31
0.0
  0
LINE
  5
13E8
100
AcDbEntity
  8
10000_FRONT
370
    25
390
0
  6
CONTINUOUS
 62
     7
100
AcDbLine
 10
302.965727
 20
753.69603
 30
0.0
 11
302.84187
 21
753.831306
 31
0.0
  0
LINE
  5
13E9
100
AcDbEntity
  8
10000_FRONT
370
    25
390
0
  6
CONTINUOUS
 62
     7
100
AcDbLine
 10
302.84187
 20
753.831306
 30
0.0
 11
302.722625
 21
753.973564
 31
0.0
  0
LINE
  5
13EA
100
AcDbEntity
  8
10000_FRONT
370
    25
390
0
  6
CONTINUOUS
 62
     7
100
AcDbLine
 10
302.722625
 20
753.973564
 30
0.0
 11
302.608653
 21
754.122406
 31
0.0
  0
LINE
  5
13EB
100
AcDbEntity
  8
10000_FRONT
370
    25
390
0
  6
CONTINUOUS
 62
     7
100
AcDbLine
 10
302.608653
 20
754.122406
 30
0.0
 11
302.500621
 21
754.277435
 31
0.0
  0
LINE
  5
13EC
100
AcDbEntity
  8
10000_FRONT
370
    25
390
0
  6
CONTINUOUS
 62
     7
100
AcDbLine
 10
302.500621
 20
754.277435
 30
0.0
 11
302.399122
 21
754.438217
 31
0.0
  0
LINE
  5
13ED
100
AcDbEntity
  8
10000_FRONT
370
    25
390
0
  6
CONTINUOUS
 62
     7
100
AcDbLine
 10
302.399122
 20
754.438217
 30
0.0
 11
302.304577
 21
754.604195
 31
0.0
  0
LINE
  5
13EE
100
AcDbEntity
  8
10000_FRONT
370
    25
390
0
  6
CONTINUOUS
 62
     7
100
AcDbLine
 10
302.304577
 20
754.604195
 30
0.0
 11
302.217382
 21
754.774796
 31
0.0
  0
LINE
  5
13EF
100
AcDbEntity
  8
10000_FRONT
370
    25
390
0
  6
CONTINUOUS
 62
     7
100
AcDbLine
 10
302.217382
 20
754.774796
 30
0.0
 11
302.137933
 21
754.949432
 31
0.0
  0
LINE
  5
13F0
100
AcDbEntity
  8
10000_FRONT
370
    25
390
0
  6
CONTINUOUS
 62
     7
100
AcDbLine
 10
302.137933
 20
754.949432
 30
0.0
 11
302.066588
 21
755.127571
 31
0.0
  0
LINE
  5
13F1
100
AcDbEntity
  8
10000_FRONT
370
    25
390
0
  6
CONTINUOUS
 62
     7
100
AcDbLine
 10
302.066588
 20
755.127571
 30
0.0
 11
302.003522
 21
755.308647
 31
0.0
  0
LINE
  5
13F2
100
AcDbEntity
  8
10000_FRONT
370
    25
390
0
  6
CONTINUOUS
 62
     7
100
AcDbLine
 10
302.003522
 20
755.308647
 30
0.0
 11
301.948859
 21
755.491974
 31
0.0
  0
LINE
  5
13F3
100
AcDbEntity
  8
10000_FRONT
370
    25
390
0
  6
CONTINUOUS
 62
     7
100
AcDbLine
 10
301.948859
 20
755.491974
 30
0.0
 11
301.902725
 21
755.676872
 31
0.0
  0
LINE
  5
13F4
100
AcDbEntity
  8
10000_FRONT
370
    25
390
0
  6
CONTINUOUS
 62
     7
100
AcDbLine
 10
301.902725
 20
755.676872
 30
0.0
 11
301.865243
 21
755.862648
 31
0.0
  0
LINE
  5
13F5
100
AcDbEntity
  8
10000_FRONT
370
    25
390
0
  6
CONTINUOUS
 62
     7
100
AcDbLine
 10
301.865243
 20
755.862648
 30
0.0
 11
301.836414
 21
756.048599
 31
0.0
  0
LINE
  5
13F6
100
AcDbEntity
  8
10000_FRONT
370
    25
390
0
  6
CONTINUOUS
 62
     7
100
AcDbLine
 10
301.836414
 20
756.048599
 30
0.0
 11
301.816059
 21
756.233971
 31
0.0
  0
LINE
  5
13F7
100
AcDbEntity
  8
10000_FRONT
370
    25
390
0
  6
CONTINUOUS
 62
     7
100
AcDbLine
 10
301.816059
 20
756.233971
 30
0.0
 11
301.803987
 21
756.418022
 31
0.0
  0
LINE
  5
13F8
100
AcDbEntity
  8
10000_FRONT
370
    25
390
0
  6
CONTINUOUS
 62
     7
100
AcDbLine
 10
301.803987
 20
756.418022
 30
0.0
 11
301.800005
 21
756.599998
 31
0.0
  0
LINE
  5
13F9
100
AcDbEntity
  8
10000_FRONT
370
    25
390
0
  6
CONTINUOUS
 62
     7
100
AcDbLine
 10
294.200005
 20
756.599998
 30
0.0
 11
294.196023
 21
756.418022
 31
0.0
  0
LINE
  5
13FA
100
AcDbEntity
  8
10000_FRONT
370
    25
390
0
  6
CONTINUOUS
 62
     7
100
AcDbLine
 10
294.196023
 20
756.418022
 30
0.0
 11
294.183951
 21
756.233971
 31
0.0
  0
LINE
  5
13FB
100
AcDbEntity
  8
10000_FRONT
370
    25
390
0
  6
CONTINUOUS
 62
     7
100
AcDbLine
 10
294.183951
 20
756.233971
 30
0.0
 11
294.163596
 21
756.048599
 31
0.0
  0
LINE
  5
13FC
100
AcDbEntity
  8
10000_FRONT
370
    25
390
0
  6
CONTINUOUS
 62
     7
100
AcDbLine
 10
294.163596
 20
756.048599
 30
0.0
 11
294.134767
 21
755.862648
 31
0.0
  0
LINE
  5
13FD
100
AcDbEntity
  8
10000_FRONT
370
    25
390
0
  6
CONTINUOUS
 62
     7
100
AcDbLine
 10
294.134767
 20
755.862648
 30
0.0
 11
294.097285
 21
755.676872
 31
0.0
  0
LINE
  5
13FE
100
AcDbEntity
  8
10000_FRONT
370
    25
390
0
  6
CONTINUOUS
 62
     7
100
AcDbLine
 10
294.097285
 20
755.676872
 30
0.0
 11
294.051151
 21
755.491974
 31
0.0
  0
LINE
  5
13FF
100
AcDbEntity
  8
10000_FRONT
370
    25
390
0
  6
CONTINUOUS
 62
     7
100
AcDbLine
 10
294.051151
 20
755.491974
 30
0.0
 11
293.996488
 21
755.308647
 31
0.0
  0
LINE
  5
1400
100
AcDbEntity
  8
10000_FRONT
370
    25
390
0
  6
CONTINUOUS
 62
     7
100
AcDbLine
 10
293.996488
 20
755.308647
 30
0.0
 11
293.933422
 21
755.127571
 31
0.0
  0
LINE
  5
1401
100
AcDbEntity
  8
10000_FRONT
370
    25
390
0
  6
CONTINUOUS
 62
     7
100
AcDbLine
 10
293.933422
 20
755.127571
 30
0.0
 11
293.862077
 21
754.949432
 31
0.0
  0
LINE
  5
1402
100
AcDbEntity
  8
10000_FRONT
370
    25
390
0
  6
CONTINUOUS
 62
     7
100
AcDbLine
 10
293.862077
 20
754.949432
 30
0.0
 11
293.782628
 21
754.774796
 31
0.0
  0
LINE
  5
1403
100
AcDbEntity
  8
10000_FRONT
370
    25
390
0
  6
CONTINUOUS
 62
     7
100
AcDbLine
 10
293.782628
 20
754.774796
 30
0.0
 11
293.695433
 21
754.604195
 31
0.0
  0
LINE
  5
1404
100
AcDbEntity
  8
10000_FRONT
370
    25
390
0
  6
CONTINUOUS
 62
     7
100
AcDbLine
 10
293.695433
 20
754.604195
 30
0.0
 11
293.600888
 21
754.438217
 31
0.0
  0
LINE
  5
1405
100
AcDbEntity
  8
10000_FRONT
370
    25
390
0
  6
CONTINUOUS
 62
     7
100
AcDbLine
 10
293.600888
 20
754.438217
 30
0.0
 11
293.499389
 21
754.277435
 31
0.0
  0
LINE
  5
1406
100
AcDbEntity
  8
10000_FRONT
370
    25
390
0
  6
CONTINUOUS
 62
     7
100
AcDbLine
 10
293.499389
 20
754.277435
 30
0.0
 11
293.391357
 21
754.122406
 31
0.0
  0
LINE
  5
1407
100
AcDbEntity
  8
10000_FRONT
370
    25
390
0
  6
CONTINUOUS
 62
     7
100
AcDbLine
 10
293.391357
 20
754.122406
 30
0.0
 11
293.277385
 21
753.973564
 31
0.0
  0
LINE
  5
1408
100
AcDbEntity
  8
10000_FRONT
370
    25
390
0
  6
CONTINUOUS
 62
     7
100
AcDbLine
 10
293.277385
 20
753.973564
 30
0.0
 11
293.15814
 21
753.831306
 31
0.0
  0
LINE
  5
1409
100
AcDbEntity
  8
10000_FRONT
370
    25
390
0
  6
CONTINUOUS
 62
     7
100
AcDbLine
 10
293.15814
 20
753.831306
 30
0.0
 11
293.034283
 21
753.69603
 31
0.0
  0
LINE
  5
140A
100
AcDbEntity
  8
10000_FRONT
370
    25
390
0
  6
CONTINUOUS
 62
     7
100
AcDbLine
 10
293.034283
 20
753.69603
 30
0.0
 11
292.906005
 21
753.567665
 31
0.0
  0
LINE
  5
140B
100
AcDbEntity
  8
10000_FRONT
370
    25
390
0
  6
CONTINUOUS
 62
     7
100
AcDbLine
 10
292.906005
 20
753.567665
 30
0.0
 11
292.770841
 21
753.443741
 31
0.0
  0
LINE
  5
140C
100
AcDbEntity
  8
10000_FRONT
370
    25
390
0
  6
CONTINUOUS
 62
     7
100
AcDbLine
 10
292.770841
 20
753.443741
 30
0.0
 11
292.628664
 21
753.324402
 31
0.0
  0
LINE
  5
140D
100
AcDbEntity
  8
10000_FRONT
370
    25
390
0
  6
CONTINUOUS
 62
     7
100
AcDbLine
 10
292.628664
 20
753.324402
 30
0.0
 11
292.479867
 21
753.210312
 31
0.0
  0
LINE
  5
140E
100
AcDbEntity
  8
10000_FRONT
370
    25
390
0
  6
CONTINUOUS
 62
     7
100
AcDbLine
 10
292.479867
 20
753.210312
 30
0.0
 11
292.324847
 21
753.102127
 31
0.0
  0
LINE
  5
140F
100
AcDbEntity
  8
10000_FRONT
370
    25
390
0
  6
CONTINUOUS
 62
     7
100
AcDbLine
 10
292.324847
 20
753.102127
 30
0.0
 11
292.164041
 21
753.000473
 31
0.0
  0
LINE
  5
1410
100
AcDbEntity
  8
10000_FRONT
370
    25
390
0
  6
CONTINUOUS
 62
     7
100
AcDbLine
 10
292.164041
 20
753.000473
 30
0.0
 11
291.998008
 21
752.905762
 31
0.0
  0
LINE
  5
1411
100
AcDbEntity
  8
10000_FRONT
370
    25
390
0
  6
CONTINUOUS
 62
     7
100
AcDbLine
 10
291.998008
 20
752.905762
 30
0.0
 11
291.827322
 21
752.81839
 31
0.0
  0
LINE
  5
1412
100
AcDbEntity
  8
10000_FRONT
370
    25
390
0
  6
CONTINUOUS
 62
     7
100
AcDbLine
 10
291.827322
 20
752.81839
 30
0.0
 11
291.652563
 21
752.738785
 31
0.0
  0
LINE
  5
1413
100
AcDbEntity
  8
10000_FRONT
370
    25
390
0
  6
CONTINUOUS
 62
     7
100
AcDbLine
 10
291.652563
 20
752.738785
 30
0.0
 11
291.474278
 21
752.667267
 31
0.0
  0
LINE
  5
1414
100
AcDbEntity
  8
10000_FRONT
370
    25
390
0
  6
CONTINUOUS
 62
     7
100
AcDbLine
 10
291.474278
 20
752.667267
 30
0.0
 11
291.29303
 21
752.604065
 31
0.0
  0
LINE
  5
1415
100
AcDbEntity
  8
10000_FRONT
370
    25
390
0
  6
CONTINUOUS
 62
     7
100
AcDbLine
 10
291.29303
 20
752.604065
 30
0.0
 11
291.109505
 21
752.549255
 31
0.0
  0
LINE
  5
1416
100
AcDbEntity
  8
10000_FRONT
370
    25
390
0
  6
CONTINUOUS
 62
     7
100
AcDbLine
 10
291.109505
 20
752.549255
 30
0.0
 11
290.924392
 21
752.503006
 31
0.0
  0
LINE
  5
1417
100
AcDbEntity
  8
10000_FRONT
370
    25
390
0
  6
CONTINUOUS
 62
     7
100
AcDbLine
 10
290.924392
 20
752.503006
 30
0.0
 11
290.738381
 21
752.465424
 31
0.0
  0
LINE
  5
1418
100
AcDbEntity
  8
10000_FRONT
370
    25
390
0
  6
CONTINUOUS
 62
     7
100
AcDbLine
 10
290.738381
 20
752.465424
 30
0.0
 11
290.552186
 21
752.436508
 31
0.0
  0
LINE
  5
1419
100
AcDbEntity
  8
10000_FRONT
370
    25
390
0
  6
CONTINUOUS
 62
     7
100
AcDbLine
 10
290.552186
 20
752.436508
 30
0.0
 11
290.366557
 21
752.416107
 31
0.0
  0
LINE
  5
141A
100
AcDbEntity
  8
10000_FRONT
370
    25
390
0
  6
CONTINUOUS
 62
     7
100
AcDbLine
 10
290.366557
 20
752.416107
 30
0.0
 11
290.182246
 21
752.403992
 31
0.0
  0
LINE
  5
141B
100
AcDbEntity
  8
10000_FRONT
370
    25
390
0
  6
CONTINUOUS
 62
     7
100
AcDbLine
 10
290.182246
 20
752.403992
 30
0.0
 11
290.000005
 21
752.399994
 31
0.0
  0
LINE
  5
141C
100
AcDbEntity
  8
10000_FRONT
370
    25
390
0
  6
CONTINUOUS
 62
     7
100
AcDbLine
 10
290.000005
 20
752.399994
 30
0.0
 11
289.817765
 21
752.403992
 31
0.0
  0
LINE
  5
141D
100
AcDbEntity
  8
10000_FRONT
370
    25
390
0
  6
CONTINUOUS
 62
     7
100
AcDbLine
 10
289.817765
 20
752.403992
 30
0.0
 11
289.633453
 21
752.416107
 31
0.0
  0
LINE
  5
141E
100
AcDbEntity
  8
10000_FRONT
370
    25
390
0
  6
CONTINUOUS
 62
     7
100
AcDbLine
 10
289.633453
 20
752.416107
 30
0.0
 11
289.447824
 21
752.436508
 31
0.0
  0
LINE
  5
141F
100
AcDbEntity
  8
10000_FRONT
370
    25
390
0
  6
CONTINUOUS
 62
     7
100
AcDbLine
 10
289.447824
 20
752.436508
 30
0.0
 11
289.261629
 21
752.465424
 31
0.0
  0
LINE
  5
1420
100
AcDbEntity
  8
10000_FRONT
370
    25
390
0
  6
CONTINUOUS
 62
     7
100
AcDbLine
 10
289.261629
 20
752.465424
 30
0.0
 11
289.075618
 21
752.503006
 31
0.0
  0
LINE
  5
1421
100
AcDbEntity
  8
10000_FRONT
370
    25
390
0
  6
CONTINUOUS
 62
     7
100
AcDbLine
 10
289.075618
 20
752.503006
 30
0.0
 11
288.890505
 21
752.549255
 31
0.0
  0
LINE
  5
1422
100
AcDbEntity
  8
10000_FRONT
370
    25
390
0
  6
CONTINUOUS
 62
     7
100
AcDbLine
 10
288.890505
 20
752.549255
 30
0.0
 11
288.70698
 21
752.604065
 31
0.0
  0
LINE
  5
1423
100
AcDbEntity
  8
10000_FRONT
370
    25
390
0
  6
CONTINUOUS
 62
     7
100
AcDbLine
 10
288.70698
 20
752.604065
 30
0.0
 11
288.525732
 21
752.667267
 31
0.0
  0
LINE
  5
1424
100
AcDbEntity
  8
10000_FRONT
370
    25
390
0
  6
CONTINUOUS
 62
     7
100
AcDbLine
 10
288.525732
 20
752.667267
 30
0.0
 11
288.347447
 21
752.738785
 31
0.0
  0
LINE
  5
1425
100
AcDbEntity
  8
10000_FRONT
370
    25
390
0
  6
CONTINUOUS
 62
     7
100
AcDbLine
 10
288.347447
 20
752.738785
 30
0.0
 11
288.172688
 21
752.81839
 31
0.0
  0
LINE
  5
1426
100
AcDbEntity
  8
10000_FRONT
370
    25
390
0
  6
CONTINUOUS
 62
     7
100
AcDbLine
 10
288.172688
 20
752.81839
 30
0.0
 11
288.002003
 21
752.905762
 31
0.0
  0
LINE
  5
1427
100
AcDbEntity
  8
10000_FRONT
370
    25
390
0
  6
CONTINUOUS
 62
     7
100
AcDbLine
 10
288.002003
 20
752.905762
 30
0.0
 11
287.835969
 21
753.000473
 31
0.0
  0
LINE
  5
1428
100
AcDbEntity
  8
10000_FRONT
370
    25
390
0
  6
CONTINUOUS
 62
     7
100
AcDbLine
 10
287.835969
 20
753.000473
 30
0.0
 11
287.675164
 21
753.102127
 31
0.0
  0
LINE
  5
1429
100
AcDbEntity
  8
10000_FRONT
370
    25
390
0
  6
CONTINUOUS
 62
     7
100
AcDbLine
 10
287.675164
 20
753.102127
 30
0.0
 11
287.520143
 21
753.210312
 31
0.0
  0
LINE
  5
142A
100
AcDbEntity
  8
10000_FRONT
370
    25
390
0
  6
CONTINUOUS
 62
     7
100
AcDbLine
 10
287.520143
 20
753.210312
 30
0.0
 11
287.371347
 21
753.324402
 31
0.0
  0
LINE
  5
142B
100
AcDbEntity
  8
10000_FRONT
370
    25
390
0
  6
CONTINUOUS
 62
     7
100
AcDbLine
 10
287.371347
 20
753.324402
 30
0.0
 11
287.229169
 21
753.443741
 31
0.0
  0
LINE
  5
142C
100
AcDbEntity
  8
10000_FRONT
370
    25
390
0
  6
CONTINUOUS
 62
     7
100
AcDbLine
 10
287.229169
 20
753.443741
 30
0.0
 11
287.094006
 21
753.567665
 31
0.0
  0
LINE
  5
142D
100
AcDbEntity
  8
10000_FRONT
370
    25
390
0
  6
CONTINUOUS
 62
     7
100
AcDbLine
 10
287.094006
 20
753.567665
 30
0.0
 11
286.965727
 21
753.69603
 31
0.0
  0
LINE
  5
142E
100
AcDbEntity
  8
10000_FRONT
370
    25
390
0
  6
CONTINUOUS
 62
     7
100
AcDbLine
 10
286.965727
 20
753.69603
 30
0.0
 11
286.841871
 21
753.831306
 31
0.0
  0
LINE
  5
142F
100
AcDbEntity
  8
10000_FRONT
370
    25
390
0
  6
CONTINUOUS
 62
     7
100
AcDbLine
 10
286.841871
 20
753.831306
 30
0.0
 11
286.722624
 21
753.973564
 31
0.0
  0
LINE
  5
1430
100
AcDbEntity
  8
10000_FRONT
370
    25
390
0
  6
CONTINUOUS
 62
     7
100
AcDbLine
 10
286.722624
 20
753.973564
 30
0.0
 11
286.608653
 21
754.122406
 31
0.0
  0
LINE
  5
1431
100
AcDbEntity
  8
10000_FRONT
370
    25
390
0
  6
CONTINUOUS
 62
     7
100
AcDbLine
 10
286.608653
 20
754.122406
 30
0.0
 11
286.500621
 21
754.277435
 31
0.0
  0
LINE
  5
1432
100
AcDbEntity
  8
10000_FRONT
370
    25
390
0
  6
CONTINUOUS
 62
     7
100
AcDbLine
 10
286.500621
 20
754.277435
 30
0.0
 11
286.399122
 21
754.438217
 31
0.0
  0
LINE
  5
1433
100
AcDbEntity
  8
10000_FRONT
370
    25
390
0
  6
CONTINUOUS
 62
     7
100
AcDbLine
 10
286.399122
 20
754.438217
 30
0.0
 11
286.304577
 21
754.604195
 31
0.0
  0
LINE
  5
1434
100
AcDbEntity
  8
10000_FRONT
370
    25
390
0
  6
CONTINUOUS
 62
     7
100
AcDbLine
 10
286.304577
 20
754.604195
 30
0.0
 11
286.217382
 21
754.774796
 31
0.0
  0
LINE
  5
1435
100
AcDbEntity
  8
10000_FRONT
370
    25
390
0
  6
CONTINUOUS
 62
     7
100
AcDbLine
 10
286.217382
 20
754.774796
 30
0.0
 11
286.137932
 21
754.949432
 31
0.0
  0
LINE
  5
1436
100
AcDbEntity
  8
10000_FRONT
370
    25
390
0
  6
CONTINUOUS
 62
     7
100
AcDbLine
 10
286.137932
 20
754.949432
 30
0.0
 11
286.066588
 21
755.127571
 31
0.0
  0
LINE
  5
1437
100
AcDbEntity
  8
10000_FRONT
370
    25
390
0
  6
CONTINUOUS
 62
     7
100
AcDbLine
 10
286.066588
 20
755.127571
 30
0.0
 11
286.003522
 21
755.308647
 31
0.0
  0
LINE
  5
1438
100
AcDbEntity
  8
10000_FRONT
370
    25
390
0
  6
CONTINUOUS
 62
     7
100
AcDbLine
 10
286.003522
 20
755.308647
 30
0.0
 11
285.948859
 21
755.491974
 31
0.0
  0
LINE
  5
1439
100
AcDbEntity
  8
10000_FRONT
370
    25
390
0
  6
CONTINUOUS
 62
     7
100
AcDbLine
 10
285.948859
 20
755.491974
 30
0.0
 11
285.902725
 21
755.676872
 31
0.0
  0
LINE
  5
143A
100
AcDbEntity
  8
10000_FRONT
370
    25
390
0
  6
CONTINUOUS
 62
     7
100
AcDbLine
 10
285.902725
 20
755.676872
 30
0.0
 11
285.865243
 21
755.862648
 31
0.0
  0
LINE
  5
143B
100
AcDbEntity
  8
10000_FRONT
370
    25
390
0
  6
CONTINUOUS
 62
     7
100
AcDbLine
 10
285.865243
 20
755.862648
 30
0.0
 11
285.836414
 21
756.048599
 31
0.0
  0
LINE
  5
143C
100
AcDbEntity
  8
10000_FRONT
370
    25
390
0
  6
CONTINUOUS
 62
     7
100
AcDbLine
 10
285.836414
 20
756.048599
 30
0.0
 11
285.816058
 21
756.233971
 31
0.0
  0
LINE
  5
143D
100
AcDbEntity
  8
10000_FRONT
370
    25
390
0
  6
CONTINUOUS
 62
     7
100
AcDbLine
 10
285.816058
 20
756.233971
 30
0.0
 11
285.803987
 21
756.418022
 31
0.0
  0
LINE
  5
143E
100
AcDbEntity
  8
10000_FRONT
370
    25
390
0
  6
CONTINUOUS
 62
     7
100
AcDbLine
 10
285.803987
 20
756.418022
 30
0.0
 11
285.800005
 21
756.599998
 31
0.0
  0
LINE
  5
143F
100
AcDbEntity
  8
10000_FRONT
370
    25
390
0
  6
CONTINUOUS
 62
     7
100
AcDbLine
 10
300.400005
 20
851.0
 30
0.0
 11
300.300005
 21
851.0
 31
0.0
  0
LINE
  5
1440
100
AcDbEntity
  8
10000_FRONT
370
    25
390
0
  6
CONTINUOUS
 62
     7
100
AcDbLine
 10
300.400026
 20
862.6
 30
0.0
 11
300.300005
 21
862.6
 31
0.0
  0
LINE
  5
1441
100
AcDbEntity
  8
10000_FRONT
370
    25
390
0
  6
CONTINUOUS
 62
     7
100
AcDbLine
 10
300.300005
 20
865.0
 30
0.0
 11
300.400026
 21
865.0
 31
0.0
  0
LINE
  5
1442
100
AcDbEntity
  8
10000_FRONT
370
    25
390
0
  6
CONTINUOUS
 62
     7
100
AcDbLine
 10
358.000005
 20
864.5
 30
0.0
 11
345.400007
 21
864.5
 31
0.0
  0
LINE
  5
1443
100
AcDbEntity
  8
10000_FRONT
370
    25
390
0
  6
CONTINUOUS
 62
     7
100
AcDbLine
 10
300.300005
 20
864.5
 30
0.0
 11
295.600005
 21
864.5
 31
0.0
  0
LINE
  5
1444
100
AcDbEntity
  8
10000_FRONT
370
    25
390
0
  6
CONTINUOUS
 62
     7
100
AcDbLine
 10
250.600003
 20
851.0
 30
0.0
 11
250.500005
 21
851.0
 31
0.0
  0
LINE
  5
1445
100
AcDbEntity
  8
10000_FRONT
370
    25
390
0
  6
CONTINUOUS
 62
     7
100
AcDbLine
 10
250.500005
 20
851.0
 30
0.0
 11
250.500005
 21
864.5
 31
0.0
  0
LINE
  5
1446
100
AcDbEntity
  8
10000_FRONT
370
    25
390
0
  6
CONTINUOUS
 62
     7
100
AcDbLine
 10
250.500005
 20
864.5
 30
0.0
 11
238.000005
 21
864.5
 31
0.0
  0
LINE
  5
1447
100
AcDbEntity
  8
10000_FRONT
370
    25
390
0
  6
CONTINUOUS
 62
     7
100
AcDbLine
 10
238.000005
 20
864.5
 30
0.0
 11
238.000005
 21
846.000011
 31
0.0
  0
LINE
  5
1448
100
AcDbEntity
  8
10000_FRONT
370
    25
390
0
  6
CONTINUOUS
 62
     7
100
AcDbLine
 10
358.000005
 20
846.000011
 30
0.0
 11
238.000005
 21
846.000011
 31
0.0
  0
LINE
  5
1449
100
AcDbEntity
  8
10000_FRONT
370
    25
390
0
  6
CONTINUOUS
 62
     7
100
AcDbLine
 10
358.000005
 20
846.000011
 30
0.0
 11
358.000005
 21
864.5
 31
0.0
  0
LINE
  5
144A
100
AcDbEntity
  8
10000_FRONT
370
    25
390
0
  6
CONTINUOUS
 62
     7
100
AcDbLine
 10
300.300005
 20
865.0
 30
0.0
 11
295.600005
 21
865.0
 31
0.0
  0
LINE
  5
144B
100
AcDbEntity
  8
10000_FRONT
370
    25
390
0
  6
CONTINUOUS
 62
     7
100
AcDbLine
 10
358.000005
 20
865.0
 30
0.0
 11
345.400007
 21
865.0
 31
0.0
  0
LINE
  5
144C
100
AcDbEntity
  8
10000_FRONT
370
    25
390
0
  6
CONTINUOUS
 62
     7
100
AcDbLine
 10
250.500005
 20
865.0
 30
0.0
 11
238.000005
 21
865.0
 31
0.0
  0
LINE
  5
144D
100
AcDbEntity
  8
10000_FRONT
370
    25
390
0
  6
CONTINUOUS
 62
     7
100
AcDbLine
 10
250.500005
 20
865.0
 30
0.0
 11
250.600026
 21
865.0
 31
0.0
  0
LINE
  5
144E
100
AcDbEntity
  8
10000_FRONT
370
    25
390
0
  6
CONTINUOUS
 62
     7
100
AcDbLine
 10
250.600026
 20
862.6
 30
0.0
 11
250.500005
 21
862.6
 31
0.0
  0
LINE
  5
144F
100
AcDbEntity
  8
10000_FRONT
370
    25
390
0
  6
CONTINUOUS
 62
     7
100
AcDbLine
 10
250.500005
 20
864.5
 30
0.0
 11
250.500005
 21
865.0
 31
0.0
  0
LINE
  5
1450
100
AcDbEntity
  8
10000_FRONT
370
    25
390
0
  6
CONTINUOUS
 62
     7
100
AcDbLine
 10
238.000005
 20
864.5
 30
0.0
 11
238.000005
 21
865.0
 31
0.0
  0
LINE
  5
1451
100
AcDbEntity
  8
10000_FRONT
370
    25
390
0
  6
CONTINUOUS
 62
     7
100
AcDbLine
 10
358.000005
 20
864.5
 30
0.0
 11
358.000005
 21
865.0
 31
0.0
  0
LINE
  5
1452
100
AcDbEntity
  8
10000_FRONT
370
    25
390
0
  6
CONTINUOUS
 62
     7
100
AcDbLine
 10
238.000005
 20
735.999985
 30
0.0
 11
238.000005
 21
846.000011
 31
0.0
  0
LINE
  5
1453
100
AcDbEntity
  8
10000_FRONT
370
    25
390
0
  6
CONTINUOUS
 62
     7
100
AcDbLine
 10
358.000005
 20
735.999985
 30
0.0
 11
238.000005
 21
735.999985
 31
0.0
  0
LINE
  5
1454
100
AcDbEntity
  8
10000_FRONT
370
    25
390
0
  6
CONTINUOUS
 62
     7
100
AcDbLine
 10
358.000005
 20
735.999985
 30
0.0
 11
358.000005
 21
846.000011
 31
0.0
  0
LINE
  5
1455
100
AcDbEntity
  8
10000_FRONT
370
    25
390
0
  6
CONTINUOUS
 62
     7
100
AcDbLine
 10
238.000005
 20
735.999985
 30
0.0
 11
238.000005
 21
717.5
 31
0.0
  0
LINE
  5
1456
100
AcDbEntity
  8
10000_FRONT
370
    25
390
0
  6
CONTINUOUS
 62
     7
100
AcDbLine
 10
358.000005
 20
717.5
 30
0.0
 11
238.000005
 21
717.5
 31
0.0
  0
LINE
  5
1457
100
AcDbEntity
  8
10000_FRONT
370
    25
390
0
  6
CONTINUOUS
 62
     7
100
AcDbLine
 10
358.000005
 20
717.5
 30
0.0
 11
358.000005
 21
735.999985
 31
0.0
  0
LINE
  5
1458
100
AcDbEntity
  8
10000_FRONT
370
    25
390
0
  6
CONTINUOUS
 62
     7
100
AcDbLine
 10
238.000005
 20
717.0
 30
0.0
 11
238.000005
 21
717.5
 31
0.0
  0
LINE
  5
1459
100
AcDbEntity
  8
10000_FRONT
370
    25
390
0
  6
CONTINUOUS
 62
     7
100
AcDbLine
 10
358.000005
 20
717.0
 30
0.0
 11
238.000005
 21
717.0
 31
0.0
  0
LINE
  5
145A
100
AcDbEntity
  8
10000_FRONT
370
    25
390
0
  6
CONTINUOUS
 62
     7
100
AcDbLine
 10
358.000005
 20
717.0
 30
0.0
 11
358.000005
 21
717.5
 31
0.0
  0
LINE
  5
145B
100
AcDbEntity
  8
10000_FRONT
370
    25
390
0
  6
CONTINUOUS
 62
     7
100
AcDbLine
 10
358.000005
 20
881.1
 30
0.0
 11
343.500108
 21
881.1
 31
0.0
  0
LINE
  5
145C
100
AcDbEntity
  8
10000_FRONT
370
    25
390
0
  6
CONTINUOUS
 62
     7
100
AcDbLine
 10
339.498895
 20
881.1
 30
0.0
 11
330.501115
 21
881.1
 31
0.0
  0
LINE
  5
145D
100
AcDbEntity
  8
10000_FRONT
370
    25
390
0
  6
CONTINUOUS
 62
     7
100
AcDbLine
 10
326.500108
 20
881.1
 30
0.0
 11
306.500109
 21
881.1
 31
0.0
  0
LINE
  5
145E
100
AcDbEntity
  8
10000_FRONT
370
    25
390
0
  6
CONTINUOUS
 62
     7
100
AcDbLine
 10
302.498896
 20
881.1
 30
0.0
 11
293.501114
 21
881.1
 31
0.0
  0
LINE
  5
145F
100
AcDbEntity
  8
10000_FRONT
370
    25
390
0
  6
CONTINUOUS
 62
     7
100
AcDbLine
 10
289.500109
 20
881.1
 30
0.0
 11
269.500108
 21
881.1
 31
0.0
  0
LINE
  5
1460
100
AcDbEntity
  8
10000_FRONT
370
    25
390
0
  6
CONTINUOUS
 62
     7
100
AcDbLine
 10
265.498895
 20
881.1
 30
0.0
 11
256.501115
 21
881.1
 31
0.0
  0
LINE
  5
1461
100
AcDbEntity
  8
10000_FRONT
370
    25
390
0
  6
CONTINUOUS
 62
     7
100
AcDbLine
 10
252.500108
 20
881.1
 30
0.0
 11
238.000005
 21
881.1
 31
0.0
  0
LINE
  5
1462
100
AcDbEntity
  8
10000_FRONT
370
    25
390
0
  6
CONTINUOUS
 62
     7
100
AcDbLine
 10
238.000005
 20
881.1
 30
0.0
 11
238.000005
 21
865.000143
 31
0.0
  0
LINE
  5
1463
100
AcDbEntity
  8
10000_FRONT
370
    25
390
0
  6
CONTINUOUS
 62
     7
100
AcDbLine
 10
358.000005
 20
865.000166
 30
0.0
 11
358.000005
 21
881.1
 31
0.0
  0
ARC
  5
1464
100
AcDbEntity
  8
10000_FRONT
370
    25
390
0
  6
CONTINUOUS
 62
     7
100
AcDbCircle
 10
348.000005
 20
874.5
 30
0.0
 40
3.5
100
AcDbArc
 50
180.0
 51
0.0
  0
ARC
  5
1465
100
AcDbEntity
  8
10000_FRONT
370
    25
390
0
  6
CONTINUOUS
 62
     7
100
AcDbCircle
 10
348.000005
 20
874.5
 30
0.0
 40
3.5
100
AcDbArc
 50
0.0
 51
180.0
  0
ARC
  5
1466
100
AcDbEntity
  8
10000_FRONT
370
    25
390
0
  6
CONTINUOUS
 62
     7
100
AcDbCircle
 10
248.000005
 20
874.5
 30
0.0
 40
3.5
100
AcDbArc
 50
180.0
 51
0.0
  0
ARC
  5
1467
100
AcDbEntity
  8
10000_FRONT
370
    25
390
0
  6
CONTINUOUS
 62
     7
100
AcDbCircle
 10
248.000005
 20
874.5
 30
0.0
 40
3.5
100
AcDbArc
 50
0.0
 51
180.0
  0
LINE
  5
1468
100
AcDbEntity
  8
10000_FRONT
370
    25
390
0
  6
CONTINUOUS
 62
     7
100
AcDbLine
 10
344.500005
 20
701.5
 30
0.0
 11
344.500005
 21
707.5
 31
0.0
  0
LINE
  5
1469
100
AcDbEntity
  8
10000_FRONT
370
    25
390
0
  6
CONTINUOUS
 62
     7
100
AcDbLine
 10
351.500005
 20
707.5
 30
0.0
 11
351.500005
 21
701.5
 31
0.0
  0
ARC
  5
146A
100
AcDbEntity
  8
10000_FRONT
370
    25
390
0
  6
CONTINUOUS
 62
     7
100
AcDbCircle
 10
348.000005
 20
707.5
 30
0.0
 40
3.5
100
AcDbArc
 50
0.0
 51
180.0
  0
LINE
  5
146B
100
AcDbEntity
  8
10000_FRONT
370
    25
390
0
  6
CONTINUOUS
 62
     7
100
AcDbLine
 10
344.500005
 20
701.5
 30
0.0
 11
343.500108
 21
701.5
 31
0.0
  0
LINE
  5
146C
100
AcDbEntity
  8
10000_FRONT
370
    25
390
0
  6
CONTINUOUS
 62
     7
100
AcDbLine
 10
244.500005
 20
701.5
 30
0.0
 11
244.500005
 21
707.5
 31
0.0
  0
LINE
  5
146D
100
AcDbEntity
  8
10000_FRONT
370
    25
390
0
  6
CONTINUOUS
 62
     7
100
AcDbLine
 10
251.500005
 20
707.5
 30
0.0
 11
251.500005
 21
701.5
 31
0.0
  0
ARC
  5
146E
100
AcDbEntity
  8
10000_FRONT
370
    25
390
0
  6
CONTINUOUS
 62
     7
100
AcDbCircle
 10
248.000005
 20
707.5
 30
0.0
 40
3.5
100
AcDbArc
 50
0.0
 51
180.0
  0
LINE
  5
146F
100
AcDbEntity
  8
10000_FRONT
370
    25
390
0
  6
CONTINUOUS
 62
     7
100
AcDbLine
 10
244.500005
 20
701.5
 30
0.0
 11
238.000005
 21
701.5
 31
0.0
  0
LINE
  5
1470
100
AcDbEntity
  8
10000_FRONT
370
    25
390
0
  6
CONTINUOUS
 62
     7
100
AcDbLine
 10
252.500108
 20
701.5
 30
0.0
 11
251.500005
 21
701.5
 31
0.0
  0
LINE
  5
1471
100
AcDbEntity
  8
10000_FRONT
370
    25
390
0
  6
CONTINUOUS
 62
     7
100
AcDbLine
 10
238.000005
 20
701.5
 30
0.0
 11
238.000005
 21
717.0
 31
0.0
  0
LINE
  5
1472
100
AcDbEntity
  8
10000_FRONT
370
    25
390
0
  6
CONTINUOUS
 62
     7
100
AcDbLine
 10
358.000005
 20
701.5
 30
0.0
 11
351.500005
 21
701.5
 31
0.0
  0
LINE
  5
1473
100
AcDbEntity
  8
10000_FRONT
370
    25
390
0
  6
CONTINUOUS
 62
     7
100
AcDbLine
 10
358.000005
 20
717.0
 30
0.0
 11
358.000005
 21
701.5
 31
0.0
  0
LINE
  5
1474
100
AcDbEntity
  8
10000_FRONT
370
    25
390
0
  6
CONTINUOUS
 62
     7
100
AcDbLine
 10
358.000005
 20
717.0
 30
0.0
 11
358.000005
 21
717.000031
 31
0.0
  0
LINE
  5
1475
100
AcDbEntity
  8
10000_FRONT
370
    25
390
0
  6
CONTINUOUS
 62
     7
100
AcDbLine
 10
358.000005
 20
881.1
 30
0.0
 11
358.000005
 21
881.5
 31
0.0
  0
LINE
  5
1476
100
AcDbEntity
  8
10000_FRONT
370
    25
390
0
  6
CONTINUOUS
 62
     7
100
AcDbLine
 10
358.000005
 20
717.0
 30
0.0
 11
238.000005
 21
717.0
 31
0.0
  0
LINE
  5
1477
100
AcDbEntity
  8
10000_FRONT
370
    25
390
0
  6
CONTINUOUS
 62
     7
100
AcDbLine
 10
339.472162
 20
701.5
 30
0.0
 11
330.527887
 21
701.5
 31
0.0
  0
LINE
  5
1478
100
AcDbEntity
  8
10000_FRONT
370
    25
390
0
  6
CONTINUOUS
 62
     7
100
AcDbLine
 10
326.500024
 20
701.5
 30
0.0
 11
306.500024
 21
701.5
 31
0.0
  0
LINE
  5
1479
100
AcDbEntity
  8
10000_FRONT
370
    25
390
0
  6
CONTINUOUS
 62
     7
100
AcDbLine
 10
302.472162
 20
701.5
 30
0.0
 11
293.527886
 21
701.5
 31
0.0
  0
LINE
  5
147A
100
AcDbEntity
  8
10000_FRONT
370
    25
390
0
  6
CONTINUOUS
 62
     7
100
AcDbLine
 10
289.500024
 20
701.5
 30
0.0
 11
269.500024
 21
701.5
 31
0.0
  0
LINE
  5
147B
100
AcDbEntity
  8
10000_FRONT
370
    25
390
0
  6
CONTINUOUS
 62
     7
100
AcDbLine
 10
265.472162
 20
701.5
 30
0.0
 11
256.527887
 21
701.5
 31
0.0
  0
LINE
  5
147C
100
AcDbEntity
  8
10000_FRONT
370
    25
390
0
  6
CONTINUOUS
 62
     7
100
AcDbLine
 10
339.409108
 20
701.899994
 30
0.0
 11
330.59094
 21
701.899994
 31
0.0
  0
LINE
  5
147D
100
AcDbEntity
  8
10000_FRONT
370
    25
390
0
  6
CONTINUOUS
 62
     7
100
AcDbLine
 10
326.500024
 20
701.899994
 30
0.0
 11
306.500024
 21
701.899994
 31
0.0
  0
LINE
  5
147E
100
AcDbEntity
  8
10000_FRONT
370
    25
390
0
  6
CONTINUOUS
 62
     7
100
AcDbLine
 10
302.409109
 20
701.899994
 30
0.0
 11
293.590939
 21
701.899994
 31
0.0
  0
LINE
  5
147F
100
AcDbEntity
  8
10000_FRONT
370
    25
390
0
  6
CONTINUOUS
 62
     7
100
AcDbLine
 10
289.500024
 20
701.899994
 30
0.0
 11
269.500024
 21
701.899994
 31
0.0
  0
LINE
  5
1480
100
AcDbEntity
  8
10000_FRONT
370
    25
390
0
  6
CONTINUOUS
 62
     7
100
AcDbLine
 10
265.409108
 20
701.899994
 30
0.0
 11
256.59094
 21
701.899994
 31
0.0
  0
LINE
  5
1481
100
AcDbEntity
  8
10000_FRONT
370
    25
390
0
  6
CONTINUOUS
 62
     7
100
AcDbLine
 10
238.000005
 20
865.0
 30
0.0
 11
238.000005
 21
717.0
 31
0.0
  0
LINE
  5
1482
100
AcDbEntity
  8
10000_FRONT
370
    25
390
0
  6
CONTINUOUS
 62
     7
100
AcDbLine
 10
238.000005
 20
881.1
 30
0.0
 11
238.000005
 21
881.5
 31
0.0
  0
LINE
  5
1483
100
AcDbEntity
  8
10000_FRONT
370
    25
390
0
  6
CONTINUOUS
 62
     7
100
AcDbLine
 10
358.000005
 20
881.5
 30
0.0
 11
343.500108
 21
881.5
 31
0.0
  0
LINE
  5
1484
100
AcDbEntity
  8
10000_FRONT
370
    25
390
0
  6
CONTINUOUS
 62
     7
100
AcDbLine
 10
339.472154
 20
881.5
 30
0.0
 11
330.527856
 21
881.5
 31
0.0
  0
LINE
  5
1485
100
AcDbEntity
  8
10000_FRONT
370
    25
390
0
  6
CONTINUOUS
 62
     7
100
AcDbLine
 10
326.50011
 20
881.5
 30
0.0
 11
306.500109
 21
881.5
 31
0.0
  0
LINE
  5
1486
100
AcDbEntity
  8
10000_FRONT
370
    25
390
0
  6
CONTINUOUS
 62
     7
100
AcDbLine
 10
302.472152
 20
881.5
 30
0.0
 11
293.527858
 21
881.5
 31
0.0
  0
LINE
  5
1487
100
AcDbEntity
  8
10000_FRONT
370
    25
390
0
  6
CONTINUOUS
 62
     7
100
AcDbLine
 10
289.500109
 20
881.5
 30
0.0
 11
269.50011
 21
881.5
 31
0.0
  0
LINE
  5
1488
100
AcDbEntity
  8
10000_FRONT
370
    25
390
0
  6
CONTINUOUS
 62
     7
100
AcDbLine
 10
265.472154
 20
881.5
 30
0.0
 11
256.527856
 21
881.5
 31
0.0
  0
LINE
  5
1489
100
AcDbEntity
  8
10000_FRONT
370
    25
390
0
  6
CONTINUOUS
 62
     7
100
AcDbLine
 10
252.500108
 20
881.5
 30
0.0
 11
238.000005
 21
881.5
 31
0.0
  0
LINE
  5
148A
100
AcDbEntity
  8
10100_FRONT_DIM
370
    13
390
0
  6
CONTINUOUS
 62
     7
100
AcDbLine
 10
255.499995
 20
691.99999
 30
0.0
 11
200.999995
 21
691.99999
 31
0.0
  0
TEXT
  5
148B
100
AcDbEntity
  8
10100_FRONT_DIM
370
    13
390
0
  6
CONTINUOUS
 62
     7
100
AcDbText
 10
200.999995
 20
786.333323
 30
0.0
 40
4.0
  1
198
 50
90.0
 51
360.0
 72
     1
 11
200.999995
 21
790.99999
 31
0.0
100
AcDbText
  0
LINE
  5
148C
100
AcDbEntity
  8
10100_FRONT_DIM
370
    13
390
0
  6
CONTINUOUS
 62
     7
100
AcDbLine
 10
202.999995
 20
691.99999
 30
0.0
 11
202.999995
 21
889.99999
 31
0.0
  0
LINE
  5
148D
100
AcDbEntity
  8
10100_FRONT_DIM
370
    13
390
0
  6
CONTINUOUS
 62
     7
100
AcDbLine
 10
200.999995
 20
889.99999
 30
0.0
 11
255.499995
 21
889.99999
 31
0.0
  0
LINE
  5
148E
100
AcDbEntity
  8
10100_FRONT_DIM
370
    13
390
0
  6
CONTINUOUS
 62
     7
100
AcDbLine
 10
237.999995
 20
701.5
 30
0.0
 11
216.999995
 21
701.5
 31
0.0
  0
TEXT
  5
148F
100
AcDbEntity
  8
10100_FRONT_DIM
370
    13
390
0
  6
CONTINUOUS
 62
     7
100
AcDbText
 10
216.999995
 20
787.166667
 30
0.0
 40
4.0
  1
180
 50
90.0
 51
360.0
 72
     1
 11
216.999995
 21
791.5
 31
0.0
100
AcDbText
  0
LINE
  5
1490
100
AcDbEntity
  8
10100_FRONT_DIM
370
    13
390
0
  6
CONTINUOUS
 62
     7
100
AcDbLine
 10
218.999995
 20
701.5
 30
0.0
 11
218.999995
 21
881.5
 31
0.0
  0
LINE
  5
1491
100
AcDbEntity
  8
10100_FRONT_DIM
370
    13
390
0
  6
CONTINUOUS
 62
     7
100
AcDbLine
 10
216.999995
 20
881.5
 30
0.0
 11
237.999995
 21
881.5
 31
0.0
  0
LINE
  5
1492
100
AcDbEntity
  8
10100_FRONT_DIM
370
    13
390
0
  6
CONTINUOUS
 62
     7
100
AcDbLine
 10
237.999995
 20
881.50001
 30
0.0
 11
237.999995
 21
911.00001
 31
0.0
  0
TEXT
  5
1493
100
AcDbEntity
  8
10100_FRONT_DIM
370
    13
390
0
  6
CONTINUOUS
 62
     7
100
AcDbText
 10
293.666662
 20
911.00001
 30
0.0
 40
4.0
  1
120
 72
     1
 11
297.999995
 21
911.00001
 31
0.0
100
AcDbText
  0
LINE
  5
1494
100
AcDbEntity
  8
10100_FRONT_DIM
370
    13
390
0
  6
CONTINUOUS
 62
     7
100
AcDbLine
 10
237.999995
 20
909.00001
 30
0.0
 11
357.999995
 21
909.00001
 31
0.0
  0
LINE
  5
1495
100
AcDbEntity
  8
10100_FRONT_DIM
370
    13
390
0
  6
CONTINUOUS
 62
     7
100
AcDbLine
 10
357.999995
 20
911.00001
 30
0.0
 11
357.999995
 21
881.50001
 31
0.0
  0
SOLID
  5
1496
100
AcDbEntity
  8
10100_FRONT_DIM
370
    13
390
0
  6
CONTINUOUS
 62
     7
100
AcDbTrace
 10
200.999995
 20
701.99999
 30
0.0
 11
202.999995
 21
691.99999
 31
0.0
 12
204.999995
 22
701.99999
 32
0.0
 13
202.999995
 23
691.99999
 33
0.0
  0
SOLID
  5
1497
100
AcDbEntity
  8
10100_FRONT_DIM
370
    13
390
0
  6
CONTINUOUS
 62
     7
100
AcDbTrace
 10
204.999995
 20
879.99999
 30
0.0
 11
202.999995
 21
889.99999
 31
0.0
 12
200.999995
 22
879.99999
 32
0.0
 13
202.999995
 23
889.99999
 33
0.0
  0
SOLID
  5
1498
100
AcDbEntity
  8
10100_FRONT_DIM
370
    13
390
0
  6
CONTINUOUS
 62
     7
100
AcDbTrace
 10
216.999995
 20
711.5
 30
0.0
 11
218.999995
 21
701.5
 31
0.0
 12
220.999995
 22
711.5
 32
0.0
 13
218.999995
 23
701.5
 33
0.0
  0
SOLID
  5
1499
100
AcDbEntity
  8
10100_FRONT_DIM
370
    13
390
0
  6
CONTINUOUS
 62
     7
100
AcDbTrace
 10
220.999995
 20
871.5
 30
0.0
 11
218.999995
 21
881.5
 31
0.0
 12
216.999995
 22
871.5
 32
0.0
 13
218.999995
 23
881.5
 33
0.0
  0
SOLID
  5
149A
100
AcDbEntity
  8
10100_FRONT_DIM
370
    13
390
0
  6
CONTINUOUS
 62
     7
100
AcDbTrace
 10
247.999995
 20
911.00001
 30
0.0
 11
237.999995
 21
909.00001
 31
0.0
 12
247.999995
 22
907.00001
 32
0.0
 13
237.999995
 23
909.00001
 33
0.0
  0
SOLID
  5
149B
100
AcDbEntity
  8
10100_FRONT_DIM
370
    13
390
0
  6
CONTINUOUS
 62
     7
100
AcDbTrace
 10
347.999995
 20
907.00001
 30
0.0
 11
357.999995
 21
909.00001
 31
0.0
 12
347.999995
 22
911.00001
 32
0.0
 13
357.999995
 23
909.00001
 33
0.0
  0
LINE
  5
149C
100
AcDbEntity
  8
11000_LEFT
370
    25
390
0
  6
CONTINUOUS
 62
     7
100
AcDbLine
 10
609.000005
 20
695.0
 30
0.0
 11
609.000036
 21
695.0
 31
0.0
  0
LINE
  5
149D
100
AcDbEntity
  8
11000_LEFT
370
    25
390
0
  6
CONTINUOUS
 62
     7
100
AcDbLine
 10
609.000005
 20
695.0
 30
0.0
 11
609.000036
 21
695.0
 31
0.0
  0
LINE
  5
149E
100
AcDbEntity
  8
11000_LEFT
370
    25
390
0
  6
CONTINUOUS
 62
     7
100
AcDbLine
 10
612.000005
 20
695.0
 30
0.0
 11
612.000005
 21
717.0
 31
0.0
  0
LINE
  5
149F
100
AcDbEntity
  8
11000_LEFT
370
    25
390
0
  6
CONTINUOUS
 62
     7
100
AcDbLine
 10
612.000005
 20
692.0
 30
0.0
 11
612.000005
 21
695.0
 31
0.0
  0
LINE
  5
14A0
100
AcDbEntity
  8
11000_LEFT
370
    25
390
0
  6
CONTINUOUS
 62
     7
100
AcDbLine
 10
609.000005
 20
717.0
 30
0.0
 11
612.000005
 21
717.0
 31
0.0
  0
LINE
  5
14A1
100
AcDbEntity
  8
11000_LEFT
370
    25
390
0
  6
CONTINUOUS
 62
     7
100
AcDbLine
 10
609.000005
 20
692.0
 30
0.0
 11
612.000005
 21
692.0
 31
0.0
  0
LINE
  5
14A2
100
AcDbEntity
  8
11000_LEFT
370
    25
390
0
  6
CONTINUOUS
 62
     7
100
AcDbLine
 10
609.000005
 20
695.0
 30
0.0
 11
612.000005
 21
695.0
 31
0.0
  0
LINE
  5
14A3
100
AcDbEntity
  8
11000_LEFT
370
    25
390
0
  6
CONTINUOUS
 62
     7
100
AcDbLine
 10
609.000005
 20
695.0
 30
0.0
 11
609.000005
 21
692.0
 31
0.0
  0
LINE
  5
14A4
100
AcDbEntity
  8
11000_LEFT
370
    25
390
0
  6
CONTINUOUS
 62
     7
100
AcDbLine
 10
609.000005
 20
717.0
 30
0.0
 11
609.000005
 21
695.0
 31
0.0
  0
LINE
  5
14A5
100
AcDbEntity
  8
11000_LEFT
370
    25
390
0
  6
CONTINUOUS
 62
     7
100
AcDbLine
 10
609.000005
 20
887.0
 30
0.0
 11
609.000036
 21
887.0
 31
0.0
  0
LINE
  5
14A6
100
AcDbEntity
  8
11000_LEFT
370
    25
390
0
  6
CONTINUOUS
 62
     7
100
AcDbLine
 10
609.000005
 20
887.0
 30
0.0
 11
609.000036
 21
887.0
 31
0.0
  0
LINE
  5
14A7
100
AcDbEntity
  8
11000_LEFT
370
    25
390
0
  6
CONTINUOUS
 62
     7
100
AcDbLine
 10
612.000005
 20
865.0
 30
0.0
 11
612.000005
 21
887.0
 31
0.0
  0
LINE
  5
14A8
100
AcDbEntity
  8
11000_LEFT
370
    25
390
0
  6
CONTINUOUS
 62
     7
100
AcDbLine
 10
612.000005
 20
887.0
 30
0.0
 11
612.000005
 21
890.0
 31
0.0
  0
LINE
  5
14A9
100
AcDbEntity
  8
11000_LEFT
370
    25
390
0
  6
CONTINUOUS
 62
     7
100
AcDbLine
 10
609.000005
 20
887.0
 30
0.0
 11
612.000005
 21
887.0
 31
0.0
  0
LINE
  5
14AA
100
AcDbEntity
  8
11000_LEFT
370
    25
390
0
  6
CONTINUOUS
 62
     7
100
AcDbLine
 10
609.000005
 20
887.0
 30
0.0
 11
609.000005
 21
865.0
 31
0.0
  0
LINE
  5
14AB
100
AcDbEntity
  8
11000_LEFT
370
    25
390
0
  6
CONTINUOUS
 62
     7
100
AcDbLine
 10
609.000005
 20
890.0
 30
0.0
 11
612.000005
 21
890.0
 31
0.0
  0
LINE
  5
14AC
100
AcDbEntity
  8
11000_LEFT
370
    25
390
0
  6
CONTINUOUS
 62
     7
100
AcDbLine
 10
609.000005
 20
890.0
 30
0.0
 11
609.000005
 21
887.0
 31
0.0
  0
LINE
  5
14AD
100
AcDbEntity
  8
11000_LEFT
370
    25
390
0
  6
CONTINUOUS
 62
     7
100
AcDbLine
 10
702.202993
 20
865.0
 30
0.0
 11
702.710012
 21
865.0
 31
0.0
  0
LINE
  5
14AE
100
AcDbEntity
  8
11000_LEFT
370
    25
390
0
  6
CONTINUOUS
 62
     7
100
AcDbLine
 10
702.710012
 20
849.200001
 30
0.0
 11
702.700017
 21
849.200001
 31
0.0
  0
LINE
  5
14AF
100
AcDbEntity
  8
11000_LEFT
370
    25
390
0
  6
CONTINUOUS
 62
     7
100
AcDbLine
 10
702.710012
 20
865.0
 30
0.0
 11
702.710012
 21
849.200001
 31
0.0
  0
ARC
  5
14B0
100
AcDbEntity
  8
11000_LEFT
370
    25
390
0
  6
CONTINUOUS
 62
     7
100
AcDbCircle
 10
708.500005
 20
791.2
 30
0.0
 40
0.5
100
AcDbArc
 50
314.999135
 51
359.99965
  0
ARC
  5
14B1
100
AcDbEntity
  8
11000_LEFT
370
    25
390
0
  6
CONTINUOUS
 62
     7
100
AcDbCircle
 10
708.500005
 20
791.2
 30
0.0
 40
0.5
100
AcDbArc
 50
270.0
 51
314.999135
  0
LINE
  5
14B2
100
AcDbEntity
  8
11000_LEFT
370
    25
390
0
  6
CONTINUOUS
 62
     7
100
AcDbLine
 10
708.500005
 20
791.199997
 30
0.0
 11
708.853551
 21
790.846443
 31
0.0
  0
LINE
  5
14B3
100
AcDbEntity
  8
11000_LEFT
370
    25
390
0
  6
CONTINUOUS
 62
     7
100
AcDbLine
 10
709.000005
 20
791.199997
 30
0.0
 11
709.000005
 21
797.199997
 31
0.0
  0
ARC
  5
14B4
100
AcDbEntity
  8
11000_LEFT
370
    25
390
0
  6
CONTINUOUS
 62
     7
100
AcDbCircle
 10
708.500005
 20
797.2
 30
0.0
 40
0.5
100
AcDbArc
 50
359.99965
 51
45.000371
  0
LINE
  5
14B5
100
AcDbEntity
  8
11000_LEFT
370
    25
390
0
  6
CONTINUOUS
 62
     7
100
AcDbLine
 10
708.500005
 20
797.199997
 30
0.0
 11
708.853551
 21
797.553551
 31
0.0
  0
LINE
  5
14B6
100
AcDbEntity
  8
11000_LEFT
370
    25
390
0
  6
CONTINUOUS
 62
     7
100
AcDbLine
 10
708.500005
 20
791.199997
 30
0.0
 11
708.500005
 21
797.199997
 31
0.0
  0
ARC
  5
14B7
100
AcDbEntity
  8
11000_LEFT
370
    25
390
0
  6
CONTINUOUS
 62
     7
100
AcDbCircle
 10
708.500005
 20
797.2
 30
0.0
 40
0.5
100
AcDbArc
 50
45.000371
 51
90.0
  0
LINE
  5
14B8
100
AcDbEntity
  8
11000_LEFT
370
    25
390
0
  6
CONTINUOUS
 62
     7
100
AcDbLine
 10
705.067647
 20
790.699997
 30
0.0
 11
708.500005
 21
790.699997
 31
0.0
  0
LINE
  5
14B9
100
AcDbEntity
  8
11000_LEFT
370
    25
390
0
  6
CONTINUOUS
 62
     7
100
AcDbLine
 10
705.067678
 20
791.199997
 30
0.0
 11
708.500005
 21
791.199997
 31
0.0
  0
LINE
  5
14BA
100
AcDbEntity
  8
11000_LEFT
370
    25
390
0
  6
CONTINUOUS
 62
     7
100
AcDbLine
 10
705.037679
 20
797.199997
 30
0.0
 11
708.500005
 21
797.199997
 31
0.0
  0
LINE
  5
14BB
100
AcDbEntity
  8
11000_LEFT
370
    25
390
0
  6
CONTINUOUS
 62
     7
100
AcDbLine
 10
705.032644
 20
797.699997
 30
0.0
 11
708.500005
 21
797.699997
 31
0.0
  0
LINE
  5
14BC
100
AcDbEntity
  8
11000_LEFT
370
    25
390
0
  6
CONTINUOUS
 62
     7
100
AcDbLine
 10
702.700002
 20
864.5
 30
0.0
 11
702.700017
 21
846.000011
 31
0.0
  0
LINE
  5
14BD
100
AcDbEntity
  8
11000_LEFT
370
    25
390
0
  6
CONTINUOUS
 62
     7
100
AcDbLine
 10
669.200002
 20
865.0
 30
0.0
 11
702.200002
 21
865.0
 31
0.0
  0
ARC
  5
14BE
100
AcDbEntity
  8
11000_LEFT
370
    25
390
0
  6
CONTINUOUS
 62
     7
100
AcDbCircle
 10
702.200005
 20
864.5
 30
0.0
 40
0.5
100
AcDbArc
 50
0.0
 51
90.00035
  0
ARC
  5
14BF
100
AcDbEntity
  8
11000_LEFT
370
    25
390
0
  6
CONTINUOUS
 62
     7
100
AcDbCircle
 10
65.067675
 20
791.0
 30
0.0
 40
640.0
100
AcDbArc
 50
355.070062
 51
4.929938
  0
LINE
  5
14C0
100
AcDbEntity
  8
11000_LEFT
370
    25
390
0
  6
CONTINUOUS
 62
     7
100
AcDbLine
 10
702.700017
 20
735.999985
 30
0.0
 11
702.700002
 21
717.5
 31
0.0
  0
ARC
  5
14C1
100
AcDbEntity
  8
11000_LEFT
370
    25
390
0
  6
CONTINUOUS
 62
     7
100
AcDbCircle
 10
702.200005
 20
717.5
 30
0.0
 40
0.5
100
AcDbArc
 50
269.99965
 51
0.0
  0
LINE
  5
14C2
100
AcDbEntity
  8
11000_LEFT
370
    25
390
0
  6
CONTINUOUS
 62
     7
100
AcDbLine
 10
702.200002
 20
717.0
 30
0.0
 11
669.200002
 21
717.0
 31
0.0
  0
LINE
  5
14C3
100
AcDbEntity
  8
11000_LEFT
370
    25
390
0
  6
CONTINUOUS
 62
     7
100
AcDbLine
 10
669.200002
 20
717.0
 30
0.0
 11
669.200002
 21
865.0
 31
0.0
  0
LINE
  5
14C4
100
AcDbEntity
  8
11000_LEFT
370
    25
390
0
  6
CONTINUOUS
 62
     7
100
AcDbLine
 10
466.500005
 20
881.1
 30
0.0
 11
466.500005
 21
864.700001
 31
0.0
  0
LINE
  5
14C5
100
AcDbEntity
  8
11000_LEFT
370
    25
390
0
  6
CONTINUOUS
 62
     7
100
AcDbLine
 10
459.000005
 20
707.5
 30
0.0
 11
459.000076
 21
707.5
 31
0.0
  0
LINE
  5
14C6
100
AcDbEntity
  8
11000_LEFT
370
    25
390
0
  6
CONTINUOUS
 62
     7
100
AcDbLine
 10
459.000005
 20
701.5
 30
0.0
 11
459.000005
 21
881.5
 31
0.0
  0
LINE
  5
14C7
100
AcDbEntity
  8
11000_LEFT
370
    25
390
0
  6
CONTINUOUS
 62
     7
100
AcDbLine
 10
459.000005
 20
701.5
 30
0.0
 11
466.000005
 21
701.5
 31
0.0
  0
LINE
  5
14C8
100
AcDbEntity
  8
11000_LEFT
370
    25
390
0
  6
CONTINUOUS
 62
     7
100
AcDbLine
 10
466.000005
 20
701.5
 30
0.0
 11
466.000005
 21
717.0
 31
0.0
  0
LINE
  5
14C9
100
AcDbEntity
  8
11000_LEFT
370
    25
390
0
  6
CONTINUOUS
 62
     7
100
AcDbLine
 10
466.000005
 20
716.600006
 30
0.0
 11
585.500005
 21
716.600006
 31
0.0
  0
LINE
  5
14CA
100
AcDbEntity
  8
11000_LEFT
370
    25
390
0
  6
CONTINUOUS
 62
     7
100
AcDbLine
 10
466.000005
 20
701.800003
 30
0.0
 11
585.487302
 21
701.800003
 31
0.0
  0
ARC
  5
14CB
100
AcDbEntity
  8
11000_LEFT
370
    25
390
0
  6
CONTINUOUS
 62
     7
100
AcDbCircle
 10
585.100005
 20
701.9
 30
0.0
 40
0.4
100
AcDbArc
 50
345.522865
 51
359.999126
  0
LINE
  5
14CC
100
AcDbEntity
  8
11000_LEFT
370
    25
390
0
  6
CONTINUOUS
 62
     7
100
AcDbLine
 10
585.500005
 20
716.600006
 30
0.0
 11
585.500005
 21
701.899994
 31
0.0
  0
LINE
  5
14CD
100
AcDbEntity
  8
11000_LEFT
370
    25
390
0
  6
CONTINUOUS
 62
     7
100
AcDbLine
 10
585.100003
 20
701.5
 30
0.0
 11
466.000017
 21
701.5
 31
0.0
  0
LINE
  5
14CE
100
AcDbEntity
  8
11000_LEFT
370
    25
390
0
  6
CONTINUOUS
 62
     7
100
AcDbLine
 10
585.487302
 20
701.800003
 30
0.0
 11
585.481595
 21
701.780289
 31
0.0
  0
LINE
  5
14CF
100
AcDbEntity
  8
11000_LEFT
370
    25
390
0
  6
CONTINUOUS
 62
     7
100
AcDbLine
 10
585.481595
 20
701.780289
 30
0.0
 11
585.474996
 21
701.761017
 31
0.0
  0
LINE
  5
14D0
100
AcDbEntity
  8
11000_LEFT
370
    25
390
0
  6
CONTINUOUS
 62
     7
100
AcDbLine
 10
585.474996
 20
701.761017
 30
0.0
 11
585.467565
 21
701.74234
 31
0.0
  0
LINE
  5
14D1
100
AcDbEntity
  8
11000_LEFT
370
    25
390
0
  6
CONTINUOUS
 62
     7
100
AcDbLine
 10
585.467565
 20
701.74234
 30
0.0
 11
585.459386
 21
701.724411
 31
0.0
  0
LINE
  5
14D2
100
AcDbEntity
  8
11000_LEFT
370
    25
390
0
  6
CONTINUOUS
 62
     7
100
AcDbLine
 10
585.459386
 20
701.724411
 30
0.0
 11
585.450551
 21
701.707336
 31
0.0
  0
LINE
  5
14D3
100
AcDbEntity
  8
11000_LEFT
370
    25
390
0
  6
CONTINUOUS
 62
     7
100
AcDbLine
 10
585.450551
 20
701.707336
 30
0.0
 11
585.440725
 21
701.690491
 31
0.0
  0
LINE
  5
14D4
100
AcDbEntity
  8
11000_LEFT
370
    25
390
0
  6
CONTINUOUS
 62
     7
100
AcDbLine
 10
585.440725
 20
701.690491
 30
0.0
 11
585.429853
 21
701.673782
 31
0.0
  0
LINE
  5
14D5
100
AcDbEntity
  8
11000_LEFT
370
    25
390
0
  6
CONTINUOUS
 62
     7
100
AcDbLine
 10
585.429853
 20
701.673782
 30
0.0
 11
585.418058
 21
701.65744
 31
0.0
  0
LINE
  5
14D6
100
AcDbEntity
  8
11000_LEFT
370
    25
390
0
  6
CONTINUOUS
 62
     7
100
AcDbLine
 10
585.418058
 20
701.65744
 30
0.0
 11
585.405431
 21
701.641708
 31
0.0
  0
LINE
  5
14D7
100
AcDbEntity
  8
11000_LEFT
370
    25
390
0
  6
CONTINUOUS
 62
     7
100
AcDbLine
 10
585.405431
 20
701.641708
 30
0.0
 11
585.392148
 21
701.626801
 31
0.0
  0
LINE
  5
14D8
100
AcDbEntity
  8
11000_LEFT
370
    25
390
0
  6
CONTINUOUS
 62
     7
100
AcDbLine
 10
585.392148
 20
701.626801
 30
0.0
 11
585.378423
 21
701.612839
 31
0.0
  0
LINE
  5
14D9
100
AcDbEntity
  8
11000_LEFT
370
    25
390
0
  6
CONTINUOUS
 62
     7
100
AcDbLine
 10
585.378423
 20
701.612839
 30
0.0
 11
585.364476
 21
701.599915
 31
0.0
  0
LINE
  5
14DA
100
AcDbEntity
  8
11000_LEFT
370
    25
390
0
  6
CONTINUOUS
 62
     7
100
AcDbLine
 10
585.364476
 20
701.599915
 30
0.0
 11
585.350476
 21
701.588135
 31
0.0
  0
LINE
  5
14DB
100
AcDbEntity
  8
11000_LEFT
370
    25
390
0
  6
CONTINUOUS
 62
     7
100
AcDbLine
 10
585.350476
 20
701.588135
 30
0.0
 11
585.335874
 21
701.576965
 31
0.0
  0
LINE
  5
14DC
100
AcDbEntity
  8
11000_LEFT
370
    25
390
0
  6
CONTINUOUS
 62
     7
100
AcDbLine
 10
585.335874
 20
701.576965
 30
0.0
 11
585.320539
 21
701.566345
 31
0.0
  0
LINE
  5
14DD
100
AcDbEntity
  8
11000_LEFT
370
    25
390
0
  6
CONTINUOUS
 62
     7
100
AcDbLine
 10
585.320539
 20
701.566345
 30
0.0
 11
585.304532
 21
701.556305
 31
0.0
  0
LINE
  5
14DE
100
AcDbEntity
  8
11000_LEFT
370
    25
390
0
  6
CONTINUOUS
 62
     7
100
AcDbLine
 10
585.304532
 20
701.556305
 30
0.0
 11
585.287893
 21
701.546936
 31
0.0
  0
LINE
  5
14DF
100
AcDbEntity
  8
11000_LEFT
370
    25
390
0
  6
CONTINUOUS
 62
     7
100
AcDbLine
 10
585.287893
 20
701.546936
 30
0.0
 11
585.270688
 21
701.538284
 31
0.0
  0
LINE
  5
14E0
100
AcDbEntity
  8
11000_LEFT
370
    25
390
0
  6
CONTINUOUS
 62
     7
100
AcDbLine
 10
585.270688
 20
701.538284
 30
0.0
 11
585.252973
 21
701.530411
 31
0.0
  0
LINE
  5
14E1
100
AcDbEntity
  8
11000_LEFT
370
    25
390
0
  6
CONTINUOUS
 62
     7
100
AcDbLine
 10
585.252973
 20
701.530411
 30
0.0
 11
585.234784
 21
701.523392
 31
0.0
  0
LINE
  5
14E2
100
AcDbEntity
  8
11000_LEFT
370
    25
390
0
  6
CONTINUOUS
 62
     7
100
AcDbLine
 10
585.234784
 20
701.523392
 30
0.0
 11
585.216176
 21
701.517258
 31
0.0
  0
LINE
  5
14E3
100
AcDbEntity
  8
11000_LEFT
370
    25
390
0
  6
CONTINUOUS
 62
     7
100
AcDbLine
 10
585.216176
 20
701.517258
 30
0.0
 11
585.197217
 21
701.512039
 31
0.0
  0
LINE
  5
14E4
100
AcDbEntity
  8
11000_LEFT
370
    25
390
0
  6
CONTINUOUS
 62
     7
100
AcDbLine
 10
585.197217
 20
701.512039
 30
0.0
 11
585.177984
 21
701.507736
 31
0.0
  0
LINE
  5
14E5
100
AcDbEntity
  8
11000_LEFT
370
    25
390
0
  6
CONTINUOUS
 62
     7
100
AcDbLine
 10
585.177984
 20
701.507736
 30
0.0
 11
585.158559
 21
701.504379
 31
0.0
  0
LINE
  5
14E6
100
AcDbEntity
  8
11000_LEFT
370
    25
390
0
  6
CONTINUOUS
 62
     7
100
AcDbLine
 10
585.158559
 20
701.504379
 30
0.0
 11
585.139035
 21
701.501953
 31
0.0
  0
LINE
  5
14E7
100
AcDbEntity
  8
11000_LEFT
370
    25
390
0
  6
CONTINUOUS
 62
     7
100
AcDbLine
 10
585.139035
 20
701.501953
 30
0.0
 11
585.119489
 21
701.500488
 31
0.0
  0
LINE
  5
14E8
100
AcDbEntity
  8
11000_LEFT
370
    25
390
0
  6
CONTINUOUS
 62
     7
100
AcDbLine
 10
585.119489
 20
701.500488
 30
0.0
 11
585.100003
 21
701.5
 31
0.0
  0
LINE
  5
14E9
100
AcDbEntity
  8
11000_LEFT
370
    25
390
0
  6
CONTINUOUS
 62
     7
100
AcDbLine
 10
466.000005
 20
717.0
 30
0.0
 11
669.200002
 21
717.0
 31
0.0
  0
LINE
  5
14EA
100
AcDbEntity
  8
11000_LEFT
370
    25
390
0
  6
CONTINUOUS
 62
     7
100
AcDbLine
 10
585.500005
 20
716.600006
 30
0.0
 11
585.500005
 21
717.0
 31
0.0
  0
LINE
  5
14EB
100
AcDbEntity
  8
11000_LEFT
370
    25
390
0
  6
CONTINUOUS
 62
     7
100
AcDbLine
 10
669.200002
 20
865.0
 30
0.0
 11
669.200002
 21
717.0
 31
0.0
  0
LINE
  5
14EC
100
AcDbEntity
  8
11000_LEFT
370
    25
390
0
  6
CONTINUOUS
 62
     7
100
AcDbLine
 10
586.600003
 20
865.0
 30
0.0
 11
669.200002
 21
865.0
 31
0.0
  0
LINE
  5
14ED
100
AcDbEntity
  8
11000_LEFT
370
    25
390
0
  6
CONTINUOUS
 62
     7
100
AcDbLine
 10
586.600003
 20
864.700001
 30
0.0
 11
586.600003
 21
865.0
 31
0.0
  0
LINE
  5
14EE
100
AcDbEntity
  8
11000_LEFT
370
    25
390
0
  6
CONTINUOUS
 62
     7
100
AcDbLine
 10
466.500005
 20
864.700001
 30
0.0
 11
586.600003
 21
864.700001
 31
0.0
  0
ARC
  5
14EF
100
AcDbEntity
  8
11000_LEFT
370
    25
390
0
  6
CONTINUOUS
 62
     7
100
AcDbCircle
 10
466.100005
 20
881.1
 30
0.0
 40
0.4
100
AcDbArc
 50
0.0
 51
90.000014
  0
LINE
  5
14F0
100
AcDbEntity
  8
11000_LEFT
370
    25
390
0
  6
CONTINUOUS
 62
     7
100
AcDbLine
 10
459.000005
 20
881.5
 30
0.0
 11
466.100005
 21
881.5
 31
0.0
  0
LINE
  5
14F1
100
AcDbEntity
  8
11100_LEFT_DIM
370
    13
390
0
  6
CONTINUOUS
 62
     7
100
AcDbLine
 10
459.000005
 20
700.99999
 30
0.0
 11
459.000005
 21
670.99999
 31
0.0
  0
TEXT
  5
14F2
100
AcDbEntity
  8
11100_LEFT_DIM
370
    13
390
0
  6
CONTINUOUS
 62
     7
100
AcDbText
 10
461.166672
 20
674.99999
 30
0.0
 40
4.0
  1
7
 72
     1
 11
462.500005
 21
674.99999
 31
0.0
100
AcDbText
  0
LINE
  5
14F3
100
AcDbEntity
  8
11100_LEFT_DIM
370
    13
390
0
  6
CONTINUOUS
 62
     7
100
AcDbLine
 10
486.000005
 20
672.99999
 30
0.0
 11
439.000005
 21
672.99999
 31
0.0
  0
LINE
  5
14F4
100
AcDbEntity
  8
11100_LEFT_DIM
370
    13
390
0
  6
CONTINUOUS
 62
     7
100
AcDbLine
 10
466.000005
 20
670.99999
 30
0.0
 11
466.000005
 21
700.99999
 31
0.0
  0
LINE
  5
14F5
100
AcDbEntity
  8
11100_LEFT_DIM
370
    13
390
0
  6
CONTINUOUS
 62
     7
100
AcDbLine
 10
459.000005
 20
700.99999
 30
0.0
 11
459.000005
 21
654.99999
 31
0.0
  0
TEXT
  5
14F6
100
AcDbEntity
  8
11100_LEFT_DIM
370
    13
390
0
  6
CONTINUOUS
 62
     7
100
AcDbText
 10
530.833338
 20
658.99999
 30
0.0
 40
4.0
  1
153
 72
     1
 11
535.500005
 21
658.99999
 31
0.0
100
AcDbText
  0
LINE
  5
14F7
100
AcDbEntity
  8
11100_LEFT_DIM
370
    13
390
0
  6
CONTINUOUS
 62
     7
100
AcDbLine
 10
459.000005
 20
656.99999
 30
0.0
 11
612.000005
 21
656.99999
 31
0.0
  0
LINE
  5
14F8
100
AcDbEntity
  8
11100_LEFT_DIM
370
    13
390
0
  6
CONTINUOUS
 62
     7
100
AcDbLine
 10
612.000005
 20
654.99999
 30
0.0
 11
612.000005
 21
691.99999
 31
0.0
  0
LINE
  5
14F9
100
AcDbEntity
  8
11100_LEFT_DIM
370
    13
390
0
  6
CONTINUOUS
 62
     7
100
AcDbLine
 10
459.000005
 20
691.99999
 30
0.0
 11
459.000005
 21
638.99999
 31
0.0
  0
TEXT
  5
14FA
100
AcDbEntity
  8
11100_LEFT_DIM
370
    13
390
0
  6
CONTINUOUS
 62
     7
100
AcDbText
 10
579.000005
 20
642.99999
 30
0.0
 40
4.0
  1
250
 72
     1
 11
584.000005
 21
642.99999
 31
0.0
100
AcDbText
  0
LINE
  5
14FB
100
AcDbEntity
  8
11100_LEFT_DIM
370
    13
390
0
  6
CONTINUOUS
 62
     7
100
AcDbLine
 10
459.000005
 20
640.99999
 30
0.0
 11
709.000005
 21
640.99999
 31
0.0
  0
LINE
  5
14FC
100
AcDbEntity
  8
11100_LEFT_DIM
370
    13
390
0
  6
CONTINUOUS
 62
     7
100
AcDbLine
 10
709.000005
 20
638.99999
 30
0.0
 11
709.000005
 21
790.99999
 31
0.0
  0
SOLID
  5
14FD
100
AcDbEntity
  8
11100_LEFT_DIM
370
    13
390
0
  6
CONTINUOUS
 62
     7
100
AcDbTrace
 10
449.000005
 20
670.99999
 30
0.0
 11
459.000005
 21
672.99999
 31
0.0
 12
449.000005
 22
674.99999
 32
0.0
 13
459.000005
 23
672.99999
 33
0.0
  0
SOLID
  5
14FE
100
AcDbEntity
  8
11100_LEFT_DIM
370
    13
390
0
  6
CONTINUOUS
 62
     7
100
AcDbTrace
 10
476.000005
 20
674.99999
 30
0.0
 11
466.000005
 21
672.99999
 31
0.0
 12
476.000005
 22
670.99999
 32
0.0
 13
466.000005
 23
672.99999
 33
0.0
  0
SOLID
  5
14FF
100
AcDbEntity
  8
11100_LEFT_DIM
370
    13
390
0
  6
CONTINUOUS
 62
     7
100
AcDbTrace
 10
469.000005
 20
658.99999
 30
0.0
 11
459.000005
 21
656.99999
 31
0.0
 12
469.000005
 22
654.99999
 32
0.0
 13
459.000005
 23
656.99999
 33
0.0
  0
SOLID
  5
1500
100
AcDbEntity
  8
11100_LEFT_DIM
370
    13
390
0
  6
CONTINUOUS
 62
     7
100
AcDbTrace
 10
602.000005
 20
654.99999
 30
0.0
 11
612.000005
 21
656.99999
 31
0.0
 12
602.000005
 22
658.99999
 32
0.0
 13
612.000005
 23
656.99999
 33
0.0
  0
SOLID
  5
1501
100
AcDbEntity
  8
11100_LEFT_DIM
370
    13
390
0
  6
CONTINUOUS
 62
     7
100
AcDbTrace
 10
469.000005
 20
642.99999
 30
0.0
 11
459.000005
 21
640.99999
 31
0.0
 12
469.000005
 22
638.99999
 32
0.0
 13
459.000005
 23
640.99999
 33
0.0
  0
SOLID
  5
1502
100
AcDbEntity
  8
11100_LEFT_DIM
370
    13
390
0
  6
CONTINUOUS
 62
     7
100
AcDbTrace
 10
699.000005
 20
638.99999
 30
0.0
 11
709.000005
 21
640.99999
 31
0.0
 12
699.000005
 22
642.99999
 32
0.0
 13
709.000005
 23
640.99999
 33
0.0
  0
CIRCLE
  5
1503
100
AcDbEntity
  8
15000_BACK
370
    25
390
0
  6
CENTER
 62
     7
100
AcDbCircle
 10
348.000005
 20
546.99999
 30
0.0
 40
3.5
  0
LINE
  5
1504
100
AcDbEntity
  8
15000_BACK
370
    25
390
0
  6
CENTER
 62
     7
100
AcDbLine
 10
358.000005
 20
553.99999
 30
0.0
 11
238.000005
 21
553.99999
 31
0.0
  0
LINE
  5
1505
100
AcDbEntity
  8
15000_BACK
370
    25
390
0
  6
CENTER
 62
     7
100
AcDbLine
 10
238.000005
 20
553.99999
 30
0.0
 11
238.000005
 21
373.999997
 31
0.0
  0
LINE
  5
1506
100
AcDbEntity
  8
15000_BACK
370
    25
390
0
  6
CENTER
 62
     7
100
AcDbLine
 10
238.000005
 20
373.999997
 30
0.0
 11
244.500005
 21
373.999997
 31
0.0
  0
LINE
  5
1507
100
AcDbEntity
  8
15000_BACK
370
    25
390
0
  6
CENTER
 62
     7
100
AcDbLine
 10
244.500005
 20
373.999997
 30
0.0
 11
244.500005
 21
379.99999
 31
0.0
  0
ARC
  5
1508
100
AcDbEntity
  8
15000_BACK
370
    25
390
0
  6
CENTER
 62
     7
100
AcDbCircle
 10
248.000005
 20
379.99999
 30
0.0
 40
3.5
100
AcDbArc
 50
0.0
 51
180.0
  0
LINE
  5
1509
100
AcDbEntity
  8
15000_BACK
370
    25
390
0
  6
CENTER
 62
     7
100
AcDbLine
 10
251.500005
 20
379.99999
 30
0.0
 11
251.500005
 21
373.99999
 31
0.0
  0
LINE
  5
150A
100
AcDbEntity
  8
15000_BACK
370
    25
390
0
  6
CENTER
 62
     7
100
AcDbLine
 10
251.500005
 20
373.99999
 30
0.0
 11
344.500005
 21
373.99999
 31
0.0
  0
LINE
  5
150B
100
AcDbEntity
  8
15000_BACK
370
    25
390
0
  6
CENTER
 62
     7
100
AcDbLine
 10
344.500005
 20
373.99999
 30
0.0
 11
344.500005
 21
379.99999
 31
0.0
  0
ARC
  5
150C
100
AcDbEntity
  8
15000_BACK
370
    25
390
0
  6
CENTER
 62
     7
100
AcDbCircle
 10
348.000005
 20
379.99999
 30
0.0
 40
3.5
100
AcDbArc
 50
0.0
 51
180.0
  0
LINE
  5
150D
100
AcDbEntity
  8
15000_BACK
370
    25
390
0
  6
CENTER
 62
     7
100
AcDbLine
 10
351.500005
 20
379.99999
 30
0.0
 11
351.500005
 21
373.999997
 31
0.0
  0
LINE
  5
150E
100
AcDbEntity
  8
15000_BACK
370
    25
390
0
  6
CENTER
 62
     7
100
AcDbLine
 10
351.500005
 20
373.999997
 30
0.0
 11
358.000005
 21
373.999997
 31
0.0
  0
LINE
  5
150F
100
AcDbEntity
  8
15000_BACK
370
    25
390
0
  6
CENTER
 62
     7
100
AcDbLine
 10
358.000005
 20
373.999997
 30
0.0
 11
358.000005
 21
553.99999
 31
0.0
  0
CIRCLE
  5
1510
100
AcDbEntity
  8
15000_BACK
370
    25
390
0
  6
CENTER
 62
     7
100
AcDbCircle
 10
248.000005
 20
546.99999
 30
0.0
 40
3.5
  0
LINE
  5
1511
100
AcDbEntity
  8
15100_BACK_DIM
370
    13
390
0
  6
CONTINUOUS
 62
     7
100
AcDbLine
 10
238.000005
 20
553.99999
 30
0.0
 11
238.000005
 21
574.99999
 31
0.0
  0
TEXT
  5
1512
100
AcDbEntity
  8
15100_BACK_DIM
370
    13
390
0
  6
CONTINUOUS
 62
     7
100
AcDbText
 10
215.416672
 20
574.99999
 30
0.0
 40
4.0
  1
10
 72
     1
 11
217.750005
 21
574.99999
 31
0.0
100
AcDbText
  0
LINE
  5
1513
100
AcDbEntity
  8
15100_BACK_DIM
370
    13
390
0
  6
CONTINUOUS
 62
     7
100
AcDbLine
 10
212.500005
 20
572.99999
 30
0.0
 11
263.000005
 21
572.99999
 31
0.0
  0
LINE
  5
1514
100
AcDbEntity
  8
15100_BACK_DIM
370
    13
390
0
  6
CONTINUOUS
 62
     7
100
AcDbLine
 10
248.000005
 20
574.99999
 30
0.0
 11
248.000005
 21
546.99999
 31
0.0
  0
LINE
  5
1515
100
AcDbEntity
  8
15100_BACK_DIM
370
    13
390
0
  6
CONTINUOUS
 62
     7
100
AcDbLine
 10
248.000005
 20
553.99999
 30
0.0
 11
248.000005
 21
574.99999
 31
0.0
  0
TEXT
  5
1516
100
AcDbEntity
  8
15100_BACK_DIM
370
    13
390
0
  6
CONTINUOUS
 62
     7
100
AcDbText
 10
294.000005
 20
574.99999
 30
0.0
 40
4.0
  1
100
 72
     1
 11
298.000005
 21
574.99999
 31
0.0
100
AcDbText
  0
LINE
  5
1517
100
AcDbEntity
  8
15100_BACK_DIM
370
    13
390
0
  6
CONTINUOUS
 62
     7
100
AcDbLine
 10
248.000005
 20
572.99999
 30
0.0
 11
348.000005
 21
572.99999
 31
0.0
  0
LINE
  5
1518
100
AcDbEntity
  8
15100_BACK_DIM
370
    13
390
0
  6
CONTINUOUS
 62
     7
100
AcDbLine
 10
348.000005
 20
574.99999
 30
0.0
 11
348.000005
 21
546.99999
 31
0.0
  0
LINE
  5
1519
100
AcDbEntity
  8
15100_BACK_DIM
370
    13
390
0
  6
CONTINUOUS
 62
     7
100
AcDbLine
 10
248.000005
 20
546.99999
 30
0.0
 11
217.000005
 21
546.99999
 31
0.0
  0
TEXT
  5
151A
100
AcDbEntity
  8
15100_BACK_DIM
370
    13
390
0
  6
CONTINUOUS
 62
     7
100
AcDbText
 10
217.000005
 20
549.166657
 30
0.0
 40
4.0
  1
7
 50
90.0
 51
360.0
 72
     1
 11
217.000005
 21
550.49999
 31
0.0
100
AcDbText
  0
LINE
  5
151B
100
AcDbEntity
  8
15100_BACK_DIM
370
    13
390
0
  6
CONTINUOUS
 62
     7
100
AcDbLine
 10
219.000005
 20
573.99999
 30
0.0
 11
219.000005
 21
526.99999
 31
0.0
  0
LINE
  5
151C
100
AcDbEntity
  8
15100_BACK_DIM
370
    13
390
0
  6
CONTINUOUS
 62
     7
100
AcDbLine
 10
217.000005
 20
553.99999
 30
0.0
 11
238.000005
 21
553.99999
 31
0.0
  0
LINE
  5
151D
100
AcDbEntity
  8
15100_BACK_DIM
370
    13
390
0
  6
CONTINUOUS
 62
     7
100
AcDbLine
 10
348.000005
 20
379.99999
 30
0.0
 11
379.000005
 21
379.99999
 31
0.0
  0
TEXT
  5
151E
100
AcDbEntity
  8
15100_BACK_DIM
370
    13
390
0
  6
CONTINUOUS
 62
     7
100
AcDbText
 10
375.000005
 20
458.833323
 30
0.0
 40
4.0
  1
167
 50
90.0
 51
360.0
 72
     1
 11
375.000005
 21
463.49999
 31
0.0
100
AcDbText
  0
LINE
  5
151F
100
AcDbEntity
  8
15100_BACK_DIM
370
    13
390
0
  6
CONTINUOUS
 62
     7
100
AcDbLine
 10
377.000005
 20
379.99999
 30
0.0
 11
377.000005
 21
546.99999
 31
0.0
  0
LINE
  5
1520
100
AcDbEntity
  8
15100_BACK_DIM
370
    13
390
0
  6
CONTINUOUS
 62
     7
100
AcDbLine
 10
379.000005
 20
546.99999
 30
0.0
 11
348.000005
 21
546.99999
 31
0.0
  0
LINE
  5
1521
100
AcDbEntity
  8
15100_BACK_DIM
370
    13
390
0
  6
CONTINUOUS
 62
     7
100
AcDbLine
 10
358.000005
 20
373.99999
 30
0.0
 11
379.000005
 21
373.99999
 31
0.0
  0
TEXT
  5
1522
100
AcDbEntity
  8
15100_BACK_DIM
370
    13
390
0
  6
CONTINUOUS
 62
     7
100
AcDbText
 10
375.000005
 20
375.666657
 30
0.0
 40
4.0
  1
6
 50
90.0
 51
360.0
 72
     1
 11
375.000005
 21
376.99999
 31
0.0
100
AcDbText
  0
LINE
  5
1523
100
AcDbEntity
  8
15100_BACK_DIM
370
    13
390
0
  6
CONTINUOUS
 62
     7
100
AcDbLine
 10
377.000005
 20
399.99999
 30
0.0
 11
377.000005
 21
353.99999
 31
0.0
  0
LINE
  5
1524
100
AcDbEntity
  8
15100_BACK_DIM
370
    13
390
0
  6
CONTINUOUS
 62
     7
100
AcDbLine
 10
379.000005
 20
379.99999
 30
0.0
 11
348.000005
 21
379.99999
 31
0.0
  0
LINE
  5
1525
100
AcDbEntity
  8
15100_BACK_DIM
370
    13
390
0
  6
CONTINUOUS
 62
     7
100
AcDbLine
 10
348.000005
 20
546.99999
 30
0.0
 11
343.000005
 21
526.99999
 31
0.0
  0
TEXT
  5
1526
100
AcDbEntity
  8
15100_BACK_DIM
370
    13
390
0
  6
CONTINUOUS
 62
     7
100
AcDbText
 10
343.000005
 20
519.99999
 30
0.0
 40
4.0
  1
7
100
AcDbText
  0
CIRCLE
  5
1527
100
AcDbEntity
  8
15100_BACK_DIM
370
    13
390
0
  6
CONTINUOUS
 62
     7
100
AcDbCircle
 10
340.200005
 20
520.87499
 30
0.0
 40
1.75
  0
LINE
  5
1528
100
AcDbEntity
  8
15100_BACK_DIM
370
    13
390
0
  6
CONTINUOUS
 62
     7
100
AcDbLine
 10
338.450005
 20
519.12499
 30
0.0
 11
341.950005
 21
522.62499
 31
0.0
  0
LINE
  5
1529
100
AcDbEntity
  8
15100_BACK_DIM
370
    13
390
0
  6
CONTINUOUS
 62
     7
100
AcDbLine
 10
348.000005
 20
379.99999
 30
0.0
 11
343.000005
 21
399.99999
 31
0.0
  0
TEXT
  5
152A
100
AcDbEntity
  8
15100_BACK_DIM
370
    13
390
0
  6
CONTINUOUS
 62
     7
100
AcDbText
 10
343.000005
 20
399.99999
 30
0.0
 40
4.0
  1
7
100
AcDbText
  0
CIRCLE
  5
152B
100
AcDbEntity
  8
15100_BACK_DIM
370
    13
390
0
  6
CONTINUOUS
 62
     7
100
AcDbCircle
 10
340.200005
 20
400.87499
 30
0.0
 40
1.75
  0
LINE
  5
152C
100
AcDbEntity
  8
15100_BACK_DIM
370
    13
390
0
  6
CONTINUOUS
 62
     7
100
AcDbLine
 10
338.450005
 20
399.12499
 30
0.0
 11
341.950005
 21
402.62499
 31
0.0
  0
SOLID
  5
152D
100
AcDbEntity
  8
15100_BACK_DIM
370
    13
390
0
  6
CONTINUOUS
 62
     7
100
AcDbTrace
 10
228.000005
 20
570.99999
 30
0.0
 11
238.000005
 21
572.99999
 31
0.0
 12
228.000005
 22
574.99999
 32
0.0
 13
238.000005
 23
572.99999
 33
0.0
  0
SOLID
  5
152E
100
AcDbEntity
  8
15100_BACK_DIM
370
    13
390
0
  6
CONTINUOUS
 62
     7
100
AcDbTrace
 10
258.000005
 20
574.99999
 30
0.0
 11
248.000005
 21
572.99999
 31
0.0
 12
258.000005
 22
570.99999
 32
0.0
 13
248.000005
 23
572.99999
 33
0.0
  0
LINE
  5
152F
100
AcDbEntity
  8
15100_BACK_DIM
370
    13
390
0
  6
CONTINUOUS
 62
     7
100
AcDbLine
 10
258.000005
 20
570.99999
 30
0.0
 11
258.000005
 21
574.99999
 31
0.0
  0
LINE
  5
1530
100
AcDbEntity
  8
15100_BACK_DIM
370
    13
390
0
  6
CONTINUOUS
 62
     7
100
AcDbLine
 10
258.000005
 20
574.99999
 30
0.0
 11
248.000005
 21
572.99999
 31
0.0
  0
LINE
  5
1531
100
AcDbEntity
  8
15100_BACK_DIM
370
    13
390
0
  6
CONTINUOUS
 62
     7
100
AcDbLine
 10
258.000005
 20
570.99999
 30
0.0
 11
248.000005
 21
572.99999
 31
0.0
  0
SOLID
  5
1532
100
AcDbEntity
  8
15100_BACK_DIM
370
    13
390
0
  6
CONTINUOUS
 62
     7
100
AcDbTrace
 10
338.000005
 20
570.99999
 30
0.0
 11
348.000005
 21
572.99999
 31
0.0
 12
338.000005
 22
574.99999
 32
0.0
 13
348.000005
 23
572.99999
 33
0.0
  0
SOLID
  5
1533
100
AcDbEntity
  8
15100_BACK_DIM
370
    13
390
0
  6
CONTINUOUS
 62
     7
100
AcDbTrace
 10
221.000005
 20
536.99999
 30
0.0
 11
219.000005
 21
546.99999
 31
0.0
 12
217.000005
 22
536.99999
 32
0.0
 13
219.000005
 23
546.99999
 33
0.0
  0
SOLID
  5
1534
100
AcDbEntity
  8
15100_BACK_DIM
370
    13
390
0
  6
CONTINUOUS
 62
     7
100
AcDbTrace
 10
217.000005
 20
563.99999
 30
0.0
 11
219.000005
 21
553.99999
 31
0.0
 12
221.000005
 22
563.99999
 32
0.0
 13
219.000005
 23
553.99999
 33
0.0
  0
SOLID
  5
1535
100
AcDbEntity
  8
15100_BACK_DIM
370
    13
390
0
  6
CONTINUOUS
 62
     7
100
AcDbTrace
 10
375.000005
 20
389.99999
 30
0.0
 11
377.000005
 21
379.99999
 31
0.0
 12
379.000005
 22
389.99999
 32
0.0
 13
377.000005
 23
379.99999
 33
0.0
  0
SOLID
  5
1536
100
AcDbEntity
  8
15100_BACK_DIM
370
    13
390
0
  6
CONTINUOUS
 62
     7
100
AcDbTrace
 10
379.000005
 20
536.99999
 30
0.0
 11
377.000005
 21
546.99999
 31
0.0
 12
375.000005
 22
536.99999
 32
0.0
 13
377.000005
 23
546.99999
 33
0.0
  0
SOLID
  5
1537
100
AcDbEntity
  8
15100_BACK_DIM
370
    13
390
0
  6
CONTINUOUS
 62
     7
100
AcDbTrace
 10
379.000005
 20
363.99999
 30
0.0
 11
377.000005
 21
373.99999
 31
0.0
 12
375.000005
 22
363.99999
 32
0.0
 13
377.000005
 23
373.99999
 33
0.0
  0
LINE
  5
1538
100
AcDbEntity
  8
15100_BACK_DIM
370
    13
390
0
  6
CONTINUOUS
 62
     7
100
AcDbLine
 10
379.000005
 20
389.99999
 30
0.0
 11
375.000005
 21
389.99999
 31
0.0
  0
LINE
  5
1539
100
AcDbEntity
  8
15100_BACK_DIM
370
    13
390
0
  6
CONTINUOUS
 62
     7
100
AcDbLine
 10
375.000005
 20
389.99999
 30
0.0
 11
377.000005
 21
379.99999
 31
0.0
  0
LINE
  5
153A
100
AcDbEntity
  8
15100_BACK_DIM
370
    13
390
0
  6
CONTINUOUS
 62
     7
100
AcDbLine
 10
379.000005
 20
389.99999
 30
0.0
 11
377.000005
 21
379.99999
 31
0.0
  0
LINE
  5
153B
100
AcDbEntity
  8
90000_FRAME
370
    13
  6
CONTINUOUS
 62
     7
100
AcDbLine
 10
152.112216
 20
178.490575
 30
0.0
 11
152.112216
 21
988.490575
 31
0.0
  0
LINE
  5
153C
100
AcDbEntity
  8
90000_FRAME
370
    13
  6
CONTINUOUS
 62
     7
100
AcDbLine
 10
752.112216
 20
988.490575
 30
0.0
 11
152.112216
 21
988.490575
 31
0.0
  0
LINE
  5
153D
100
AcDbEntity
  8
91000_TIP
370
    13
  6
CONTINUOUS
 62
     7
100
AcDbLine
 10
246.250598
 20
227.120848
 30
0.0
 11
276.250598
 21
234.620848
 31
0.0
  0
LINE
  5
153E
100
AcDbEntity
  8
91000_TIP
370
    13
  6
CONTINUOUS
 62
     7
100
AcDbLine
 10
242.412067
 20
219.620848
 30
0.0
 11
313.218035
 21
219.620848
 31
0.0
  0
LINE
  5
153F
100
AcDbEntity
  8
91000_TIP
370
    13
  6
CONTINUOUS
 62
     7
100
AcDbLine
 10
246.250598
 20
212.120848
 30
0.0
 11
276.250598
 21
204.620848
 31
0.0
  0
LINE
  5
1540
100
AcDbEntity
  8
91000_TIP
370
    13
  6
CONTINUOUS
 62
     7
100
AcDbLine
 10
246.250598
 20
227.120848
 30
0.0
 11
246.250598
 21
212.120848
 31
0.0
  0
LINE
  5
1541
100
AcDbEntity
  8
91000_TIP
370
    13
  6
CONTINUOUS
 62
     7
100
AcDbLine
 10
276.250598
 20
234.620848
 30
0.0
 11
276.250598
 21
204.620848
 31
0.0
  0
LINE
  5
1542
100
AcDbEntity
  8
91000_TIP
370
    13
  6
CONTINUOUS
 62
     7
100
AcDbLine
 10
295.750597
 20
202.456404
 30
0.0
 11
295.750597
 21
236.306562
 31
0.0
  0
CIRCLE
  5
1543
100
AcDbEntity
  8
91000_TIP
370
    13
  6
CONTINUOUS
 62
     7
100
AcDbCircle
 10
295.750597
 20
219.620848
 30
0.0
 40
15.0
  0
CIRCLE
  5
1544
100
AcDbEntity
  8
91000_TIP
370
    13
  6
CONTINUOUS
 62
     7
100
AcDbCircle
 10
295.750597
 20
219.620848
 30
0.0
 40
7.5
  0
TEXT
  5
1545
100
AcDbEntity
  8
90000_FRAME
370
    13
  6
CONTINUOUS
 62
     7
100
AcDbText
 10
333.790838
 20
252.823687
 30
0.0
 40
6.6
  1
All dimensions are in millimeters (mm)
 41
0.961374
100
AcDbText
  0
TEXT
  5
1546
100
AcDbEntity
  8
90000_FRAME
370
    13
  6
CONTINUOUS
 62
     7
100
AcDbText
 10
333.790838
 20
262.210754
 30
0.0
 40
6.6
  1
Alle Bemassungswerte sind in Millimeter (mm) angegeben.
 41
0.825144
100
AcDbText
  0
LINE
  5
1547
100
AcDbEntity
  8
90000_FRAME
370
    13
  6
CONTINUOUS
 62
     7
100
AcDbLine
 10
752.112216
 20
178.490575
 30
0.0
 11
752.112216
 21
988.490575
 31
0.0
  0
LINE
  5
1548
100
AcDbEntity
  8
90000_FRAME
370
    13
  6
CONTINUOUS
 62
     7
100
AcDbLine
 10
752.112216
 20
178.490575
 30
0.0
 11
152.112216
 21
178.490575
 31
0.0
  0
TEXT
  5
1549
100
AcDbEntity
  8
90000_FRAME
370
    13
  6
CONTINUOUS
 62
     7
100
AcDbText
 10
486.456466
 20
231.6
 30
0.0
 40
9.0
  1

 41
0.784213
100
AcDbText
  0
TEXT
  5
154A
100
AcDbEntity
  8
90000_FRAME
370
    13
  6
CONTINUOUS
 62
     7
100
AcDbText
 10
611.592216
 20
199.190575
 30
0.0
 40
6.6
  1
Massstab/Scale:
 41
0.9
100
AcDbText
  0
TEXT
  5
154B
100
AcDbEntity
  8
90000_FRAME
370
    13
  6
CONTINUOUS
 62
     7
100
AcDbText
 10
486.0
 20
199.190575
 30
0.0
 40
6.6
  1
Format/Size: DIN A4
 41
0.803258
100
AcDbText
  0
LINE
  5
154C
100
AcDbEntity
  8
90000_FRAME
370
    13
  6
CONTINUOUS
 62
     7
100
AcDbLine
 10
737.112216
 20
193.490575
 30
0.0
 11
737.112216
 21
247.490575
 31
0.0
  0
LINE
  5
154D
100
AcDbEntity
  8
90000_FRAME
370
    13
  6
CONTINUOUS
 62
     7
100
AcDbLine
 10
609.612216
 20
193.490575
 30
0.0
 11
609.612216
 21
211.490575
 31
0.0
  0
LINE
  5
154E
100
AcDbEntity
  8
90000_FRAME
370
    13
  6
CONTINUOUS
 62
     7
100
AcDbLine
 10
482.112216
 20
193.490575
 30
0.0
 11
482.112216
 21
247.490575
 31
0.0
  0
LINE
  5
154F
100
AcDbEntity
  8
90000_FRAME
370
    13
  6
CONTINUOUS
 62
     7
100
AcDbLine
 10
332.112216
 20
247.490575
 30
0.0
 11
737.112216
 21
247.490575
 31
0.0
  0
LINE
  5
1550
100
AcDbEntity
  8
90000_FRAME
370
    13
  6
CONTINUOUS
 62
     7
100
AcDbLine
 10
482.112216
 20
211.490575
 30
0.0
 11
737.112216
 21
211.490575
 31
0.0
  0
LINE
  5
1551
100
AcDbEntity
  8
90000_FRAME
370
    13
  6
CONTINUOUS
 62
     7
100
AcDbLine
 10
332.112216
 20
193.490575
 30
0.0
 11
332.112216
 21
247.490575
 31
0.0
  0
LINE
  5
1552
100
AcDbEntity
  8
90000_FRAME
370
    13
  6
CONTINUOUS
 62
     7
100
AcDbLine
 10
332.112216
 20
193.490575
 30
0.0
 11
737.112216
 21
193.490575
 31
0.0
  0
LINE
  5
1553
100
AcDbEntity
  8
90000_FRAME
370
    13
  6
CONTINUOUS
 62
     7
100
AcDbLine
 10
374.670817
 20
227.734219
 30
0.0
 11
374.670817
 21
213.474411
 31
0.0
  0
LINE
  5
1554
100
AcDbEntity
  8
90000_FRAME
370
    13
  6
CONTINUOUS
 62
     7
100
AcDbLine
 10
378.948759
 20
227.734219
 30
0.0
 11
378.948759
 21
213.474411
 31
0.0
  0
LINE
  5
1555
100
AcDbEntity
  8
90000_FRAME
370
    13
  6
CONTINUOUS
 62
     7
100
AcDbLine
 10
374.670817
 20
213.474411
 30
0.0
 11
378.948759
 21
213.474411
 31
0.0
  0
LINE
  5
1556
100
AcDbEntity
  8
90000_FRAME
370
    13
  6
CONTINUOUS
 62
     7
100
AcDbLine
 10
374.670817
 20
227.734219
 30
0.0
 11
378.948759
 21
227.734219
 31
0.0
  0
LINE
  5
1557
100
AcDbEntity
  8
90000_FRAME
370
    13
  6
CONTINUOUS
 62
     7
100
AcDbLine
 10
382.228515
 20
227.734219
 30
0.0
 11
382.228515
 21
213.474411
 31
0.0
  0
LINE
  5
1558
100
AcDbEntity
  8
90000_FRAME
370
    13
  6
CONTINUOUS
 62
     7
100
AcDbLine
 10
382.228515
 20
213.474411
 30
0.0
 11
392.923371
 21
213.474411
 31
0.0
  0
LINE
  5
1559
100
AcDbEntity
  8
90000_FRAME
370
    13
  6
CONTINUOUS
 62
     7
100
AcDbLine
 10
392.923371
 20
216.183775
 30
0.0
 11
386.363859
 21
216.183775
 31
0.0
  0
LINE
  5
155A
100
AcDbEntity
  8
90000_FRAME
370
    13
  6
CONTINUOUS
 62
     7
100
AcDbLine
 10
392.923371
 20
216.183775
 30
0.0
 11
392.923371
 21
213.474411
 31
0.0
  0
LINE
  5
155B
100
AcDbEntity
  8
90000_FRAME
370
    13
  6
CONTINUOUS
 62
     7
100
AcDbLine
 10
392.780772
 20
227.734219
 30
0.0
 11
382.228515
 21
227.734219
 31
0.0
  0
LINE
  5
155C
100
AcDbEntity
  8
90000_FRAME
370
    13
  6
CONTINUOUS
 62
     7
100
AcDbLine
 10
392.780772
 20
225.096154
 30
0.0
 11
386.363859
 21
225.096154
 31
0.0
  0
LINE
  5
155D
100
AcDbEntity
  8
90000_FRAME
370
    13
  6
CONTINUOUS
 62
     7
100
AcDbLine
 10
392.780772
 20
227.734219
 30
0.0
 11
392.780772
 21
225.096154
 31
0.0
  0
LINE
  5
155E
100
AcDbEntity
  8
90000_FRAME
370
    13
  6
CONTINUOUS
 62
     7
100
AcDbLine
 10
391.925184
 20
219.534829
 30
0.0
 11
386.363859
 21
219.534829
 31
0.0
  0
LINE
  5
155F
100
AcDbEntity
  8
90000_FRAME
370
    13
  6
CONTINUOUS
 62
     7
100
AcDbLine
 10
391.925184
 20
221.887698
 30
0.0
 11
391.925184
 21
219.534829
 31
0.0
  0
LINE
  5
1560
100
AcDbEntity
  8
90000_FRAME
370
    13
  6
CONTINUOUS
 62
     7
100
AcDbLine
 10
391.925184
 20
221.887698
 30
0.0
 11
386.363859
 21
221.887698
 31
0.0
  0
LINE
  5
1561
100
AcDbEntity
  8
90000_FRAME
370
    13
  6
CONTINUOUS
 62
     7
100
AcDbLine
 10
386.363859
 20
225.096154
 30
0.0
 11
386.363859
 21
221.887698
 31
0.0
  0
LINE
  5
1562
100
AcDbEntity
  8
90000_FRAME
370
    13
  6
CONTINUOUS
 62
     7
100
AcDbLine
 10
386.363859
 20
219.534829
 30
0.0
 11
386.363859
 21
216.183775
 31
0.0
  0
LINE
  5
1563
100
AcDbEntity
  8
90000_FRAME
370
    13
  6
CONTINUOUS
 62
     7
100
AcDbLine
 10
395.347538
 20
213.474411
 30
0.0
 11
395.347538
 21
227.734219
 31
0.0
  0
LINE
  5
1564
100
AcDbEntity
  8
90000_FRAME
370
    13
  6
CONTINUOUS
 62
     7
100
AcDbLine
 10
395.347538
 20
213.474411
 30
0.0
 11
398.199499
 21
213.474411
 31
0.0
  0
LINE
  5
1565
100
AcDbEntity
  8
90000_FRAME
370
    13
  6
CONTINUOUS
 62
     7
100
AcDbLine
 10
412.887101
 20
227.734219
 30
0.0
 11
412.887101
 21
213.474411
 31
0.0
  0
LINE
  5
1566
100
AcDbEntity
  8
90000_FRAME
370
    13
  6
CONTINUOUS
 62
     7
100
AcDbLine
 10
412.887101
 20
213.474411
 30
0.0
 11
408.751757
 21
213.474411
 31
0.0
  0
LINE
  5
1567
100
AcDbEntity
  8
90000_FRAME
370
    13
  6
CONTINUOUS
 62
     7
100
AcDbLine
 10
402.192245
 20
213.331813
 30
0.0
 11
404.759011
 21
213.331813
 31
0.0
  0
LINE
  5
1568
100
AcDbEntity
  8
90000_FRAME
370
    13
  6
CONTINUOUS
 62
     7
100
AcDbLine
 10
402.192245
 20
213.331813
 30
0.0
 11
398.199499
 21
222.600688
 31
0.0
  0
LINE
  5
1569
100
AcDbEntity
  8
90000_FRAME
370
    13
  6
CONTINUOUS
 62
     7
100
AcDbLine
 10
398.199499
 20
213.474411
 30
0.0
 11
398.199499
 21
222.600688
 31
0.0
  0
LINE
  5
156A
100
AcDbEntity
  8
90000_FRAME
370
    13
  6
CONTINUOUS
 62
     7
100
AcDbLine
 10
408.751757
 20
222.743286
 30
0.0
 11
404.759011
 21
213.331813
 31
0.0
  0
LINE
  5
156B
100
AcDbEntity
  8
90000_FRAME
370
    13
  6
CONTINUOUS
 62
     7
100
AcDbLine
 10
400.481068
 20
227.734219
 30
0.0
 11
395.347538
 21
227.734219
 31
0.0
  0
LINE
  5
156C
100
AcDbEntity
  8
90000_FRAME
370
    13
  6
CONTINUOUS
 62
     7
100
AcDbLine
 10
412.887101
 20
227.734219
 30
0.0
 11
407.75357
 21
227.734219
 31
0.0
  0
LINE
  5
156D
100
AcDbEntity
  8
90000_FRAME
370
    13
  6
CONTINUOUS
 62
     7
100
AcDbLine
 10
400.481068
 20
227.734219
 30
0.0
 11
404.188618
 21
219.035736
 31
0.0
  0
LINE
  5
156E
100
AcDbEntity
  8
90000_FRAME
370
    13
  6
CONTINUOUS
 62
     7
100
AcDbLine
 10
407.75357
 20
227.734219
 30
0.0
 11
404.188618
 21
219.035736
 31
0.0
  0
LINE
  5
156F
100
AcDbEntity
  8
90000_FRAME
370
    13
  6
CONTINUOUS
 62
     7
100
AcDbLine
 10
408.751757
 20
222.743286
 30
0.0
 11
408.751757
 21
213.474411
 31
0.0
  0
LINE
  5
1570
100
AcDbEntity
  8
90000_FRAME
370
    13
  6
CONTINUOUS
 62
     7
100
AcDbLine
 10
416.166856
 20
227.734219
 30
0.0
 11
416.166856
 21
213.474411
 31
0.0
  0
LINE
  5
1571
100
AcDbEntity
  8
90000_FRAME
370
    13
  6
CONTINUOUS
 62
     7
100
AcDbLine
 10
416.166856
 20
213.474411
 30
0.0
 11
426.861712
 21
213.474411
 31
0.0
  0
LINE
  5
1572
100
AcDbEntity
  8
90000_FRAME
370
    13
  6
CONTINUOUS
 62
     7
100
AcDbLine
 10
426.861712
 20
216.183775
 30
0.0
 11
420.3022
 21
216.183775
 31
0.0
  0
LINE
  5
1573
100
AcDbEntity
  8
90000_FRAME
370
    13
  6
CONTINUOUS
 62
     7
100
AcDbLine
 10
426.861712
 20
216.183775
 30
0.0
 11
426.861712
 21
213.474411
 31
0.0
  0
LINE
  5
1574
100
AcDbEntity
  8
90000_FRAME
370
    13
  6
CONTINUOUS
 62
     7
100
AcDbLine
 10
426.719114
 20
227.734219
 30
0.0
 11
416.166856
 21
227.734219
 31
0.0
  0
LINE
  5
1575
100
AcDbEntity
  8
90000_FRAME
370
    13
  6
CONTINUOUS
 62
     7
100
AcDbLine
 10
426.719114
 20
225.096154
 30
0.0
 11
420.3022
 21
225.096154
 31
0.0
  0
LINE
  5
1576
100
AcDbEntity
  8
90000_FRAME
370
    13
  6
CONTINUOUS
 62
     7
100
AcDbLine
 10
426.719114
 20
227.734219
 30
0.0
 11
426.719114
 21
225.096154
 31
0.0
  0
LINE
  5
1577
100
AcDbEntity
  8
90000_FRAME
370
    13
  6
CONTINUOUS
 62
     7
100
AcDbLine
 10
425.863525
 20
219.534829
 30
0.0
 11
420.3022
 21
219.534829
 31
0.0
  0
LINE
  5
1578
100
AcDbEntity
  8
90000_FRAME
370
    13
  6
CONTINUOUS
 62
     7
100
AcDbLine
 10
425.863525
 20
221.887698
 30
0.0
 11
425.863525
 21
219.534829
 31
0.0
  0
LINE
  5
1579
100
AcDbEntity
  8
90000_FRAME
370
    13
  6
CONTINUOUS
 62
     7
100
AcDbLine
 10
425.863525
 20
221.887698
 30
0.0
 11
420.3022
 21
221.887698
 31
0.0
  0
LINE
  5
157A
100
AcDbEntity
  8
90000_FRAME
370
    13
  6
CONTINUOUS
 62
     7
100
AcDbLine
 10
420.3022
 20
225.096154
 30
0.0
 11
420.3022
 21
221.887698
 31
0.0
  0
LINE
  5
157B
100
AcDbEntity
  8
90000_FRAME
370
    13
  6
CONTINUOUS
 62
     7
100
AcDbLine
 10
420.3022
 20
219.534829
 30
0.0
 11
420.3022
 21
216.183775
 31
0.0
  0
LINE
  5
157C
100
AcDbEntity
  8
90000_FRAME
370
    13
  6
CONTINUOUS
 62
     7
100
AcDbLine
 10
429.21458
 20
213.474411
 30
0.0
 11
429.21458
 21
227.734219
 31
0.0
  0
LINE
  5
157D
100
AcDbEntity
  8
90000_FRAME
370
    13
  6
CONTINUOUS
 62
     7
100
AcDbLine
 10
441.76321
 20
227.734219
 30
0.0
 11
441.76321
 21
213.474411
 31
0.0
  0
LINE
  5
157E
100
AcDbEntity
  8
90000_FRAME
370
    13
  6
CONTINUOUS
 62
     7
100
AcDbLine
 10
429.21458
 20
213.474411
 30
0.0
 11
432.066541
 21
213.474411
 31
0.0
  0
LINE
  5
157F
100
AcDbEntity
  8
90000_FRAME
370
    13
  6
CONTINUOUS
 62
     7
100
AcDbLine
 10
441.76321
 20
227.734219
 30
0.0
 11
438.911249
 21
227.734219
 31
0.0
  0
LINE
  5
1580
100
AcDbEntity
  8
90000_FRAME
370
    13
  6
CONTINUOUS
 62
     7
100
AcDbLine
 10
433.849017
 20
227.734219
 30
0.0
 11
429.21458
 21
227.734219
 31
0.0
  0
LINE
  5
1581
100
AcDbEntity
  8
90000_FRAME
370
    13
  6
CONTINUOUS
 62
     7
100
AcDbLine
 10
441.76321
 20
213.474411
 30
0.0
 11
437.200072
 21
213.474411
 31
0.0
  0
LINE
  5
1582
100
AcDbEntity
  8
90000_FRAME
370
    13
  6
CONTINUOUS
 62
     7
100
AcDbLine
 10
437.200072
 20
213.474411
 30
0.0
 11
432.066541
 21
222.600688
 31
0.0
  0
LINE
  5
1583
100
AcDbEntity
  8
90000_FRAME
370
    13
  6
CONTINUOUS
 62
     7
100
AcDbLine
 10
433.849017
 20
227.734219
 30
0.0
 11
438.911249
 21
218.893138
 31
0.0
  0
LINE
  5
1584
100
AcDbEntity
  8
90000_FRAME
370
    13
  6
CONTINUOUS
 62
     7
100
AcDbLine
 10
438.911249
 20
227.734219
 30
0.0
 11
438.911249
 21
218.893138
 31
0.0
  0
LINE
  5
1585
100
AcDbEntity
  8
90000_FRAME
370
    13
  6
CONTINUOUS
 62
     7
100
AcDbLine
 10
432.066541
 20
213.474411
 30
0.0
 11
432.066541
 21
222.600688
 31
0.0
  0
LINE
  5
1586
100
AcDbEntity
  8
90000_FRAME
370
    13
  6
CONTINUOUS
 62
     7
100
AcDbLine
 10
444.187378
 20
213.759607
 30
0.0
 11
444.187378
 21
216.611569
 31
0.0
  0
LINE
  5
1587
100
AcDbEntity
  8
90000_FRAME
370
    13
  6
CONTINUOUS
 62
     7
100
AcDbLine
 10
454.169243
 20
224.739659
 30
0.0
 11
454.169243
 21
227.591621
 31
0.0
  0
ARC
  5
1588
100
AcDbEntity
  8
90000_FRAME
370
    13
  6
CONTINUOUS
 62
     7
100
AcDbCircle
 10
449.301301
 20
219.345887
 30
0.0
 40
3.334858
100
AcDbArc
 50
277.709996
 51
295.688493
  0
ARC
  5
1589
100
AcDbEntity
  8
90000_FRAME
370
    13
  6
CONTINUOUS
 62
     7
100
AcDbCircle
 10
450.154231
 20
217.17141
 30
0.0
 40
1.020507
100
AcDbArc
 50
305.503221
 51
72.46529
  0
ARC
  5
158A
100
AcDbEntity
  8
90000_FRAME
370
    13
  6
CONTINUOUS
 62
     7
100
AcDbCircle
 10
448.456249
 20
227.37653
 30
0.0
 40
14.270384
100
AcDbArc
 50
252.59392
 51
280.98166
  0
ARC
  5
158B
100
AcDbEntity
  8
90000_FRAME
370
    13
  6
CONTINUOUS
 62
     7
100
AcDbCircle
 10
449.820756
 20
219.522489
 30
0.0
 40
6.30218
100
AcDbArc
 50
282.405836
 51
311.864443
  0
ARC
  5
158C
100
AcDbEntity
  8
90000_FRAME
370
    13
  6
CONTINUOUS
 62
     7
100
AcDbCircle
 10
449.000063
 20
224.347514
 30
0.0
 40
0.908888
100
AcDbArc
 50
154.440035
 51
221.82017
  0
ARC
  5
158D
100
AcDbEntity
  8
90000_FRAME
370
    13
  6
CONTINUOUS
 62
     7
100
AcDbCircle
 10
449.237726
 20
224.109851
 30
0.0
 40
1.230927
100
AcDbArc
 50
102.828783
 51
149.225964
  0
ARC
  5
158E
100
AcDbEntity
  8
90000_FRAME
370
    13
  6
CONTINUOUS
 62
     7
100
AcDbCircle
 10
450.488806
 20
218.882845
 30
0.0
 40
6.60551
100
AcDbArc
 50
84.040006
 51
103.342766
  0
ARC
  5
158F
100
AcDbEntity
  8
90000_FRAME
370
    13
  6
CONTINUOUS
 62
     7
100
AcDbCircle
 10
449.465915
 20
211.630753
 30
0.0
 40
13.927121
100
AcDbArc
 50
70.262586
 51
82.952419
  0
ARC
  5
1590
100
AcDbEntity
  8
90000_FRAME
370
    13
  6
CONTINUOUS
 62
     7
100
AcDbCircle
 10
447.92386
 20
225.645622
 30
0.0
 40
9.776268
100
AcDbArc
 50
247.530021
 51
280.757952
  0
ARC
  5
1591
100
AcDbEntity
  8
90000_FRAME
370
    13
  6
CONTINUOUS
 62
     7
100
AcDbCircle
 10
428.768961
 20
170.891062
 30
0.0
 40
51.994825
100
AcDbArc
 50
65.341467
 51
67.399777
  0
ARC
  5
1592
100
AcDbEntity
  8
90000_FRAME
370
    13
  6
CONTINUOUS
 62
     7
100
AcDbCircle
 10
461.156548
 20
248.268341
 30
0.0
 40
31.887493
100
AcDbArc
 50
242.86201
 51
247.104203
  0
ARC
  5
1593
100
AcDbEntity
  8
90000_FRAME
370
    13
  6
CONTINUOUS
 62
     7
100
AcDbCircle
 10
449.591845
 20
225.666547
 30
0.0
 40
6.498875
100
AcDbArc
 50
227.311928
 51
242.704032
  0
ARC
  5
1594
100
AcDbEntity
  8
90000_FRAME
370
    13
  6
CONTINUOUS
 62
     7
100
AcDbCircle
 10
447.779752
 20
223.549514
 30
0.0
 40
3.715565
100
AcDbArc
 50
194.795219
 51
225.717655
  0
ARC
  5
1595
100
AcDbEntity
  8
90000_FRAME
370
    13
  6
CONTINUOUS
 62
     7
100
AcDbCircle
 10
447.966226
 20
223.670174
 30
0.0
 40
3.927276
100
AcDbArc
 50
164.197486
 51
195.802514
  0
ARC
  5
1596
100
AcDbEntity
  8
90000_FRAME
370
    13
  6
CONTINUOUS
 62
     7
100
AcDbCircle
 10
449.637298
 20
221.005372
 30
0.0
 40
7.100774
100
AcDbArc
 50
86.221802
 51
120.42726
  0
ARC
  5
1597
100
AcDbEntity
  8
90000_FRAME
370
    13
  6
CONTINUOUS
 62
     7
100
AcDbCircle
 10
448.830727
 20
200.916869
 30
0.0
 40
27.203715
100
AcDbArc
 50
78.682705
 51
87.31476
  0
ARC
  5
1598
100
AcDbEntity
  8
90000_FRAME
370
    13
  6
CONTINUOUS
 62
     7
100
AcDbCircle
 10
447.46252
 20
223.992697
 30
0.0
 40
3.359242
100
AcDbArc
 50
142.813918
 51
167.152295
  0
ARC
  5
1599
100
AcDbEntity
  8
90000_FRAME
370
    13
  6
CONTINUOUS
 62
     7
100
AcDbCircle
 10
448.498448
 20
223.072952
 30
0.0
 40
4.74164
100
AcDbArc
 50
121.214095
 51
141.525477
  0
ARC
  5
159A
100
AcDbEntity
  8
90000_FRAME
370
    13
  6
CONTINUOUS
 62
     7
100
AcDbCircle
 10
450.229971
 20
225.506124
 30
0.0
 40
2.598383
100
AcDbArc
 50
222.776039
 51
239.036243
  0
ARC
  5
159B
100
AcDbEntity
  8
90000_FRAME
370
    13
  6
CONTINUOUS
 62
     7
100
AcDbCircle
 10
442.709842
 20
203.515307
 30
0.0
 40
20.576321
100
AcDbArc
 50
59.902027
 51
68.203648
  0
ARC
  5
159C
100
AcDbEntity
  8
90000_FRAME
370
    13
  6
CONTINUOUS
 62
     7
100
AcDbCircle
 10
452.935326
 20
230.292967
 30
0.0
 40
8.096223
100
AcDbArc
 50
240.0482
 51
251.377967
  0
ARC
  5
159D
100
AcDbEntity
  8
90000_FRAME
370
    13
  6
CONTINUOUS
 62
     7
100
AcDbCircle
 10
450.938954
 20
217.822271
 30
0.0
 40
4.300342
100
AcDbArc
 50
315.890455
 51
333.522926
  0
ARC
  5
159E
100
AcDbEntity
  8
90000_FRAME
370
    13
  6
CONTINUOUS
 62
     7
100
AcDbCircle
 10
450.952869
 20
217.662049
 30
0.0
 40
4.218686
100
AcDbArc
 50
335.386797
 51
24.391512
  0
ARC
  5
159F
100
AcDbEntity
  8
90000_FRAME
370
    13
  6
CONTINUOUS
 62
     7
100
AcDbCircle
 10
450.736254
 20
217.428479
 30
0.0
 40
4.514108
100
AcDbArc
 50
25.956292
 51
59.483483
  0
LINE
  5
15A0
100
AcDbEntity
  8
90000_FRAME
370
    13
  6
CONTINUOUS
 62
     7
100
AcDbLine
 10
361.409196
 20
213.759607
 30
0.0
 11
361.409196
 21
216.611569
 31
0.0
  0
LINE
  5
15A1
100
AcDbEntity
  8
90000_FRAME
370
    13
  6
CONTINUOUS
 62
     7
100
AcDbLine
 10
371.391062
 20
224.739659
 30
0.0
 11
371.391062
 21
227.591621
 31
0.0
  0
ARC
  5
15A2
100
AcDbEntity
  8
90000_FRAME
370
    13
  6
CONTINUOUS
 62
     7
100
AcDbCircle
 10
366.52312
 20
219.345887
 30
0.0
 40
3.334858
100
AcDbArc
 50
277.709996
 51
295.688493
  0
ARC
  5
15A3
100
AcDbEntity
  8
90000_FRAME
370
    13
  6
CONTINUOUS
 62
     7
100
AcDbCircle
 10
367.37605
 20
217.17141
 30
0.0
 40
1.020507
100
AcDbArc
 50
305.503221
 51
72.46529
  0
ARC
  5
15A4
100
AcDbEntity
  8
90000_FRAME
370
    13
  6
CONTINUOUS
 62
     7
100
AcDbCircle
 10
365.678068
 20
227.37653
 30
0.0
 40
14.270384
100
AcDbArc
 50
252.59392
 51
280.98166
  0
ARC
  5
15A5
100
AcDbEntity
  8
90000_FRAME
370
    13
  6
CONTINUOUS
 62
     7
100
AcDbCircle
 10
367.042574
 20
219.522489
 30
0.0
 40
6.30218
100
AcDbArc
 50
282.405836
 51
311.864443
  0
ARC
  5
15A6
100
AcDbEntity
  8
90000_FRAME
370
    13
  6
CONTINUOUS
 62
     7
100
AcDbCircle
 10
366.221881
 20
224.347514
 30
0.0
 40
0.908888
100
AcDbArc
 50
154.440035
 51
221.82017
  0
ARC
  5
15A7
100
AcDbEntity
  8
90000_FRAME
370
    13
  6
CONTINUOUS
 62
     7
100
AcDbCircle
 10
366.459545
 20
224.109851
 30
0.0
 40
1.230927
100
AcDbArc
 50
102.828783
 51
149.225964
  0
ARC
  5
15A8
100
AcDbEntity
  8
90000_FRAME
370
    13
  6
CONTINUOUS
 62
     7
100
AcDbCircle
 10
367.710625
 20
218.882845
 30
0.0
 40
6.60551
100
AcDbArc
 50
84.040006
 51
103.342766
  0
ARC
  5
15A9
100
AcDbEntity
  8
90000_FRAME
370
    13
  6
CONTINUOUS
 62
     7
100
AcDbCircle
 10
366.687734
 20
211.630753
 30
0.0
 40
13.927121
100
AcDbArc
 50
70.262586
 51
82.952419
  0
ARC
  5
15AA
100
AcDbEntity
  8
90000_FRAME
370
    13
  6
CONTINUOUS
 62
     7
100
AcDbCircle
 10
365.145679
 20
225.645622
 30
0.0
 40
9.776268
100
AcDbArc
 50
247.530021
 51
280.757952
  0
ARC
  5
15AB
100
AcDbEntity
  8
90000_FRAME
370
    13
  6
CONTINUOUS
 62
     7
100
AcDbCircle
 10
345.99078
 20
170.891062
 30
0.0
 40
51.994825
100
AcDbArc
 50
65.341467
 51
67.399777
  0
ARC
  5
15AC
100
AcDbEntity
  8
90000_FRAME
370
    13
  6
CONTINUOUS
 62
     7
100
AcDbCircle
 10
378.378367
 20
248.268341
 30
0.0
 40
31.887493
100
AcDbArc
 50
242.86201
 51
247.104203
  0
ARC
  5
15AD
100
AcDbEntity
  8
90000_FRAME
370
    13
  6
CONTINUOUS
 62
     7
100
AcDbCircle
 10
366.813663
 20
225.666547
 30
0.0
 40
6.498875
100
AcDbArc
 50
227.311928
 51
242.704032
  0
ARC
  5
15AE
100
AcDbEntity
  8
90000_FRAME
370
    13
  6
CONTINUOUS
 62
     7
100
AcDbCircle
 10
365.001571
 20
223.549514
 30
0.0
 40
3.715565
100
AcDbArc
 50
194.795219
 51
225.717655
  0
ARC
  5
15AF
100
AcDbEntity
  8
90000_FRAME
370
    13
  6
CONTINUOUS
 62
     7
100
AcDbCircle
 10
366.859117
 20
221.005372
 30
0.0
 40
7.100774
100
AcDbArc
 50
86.221802
 51
120.42726
  0
ARC
  5
15B0
100
AcDbEntity
  8
90000_FRAME
370
    13
  6
CONTINUOUS
 62
     7
100
AcDbCircle
 10
366.052546
 20
200.916869
 30
0.0
 40
27.203715
100
AcDbArc
 50
78.682705
 51
87.31476
  0
ARC
  5
15B1
100
AcDbEntity
  8
90000_FRAME
370
    13
  6
CONTINUOUS
 62
     7
100
AcDbCircle
 10
365.720267
 20
223.072952
 30
0.0
 40
4.74164
100
AcDbArc
 50
121.214095
 51
141.525477
  0
ARC
  5
15B2
100
AcDbEntity
  8
90000_FRAME
370
    13
  6
CONTINUOUS
 62
     7
100
AcDbCircle
 10
367.45179
 20
225.506124
 30
0.0
 40
2.598383
100
AcDbArc
 50
222.776039
 51
239.036243
  0
ARC
  5
15B3
100
AcDbEntity
  8
90000_FRAME
370
    13
  6
CONTINUOUS
 62
     7
100
AcDbCircle
 10
359.931661
 20
203.515307
 30
0.0
 40
20.576321
100
AcDbArc
 50
59.902027
 51
68.203648
  0
ARC
  5
15B4
100
AcDbEntity
  8
90000_FRAME
370
    13
  6
CONTINUOUS
 62
     7
100
AcDbCircle
 10
370.157145
 20
230.292967
 30
0.0
 40
8.096223
100
AcDbArc
 50
240.0482
 51
251.377967
  0
ARC
  5
15B5
100
AcDbEntity
  8
90000_FRAME
370
    13
  6
CONTINUOUS
 62
     7
100
AcDbCircle
 10
368.160773
 20
217.822271
 30
0.0
 40
4.300342
100
AcDbArc
 50
315.890455
 51
333.522926
  0
ARC
  5
15B6
100
AcDbEntity
  8
90000_FRAME
370
    13
  6
CONTINUOUS
 62
     7
100
AcDbCircle
 10
368.174688
 20
217.662049
 30
0.0
 40
4.218686
100
AcDbArc
 50
335.386797
 51
24.391512
  0
ARC
  5
15B7
100
AcDbEntity
  8
90000_FRAME
370
    13
  6
CONTINUOUS
 62
     7
100
AcDbCircle
 10
367.958073
 20
217.428479
 30
0.0
 40
4.514108
100
AcDbArc
 50
25.956292
 51
59.483483
  0
LINE
  5
15B8
100
AcDbEntity
  8
90000_FRAME
370
    13
  6
CONTINUOUS
 62
     7
100
AcDbLine
 10
361.984682
 20
225.991802
 30
0.0
 11
362.80688
 21
226.814021
 31
0.0
  0
ARC
  5
15B9
100
AcDbEntity
  8
90000_FRAME
370
    13
  6
CONTINUOUS
 62
     7
100
AcDbCircle
 10
365.188045
 20
223.670174
 30
0.0
 40
3.927276
100
AcDbArc
 50
164.197486
 51
195.802514
  0
ARC
  5
15BA
100
AcDbEntity
  8
90000_FRAME
370
    13
  6
CONTINUOUS
 62
     7
100
AcDbCircle
 10
364.684339
 20
223.992697
 30
0.0
 40
3.359242
100
AcDbArc
 50
142.813918
 51
167.152295
  0
TEXT
  5
15BB
100
AcDbEntity
  8
90000_FRAME
370
    13
  6
CONTINUOUS
 62
     7
100
AcDbText
 10
696.0
 20
199.1907
 30
0.0
 40
6.6
  1
1:3
 41
0.9
100
AcDbText
  0
TEXT
  5
15BC
100
AcDbEntity
  8
90000_FRAME
370
    13
  6
CONTINUOUS
 62
     7
100
AcDbText
 10
486.0
 20
216.6
 30
0.0
 40
6.6
  1
3RW4055_00002726_002_ALL.dxf
 41
0.784213
100
AcDbText
  0
ENDSEC
  0
SECTION
  2
OBJECTS
  0
DICTIONARY
  5
FE4
100
AcDbDictionary
280
     0
281
     1
  3
ACAD_GROUP
350
FE5
  3
ACAD_MLINESTYLE
350
FE6
  0
DICTIONARY
  5
FE5
102
{ACAD_REACTORS
330
FE4
102
}
100
AcDbDictionary
280
     0
281
     1
  0
DICTIONARY
  5
FE6
102
{ACAD_REACTORS
330
FE4
102
}
100
AcDbDictionary
280
     0
281
     1
  3
Standard
350
FE7
  0
MLINESTYLE
  5
FE7
102
{ACAD_REACTORS
330
FE6
102
}
100
AcDbMlineStyle
  2
Standard
 70
     0
  3

 62
     0
 51
90.0
 52
90.0
 71
     2
 49
0.5
 62
   256
  6
ByLayer
 49
-0.5
 62
   256
  6
ByLayer
  0
ENDSEC
  0
EOF
