  0
SECTION
  2
HEADER
  9
$ACADVER
  1
AC1015
  9
$ACADMAINTVER
 70
     6
  9
$DWGCODEPAGE
  3
ANSI_1252
  9
$INSBASE
 10
0.0
 20
0.0
 30
0.0
  9
$EXTMIN
 10
69.395417
 20
287.976483
 30
-1.0
  9
$EXTMAX
 10
1026.514554
 20
492.804657
 30
0.7
  9
$LIMMIN
 10
0.0
 20
0.0
  9
$LIMMAX
 10
12.0
 20
9.0
  9
$ORTHOMODE
 70
     0
  9
$REGENMODE
 70
     1
  9
$FILLMODE
 70
     1
  9
$QTEXTMODE
 70
     0
  9
$MIRRTEXT
 70
     0
  9
$LTSCALE
 40
15.0
  9
$ATTMODE
 70
     1
  9
$TEXTSIZE
 40
0.2
  9
$TRACEWID
 40
0.05
  9
$TEXTSTYLE
  7
STANDARD
  9
$CLAYER
  8
0
  9
$CELTYPE
  6
ByLayer
  9
$CECOLOR
 62
   256
  9
$CELTSCALE
 40
1.0
  9
$DISPSILH
 70
     0
  9
$DIMSCALE
 40
1.0
  9
$DIMASZ
 40
0.18
  9
$DIMEXO
 40
0.0625
  9
$DIMDLI
 40
0.38
  9
$DIMRND
 40
0.0
  9
$DIMDLE
 40
0.0
  9
$DIMEXE
 40
0.18
  9
$DIMTP
 40
0.0
  9
$DIMTM
 40
0.0
  9
$DIMTXT
 40
0.18
  9
$DIMCEN
 40
0.09
  9
$DIMTSZ
 40
0.0
  9
$DIMTOL
 70
     0
  9
$DIMLIM
 70
     0
  9
$DIMTIH
 70
     1
  9
$DIMTOH
 70
     1
  9
$DIMSE1
 70
     0
  9
$DIMSE2
 70
     0
  9
$DIMTAD
 70
     0
  9
$DIMZIN
 70
     0
  9
$DIMBLK
  1

  9
$DIMASO
 70
     1
  9
$DIMSHO
 70
     1
  9
$DIMPOST
  1

  9
$DIMAPOST
  1

  9
$DIMALT
 70
     0
  9
$DIMALTD
 70
     2
  9
$DIMALTF
 40
25.4
  9
$DIMLFAC
 40
1.0
  9
$DIMTOFL
 70
     0
  9
$DIMTVP
 40
0.0
  9
$DIMTIX
 70
     0
  9
$DIMSOXD
 70
     0
  9
$DIMSAH
 70
     0
  9
$DIMBLK1
  1

  9
$DIMBLK2
  1

  9
$DIMSTYLE
  2
STANDARD
  9
$DIMCLRD
 70
     0
  9
$DIMCLRE
 70
     0
  9
$DIMCLRT
 70
     0
  9
$DIMTFAC
 40
1.0
  9
$DIMGAP
 40
0.09
  9
$DIMJUST
 70
     0
  9
$DIMSD1
 70
     0
  9
$DIMSD2
 70
     0
  9
$DIMTOLJ
 70
     1
  9
$DIMTZIN
 70
     0
  9
$DIMALTZ
 70
     0
  9
$DIMALTTZ
 70
     0
  9
$DIMUPT
 70
     0
  9
$DIMDEC
 70
     4
  9
$DIMTDEC
 70
     4
  9
$DIMALTU
 70
     2
  9
$DIMALTTD
 70
     2
  9
$DIMTXSTY
  7
STANDARD
  9
$DIMAUNIT
 70
     0
  9
$DIMADEC
 70
     0
  9
$DIMALTRND
 40
0.0
  9
$DIMAZIN
 70
     0
  9
$DIMDSEP
 70
     0
  9
$DIMATFIT
 70
     3
  9
$DIMFRAC
 70
     0
  9
$DIMLDRBLK
  1

  9
$DIMLUNIT
 70
     2
  9
$DIMLWD
 70
     0
  9
$DIMLWE
 70
     0
  9
$DIMTMOVE
 70
     0
  9
$LUNITS
 70
     2
  9
$LUPREC
 70
     4
  9
$SKETCHINC
 40
0.1
  9
$FILLETRAD
 40
0.0
  9
$AUNITS
 70
     0
  9
$AUPREC
 70
     0
  9
$MENU
  1
.
  9
$ELEVATION
 40
0.0
  9
$PELEVATION
 40
0.0
  9
$THICKNESS
 40
0.0
  9
$LIMCHECK
 70
     0
  9
$CHAMFERA
 40
0.0
  9
$CHAMFERB
 40
0.0
  9
$CHAMFERC
 40
0.0
  9
$CHAMFERD
 40
0.0
  9
$SKPOLY
 70
     0
  9
$TDCREATE
 40
2453353.758792454
  9
$TDUCREATE
 40
0.000000000
  9
$TDUPDATE
 40
0.000000000
  9
$TDUUPDATE
 40
2447892.958333334
  9
$TDINDWG
 40
19583144.0627810880
  9
$TDUSRTIMER
 40
0.0000000000
  9
$USRTIMER
 70
     1
  9
$ANGBASE
 50
0.0
  9
$ANGDIR
 70
     0
  9
$PDMODE
 70
     0
  9
$PDSIZE
 40
0.0
  9
$PLINEWID
 40
0.0
  9
$SPLFRAME
 70
     0
  9
$SPLINETYPE
 70
     6
  9
$SPLINESEGS
 70
     8
  9
$HANDSEED
  5
154D
  9
$SURFTAB1
 70
     6
  9
$SURFTAB2
 70
     6
  9
$SURFTYPE
 70
     6
  9
$SURFU
 70
     6
  9
$SURFV
 70
     6
  9
$UCSBASE
  2

  9
$UCSNAME
  2

  9
$UCSORG
 10
0.0
 20
0.0
 30
0.0
  9
$UCSXDIR
 10
1.0
 20
0.0
 30
0.0
  9
$UCSYDIR
 10
0.0
 20
1.0
 30
0.0
  9
$UCSORTHOREF
  2

  9
$UCSORTHOVIEW
 70
     0
  9
$UCSORGTOP
 10
0.0
 20
0.0
 30
0.0
  9
$UCSORGBOTTOM
 10
0.0
 20
0.0
 30
0.0
  9
$UCSORGLEFT
 10
0.0
 20
0.0
 30
0.0
  9
$UCSORGRIGHT
 10
0.0
 20
0.0
 30
0.0
  9
$UCSORGFRONT
 10
0.0
 20
0.0
 30
0.0
  9
$UCSORGBACK
 10
0.0
 20
0.0
 30
0.0
  9
$PUCSBASE
  2

  9
$PUCSNAME
  2

  9
$PUCSORG
 10
0.0
 20
0.0
 30
0.0
  9
$PUCSXDIR
 10
1.0
 20
0.0
 30
0.0
  9
$PUCSYDIR
 10
0.0
 20
1.0
 30
0.0
  9
$PUCSORTHOREF
  2

  9
$PUCSORTHOVIEW
 70
     0
  9
$PUCSORGTOP
 10
0.0
 20
0.0
 30
0.0
  9
$PUCSORGBOTTOM
 10
0.0
 20
0.0
 30
0.0
  9
$PUCSORGLEFT
 10
0.0
 20
0.0
 30
0.0
  9
$PUCSORGRIGHT
 10
0.0
 20
0.0
 30
0.0
  9
$PUCSORGFRONT
 10
0.0
 20
0.0
 30
0.0
  9
$PUCSORGBACK
 10
0.0
 20
0.0
 30
0.0
  9
$USERI1
 70
     0
  9
$USERI2
 70
     0
  9
$USERI3
 70
     0
  9
$USERI4
 70
     0
  9
$USERI5
 70
     0
  9
$USERR1
 40
0.0
  9
$USERR2
 40
0.0
  9
$USERR3
 40
0.0
  9
$USERR4
 40
0.0
  9
$USERR5
 40
0.0
  9
$WORLDVIEW
 70
     1
  9
$SHADEDGE
 70
     3
  9
$SHADEDIF
 70
    70
  9
$TILEMODE
 70
     1
  9
$MAXACTVP
 70
    64
  9
$PINSBASE
 10
0.0
 20
0.0
 30
0.0
  9
$PLIMCHECK
 70
     0
  9
$PEXTMIN
 10
0.0
 20
0.0
 30
0.0
  9
$PEXTMAX
 10
0.0
 20
0.0
 30
0.0
  9
$PLIMMIN
 10
0.0
 20
0.0
  9
$PLIMMAX
 10
0.0
 20
0.0
  9
$UNITMODE
 70
     0
  9
$VISRETAIN
 70
     1
  9
$PLINEGEN
 70
     0
  9
$PSLTSCALE
 70
     1
  9
$TREEDEPTH
 70
  3020
  9
$CMLSTYLE
  2
Standard
  9
$CMLJUST
 70
     0
  9
$CMLSCALE
 40
1.0
  9
$PROXYGRAPHICS
 70
     0
  9
$MEASUREMENT
 70
     0
  9
$CELWEIGHT
370
     0
  9
$ENDCAPS
280
     0
  9
$JOINSTYLE
280
     0
  9
$LWDISPLAY
290
     0
  9
$INSUNITS
 70
     0
  9
$HYPERLINKBASE
  1

  9
$STYLESHEET
  1

  9
$XEDIT
290
     1
  9
$CEPSNTYPE
380
     0
  9
$PSTYLEMODE
290
     1
  9
$FINGERPRINTGUID
  2

  9
$VERSIONGUID
  2

  9
$EXTNAMES
290
     1
  9
$PSVPSCALE
 40
0.0
  0
ENDSEC
  0
SECTION
  2
CLASSES
  0
CLASS
  1
LWPOLYLINE
  2
AcDbPolyline
  3
AutoCAD 2000
 90
        0
280
     0
281
     1
  0
CLASS
  1
IMAGE
  2
AcDbRasterImage
  3
ISM
 90
      127
280
     0
281
     1
  0
CLASS
  1
OLE2FRAME
  2
AcDbOle2Frame
  3
AutoCAD 2000
 90
        0
280
     0
281
     1
  0
CLASS
  1
HATCH
  2
AcDbHatch
  3
AutoCAD 2000
 90
        0
280
     0
281
     1
  0
CLASS
  1
DICTIONARYVAR
  2
AcDbDictionaryVar
  3
AutoCAD 2000
 90
        0
280
     0
281
     0
  0
CLASS
  1
RASTERVARIABLES
  2
AcDbRasterVariables
  3
ISM
 90
        0
280
     0
281
     0
  0
CLASS
  1
IMAGEDEF
  2
AcDbRasterImageDef
  3
ISM
 90
        0
280
     0
281
     0
  0
CLASS
  1
IMAGEDEF_REACTOR
  2
AcDbRasterImageDefReactor
  3
ISM
 90
        1
280
     0
281
     0
  0
CLASS
  1
IDBUFFER
  2
AcDbIdBuffer
  3
AutoCAD 2000
 90
        0
280
     0
281
     0
  0
CLASS
  1
SPATIAL_FILTER
  2
AcDbSpatialFilter
  3
AutoCAD 2000
 90
        0
280
     0
281
     0
  0
CLASS
  1
XRECORD
  2
AcDbXrecord
  3
AutoCAD 2000
 90
        0
280
     0
281
     0
  0
CLASS
  1
SORTENTSTABLE
  2
AcDbSortentsTable
  3
AutoCAD 2000
 90
        0
280
     0
281
     0
  0
CLASS
  1
LAYER_INDEX
  2
AcDbLayerIndex
  3
AutoCAD 2000
 90
        0
280
     0
281
     0
  0
CLASS
  1
SPATIAL_INDEX
  2
AcDbSpatialIndex
  3
AutoCAD 2000
 90
        0
280
     0
281
     0
  0
CLASS
  1
OBJECT_PTR
  2
CAseDLPNTableRecord
  3
"ASE-LPNTableRecord"
 90
        1
280
     0
281
     0
  0
CLASS
  1
LAYOUT
  2
AcDbLayout
  3
AutoCAD 2000
 90
        0
280
     0
281
     0
  0
CLASS
  1
PLOTSETTINGS
  2
AcDbPlotSettings
  3
AutoCAD 2000
 90
        0
280
     0
281
     0
  0
CLASS
  1
ACDBDICTIONARYWDFLT
  2
AcDbDictionaryWithDefault
  3
AutoCAD 2000
 90
        0
280
     0
281
     0
  0
CLASS
  1
ACDBPLACEHOLDER
  2
AcDbPlaceHolder
  3
AutoCAD 2000
 90
        0
280
     0
281
     0
  0
CLASS
  1
VBA_PROJECT
  2
AcDbVbaProject
  3
acadvba
 90
        0
280
     0
281
     0
  0
CLASS
  1
WIPEOUT
  2
AcDbWipeout
  3
WipeOut|AutoCAD Express Tool|expresstools@autodesk.com
 90
      127
280
     0
281
     1
  0
CLASS
  1
WIPEOUTVARIABLES
  2
AcDbWipeoutVariables
  3
WipeOut|AutoCAD Express Tool|expresstools@autodesk.com
 90
        0
280
     0
281
     0
  0
CLASS
  1
RTEXT
  2
RText
  3
RText|AutoCAD Express Tool|expresstools@autodesk.com
 90
        0
280
     0
281
     1
  0
CLASS
  1
ARCALIGNEDTEXT
  2
AcDbArcAlignedText
  3
ATEXT|AutoCAD Express Tool|expresstools@autodesk.com
 90
        0
280
     0
281
     1
  0
ENDSEC
  0
SECTION
  2
TABLES
  0
TABLE
  2
VPORT
  5
FB2
100
AcDbSymbolTable
 70
     1
  0
VPORT
  5
FD1
100
AcDbSymbolTableRecord
100
AcDbViewportTableRecord
  2
*ACTIVE
 70
     0
 10
0.0
 20
0.0
 11
1.0
 21
1.0
 12
450.328833
 22
266.374849
 13
0.0
 23
0.0
 14
0.5
 24
0.5
 15
0.5
 25
0.5
 16
0.0
 26
0.0
 36
1.0
 17
0.0
 27
0.0
 37
0.0
 40
620.078606
 41
1.701534
 42
50.0
 43
0.0
 44
0.0
 50
0.0
 51
0.0
 71
    16
 72
  1000
 73
     1
 74
     3
 75
     0
 76
     0
 77
     0
 78
     0
281
     0
 65
     0
110
0.0
120
0.0
130
0.0
111
1.0
121
0.0
131
0.0
112
0.0
122
1.0
132
0.0
345
0
346
0
 79
     0
146
0.0
  0
ENDTAB
  0
TABLE
  2
LTYPE
  5
FAF
100
AcDbSymbolTable
 70
     6
  0
LTYPE
  5
FB8
100
AcDbSymbolTableRecord
100
AcDbLinetypeTableRecord
  2
ByBlock
 70
    64
  3

 72
    65
 73
     0
 40
0.0
  0
LTYPE
  5
FB9
100
AcDbSymbolTableRecord
100
AcDbLinetypeTableRecord
  2
ByLayer
 70
    64
  3

 72
    65
 73
     0
 40
0.0
  0
LTYPE
  5
FBA
100
AcDbSymbolTableRecord
100
AcDbLinetypeTableRecord
  2
CONTINUOUS
 70
     0
  3
Solid line
 72
    65
 73
     0
 40
0.0
  0
LTYPE
  5
FBB
100
AcDbSymbolTableRecord
100
AcDbLinetypeTableRecord
  2
CENTER
 70
     0
  3
____ _ ____ _ ____ _ ____ _ ____ _ ____ _ ____
 72
    65
 73
     4
 40
0.6
 49
0.375
 74
     0
 49
-0.075
 74
     0
 49
0.075
 74
     0
 49
-0.075
 74
     0
  0
LTYPE
  5
FBC
100
AcDbSymbolTableRecord
100
AcDbLinetypeTableRecord
  2
ACAD_ISO02W100
 70
     0
  3
ISO Strichlinie __ __ __ __ __ __ __ __ __ __ _
 72
    65
 73
     2
 40
15.0
 49
12.0
 74
     0
 49
-3.0
 74
     0
  0
LTYPE
  5
FBD
100
AcDbSymbolTableRecord
100
AcDbLinetypeTableRecord
  2
DASHED
 70
     0
  3
_ _ _ _ _ _ _ _ _ _ _ _ _ _ _ _ _ _ _ _ _ _ _ _
 72
    65
 73
     2
 40
0.375
 49
0.25
 74
     0
 49
-0.125
 74
     0
  0
ENDTAB
  0
TABLE
  2
LAYER
  5
FAD
100
AcDbSymbolTable
 70
    10
  0
LAYER
  5
FBE
100
AcDbSymbolTableRecord
100
AcDbLayerTableRecord
  2
0
 70
     0
 62
     7
  6
CONTINUOUS
290
     1
370
    -3
390
0
  0
LAYER
  5
FBF
100
AcDbSymbolTableRecord
100
AcDbLayerTableRecord
  2
90000_FRAME
 70
     0
 62
     7
  6
CONTINUOUS
290
     1
370
    -3
390
0
  0
LAYER
  5
FC0
100
AcDbSymbolTableRecord
100
AcDbLayerTableRecord
  2
91000_TIP
 70
     0
 62
     7
  6
CONTINUOUS
290
     1
370
    -3
390
0
  0
LAYER
  5
FC1
100
AcDbSymbolTableRecord
100
AcDbLayerTableRecord
  2
10000_FRONT
 70
     0
 62
     7
  6
CONTINUOUS
290
     1
370
    -3
390
0
  0
LAYER
  5
FC2
100
AcDbSymbolTableRecord
100
AcDbLayerTableRecord
  2
11000_LEFT
 70
     0
 62
     7
  6
CONTINUOUS
290
     1
370
    -3
390
0
  0
LAYER
  5
FC5
100
AcDbSymbolTableRecord
100
AcDbLayerTableRecord
  2
DEFPOINTS
 70
     0
 62
     7
  6
CONTINUOUS
290
     0
370
    -3
390
0
  0
LAYER
  5
FC6
100
AcDbSymbolTableRecord
100
AcDbLayerTableRecord
  2
10100_FRONT_DIM
 70
     0
 62
     7
  6
CONTINUOUS
290
     1
370
    -3
390
0
  0
LAYER
  5
FC7
100
AcDbSymbolTableRecord
100
AcDbLayerTableRecord
  2
11100_LEFT_DIM
 70
     0
 62
     7
  6
CONTINUOUS
290
     1
370
    -3
390
0
  0
LAYER
  5
FCF
100
AcDbSymbolTableRecord
100
AcDbLayerTableRecord
  2
15000_BACK
 70
     0
 62
     7
  6
CONTINUOUS
290
     1
370
    -3
390
0
  0
LAYER
  5
FD0
100
AcDbSymbolTableRecord
100
AcDbLayerTableRecord
  2
15100_BACK_DIM
 70
     0
 62
     7
  6
CONTINUOUS
290
     1
370
    -3
390
0
  0
ENDTAB
  0
TABLE
  2
STYLE
  5
FAE
100
AcDbSymbolTable
 70
     1
  0
STYLE
  5
FD5
100
AcDbSymbolTableRecord
100
AcDbTextStyleTableRecord
  2
STANDARD
 70
     0
 40
0.0
 41
1.0
 50
0.0
 71
     0
 42
0.2
  3
txt.shx
  4

  0
ENDTAB
  0
TABLE
  2
VIEW
  5
FB0
100
AcDbSymbolTable
 70
     0
  0
ENDTAB
  0
TABLE
  2
UCS
  5
FB1
100
AcDbSymbolTable
 70
     0
  0
ENDTAB
  0
TABLE
  2
APPID
  5
FB3
100
AcDbSymbolTable
 70
     3
  0
APPID
  5
FD2
100
AcDbSymbolTableRecord
100
AcDbRegAppTableRecord
  2
ACAD
 70
     0
  0
APPID
  5
FD3
100
AcDbSymbolTableRecord
100
AcDbRegAppTableRecord
  2
AUSTER_ANSICHT
 70
     0
  0
APPID
  5
FD4
100
AcDbSymbolTableRecord
100
AcDbRegAppTableRecord
  2
AUSTER_FOLIE
 70
     0
  0
ENDTAB
  0
TABLE
  2
DIMSTYLE
  5
FB4
100
AcDbSymbolTable
 70
     3
100
AcDbDimStyleTable
 71
     0
  0
DIMSTYLE
105
FDF
100
AcDbSymbolTableRecord
100
AcDbDimStyleTableRecord
  2
STANDARD
 70
     0
  3

  4

 40
1.0
 41
0.18
 42
0.0625
 43
0.38
 44
0.18
 45
0.0
 46
0.0
 47
0.0
 48
0.0
 71
     0
 72
     0
 73
     1
 74
     1
 75
     0
 76
     0
 77
     0
 78
     0
 79
     0
140
0.18
141
0.09
142
0.0
143
25.4
144
1.0
145
0.0
146
1.0
147
0.09
148
0.0
170
     0
171
     2
172
     0
173
     0
174
     0
175
     0
176
     0
177
     0
178
     0
179
     0
271
     4
272
     4
273
     2
274
     2
275
     0
276
     0
277
     2
278
    46
279
     0
280
     0
281
     0
282
     0
283
     1
284
     0
285
     0
286
     0
288
     0
289
     3
340
FD5
341
0
342
0
343
0
344
0
371
    -2
372
    -2
  0
DIMSTYLE
105
FE0
100
AcDbSymbolTableRecord
100
AcDbDimStyleTableRecord
  2
DSTYLE1
 70
     0
  3

  4

 40
1.0
 41
3.0
 42
0.0
 43
0.38
 44
1.0
 45
0.0
 46
0.0
 47
0.0
 48
0.0
 71
     0
 72
     0
 73
     0
 74
     0
 75
     0
 76
     0
 77
     1
 78
     3
 79
     0
140
2.5
141
0.09
142
0.0
143
0.03937
144
1.0
145
0.0
146
1.0
147
1.0
148
0.0
170
     0
171
     2
172
     0
173
     0
174
     0
175
     0
176
     0
177
     0
178
     0
179
     0
271
     4
272
     4
273
     2
274
     2
275
     0
276
     0
277
     2
278
    46
279
     0
280
     0
281
     0
282
     0
283
     1
284
     0
285
     0
286
     0
288
     0
289
     3
340
FD5
341
0
342
0
343
0
344
0
371
    -2
372
    -2
  0
DIMSTYLE
105
FE1
100
AcDbSymbolTableRecord
100
AcDbDimStyleTableRecord
  2
H035
 70
     0
  3

  4

 40
0.0
 41
3.5
 42
0.0
 43
3.75
 44
2.0
 45
0.0
 46
0.0
 47
0.0
 48
0.0
 71
     0
 72
     0
 73
     0
 74
     0
 75
     0
 76
     0
 77
     1
 78
     8
 79
     0
140
3.5
141
2.5
142
0.0
143
0.039
144
1.0
145
0.0
146
1.0
147
0.5
148
0.0
170
     0
171
     4
172
     1
173
     0
174
     0
175
     0
176
   256
177
     7
178
     7
179
     0
271
     4
272
     4
273
     2
274
     2
275
     0
276
     0
277
     2
278
    46
279
     0
280
     0
281
     0
282
     0
283
     1
284
     0
285
     0
286
     0
288
     0
289
     3
340
FD5
341
0
342
0
343
0
344
0
371
    -2
372
    -2
  0
ENDTAB
  0
TABLE
  2
BLOCK_RECORD
  5
FDA
100
AcDbSymbolTable
 70
     2
  0
BLOCK_RECORD
  5
FD8
100
AcDbSymbolTableRecord
100
AcDbBlockTableRecord
  2
*Model_Space
340
0
  0
BLOCK_RECORD
  5
FD9
100
AcDbSymbolTableRecord
100
AcDbBlockTableRecord
  2
*Paper_Space
340
0
  0
BLOCK_RECORD
  5
FD6
100
AcDbSymbolTableRecord
100
AcDbBlockTableRecord
  2
$MODEL_SPACE
340
0
  0
BLOCK_RECORD
  5
FD7
100
AcDbSymbolTableRecord
100
AcDbBlockTableRecord
  2
$PAPER_SPACE
340
0
  0
ENDTAB
  0
ENDSEC
  0
SECTION
  2
BLOCKS
  0
BLOCK
  5
FDB
100
AcDbEntity
  8
0
390
0
100
AcDbBlockBegin
  2
*Model_Space
 70
     0
 10
0.0
 20
0.0
 30
0.0
  3
*Model_Space
  1

  0
ENDBLK
  5
FDC
100
AcDbEntity
  8
0
390
0
100
AcDbBlockEnd
  0
BLOCK
  5
FDD
100
AcDbEntity
 67
     1
  8
0
390
0
100
AcDbBlockBegin
  2
*Paper_Space
 70
     0
 10
0.0
 20
0.0
 30
0.0
  3
*Paper_Space
  1

  0
ENDBLK
  5
FDE
100
AcDbEntity
 67
     1
  8
0
390
0
100
AcDbBlockEnd
  0
BLOCK
  5
FE2
100
AcDbEntity
  8
0
100
AcDbBlockBegin
  2
$MODEL_SPACE
 70
     0
 10
0.0
 20
0.0
 30
0.0
  3
$MODEL_SPACE
  1

  0
ENDBLK
  5
21
100
AcDbEntity
  8
0
100
AcDbBlockEnd
  0
BLOCK
  5
FE3
100
AcDbEntity
  8
0
100
AcDbBlockBegin
  2
$PAPER_SPACE
 70
     0
 10
0.0
 20
0.0
 30
0.0
  3
$PAPER_SPACE
  1

  0
ENDBLK
  5
76
100
AcDbEntity
  8
0
100
AcDbBlockEnd
  0
ENDSEC
  0
SECTION
  2
ENTITIES
  0
LINE
  5
FE9
100
AcDbEntity
  8
10000_FRONT
370
    25
390
0
  6
CONTINUOUS
 62
     7
100
AcDbLine
 10
318.638397
 20
697.200003
 30
0.0
 11
318.638397
 21
699.200003
 31
0.0
  0
LINE
  5
FEA
100
AcDbEntity
  8
10000_FRONT
370
    25
390
0
  6
CONTINUOUS
 62
     7
100
AcDbLine
 10
323.238397
 20
699.200003
 30
0.0
 11
323.238397
 21
697.200003
 31
0.0
  0
LINE
  5
FEB
100
AcDbEntity
  8
10000_FRONT
370
    25
390
0
  6
CONTINUOUS
 62
     7
100
AcDbLine
 10
336.138397
 20
697.200003
 30
0.0
 11
336.138397
 21
699.200003
 31
0.0
  0
LINE
  5
FEC
100
AcDbEntity
  8
10000_FRONT
370
    25
390
0
  6
CONTINUOUS
 62
     7
100
AcDbLine
 10
336.138397
 20
697.200003
 30
0.0
 11
323.238397
 21
697.200003
 31
0.0
  0
LINE
  5
FED
100
AcDbEntity
  8
10000_FRONT
370
    25
390
0
  6
CONTINUOUS
 62
     7
100
AcDbLine
 10
340.738397
 20
699.200003
 30
0.0
 11
340.738397
 21
697.200003
 31
0.0
  0
LINE
  5
FEE
100
AcDbEntity
  8
10000_FRONT
370
    25
390
0
  6
CONTINUOUS
 62
     7
100
AcDbLine
 10
303.938397
 20
697.200003
 30
0.0
 11
303.938397
 21
699.200003
 31
0.0
  0
LINE
  5
FEF
100
AcDbEntity
  8
10000_FRONT
370
    25
390
0
  6
CONTINUOUS
 62
     7
100
AcDbLine
 10
318.638397
 20
697.200003
 30
0.0
 11
303.938397
 21
697.200003
 31
0.0
  0
LINE
  5
FF0
100
AcDbEntity
  8
10000_FRONT
370
    25
390
0
  6
CONTINUOUS
 62
     7
100
AcDbLine
 10
355.438397
 20
699.200003
 30
0.0
 11
355.438397
 21
697.200003
 31
0.0
  0
LINE
  5
FF1
100
AcDbEntity
  8
10000_FRONT
370
    25
390
0
  6
CONTINUOUS
 62
     7
100
AcDbLine
 10
355.438397
 20
697.200003
 30
0.0
 11
340.738397
 21
697.200003
 31
0.0
  0
ARC
  5
FF2
100
AcDbEntity
  8
10000_FRONT
370
    25
390
0
  6
CONTINUOUS
 62
     7
100
AcDbCircle
 10
336.438397
 20
700.7
 30
0.0
 40
1.5
100
AcDbArc
 50
270.0
 51
270.141248
  0
ARC
  5
FF3
100
AcDbEntity
  8
10000_FRONT
370
    25
390
0
  6
CONTINUOUS
 62
     7
100
AcDbCircle
 10
340.438397
 20
700.7
 30
0.0
 40
1.5
100
AcDbArc
 50
269.85877
 51
270.0
  0
ARC
  5
FF4
100
AcDbEntity
  8
10000_FRONT
370
    25
390
0
  6
CONTINUOUS
 62
     7
100
AcDbCircle
 10
355.688397
 20
700.7
 30
0.0
 40
1.5
100
AcDbArc
 50
270.0
 51
270.141267
  0
ARC
  5
FF5
100
AcDbEntity
  8
10000_FRONT
370
    25
390
0
  6
CONTINUOUS
 62
     7
100
AcDbCircle
 10
302.388397
 20
713.25
 30
0.0
 40
0.2
100
AcDbArc
 50
179.610295
 51
180.000437
  0
LINE
  5
FF6
100
AcDbEntity
  8
10000_FRONT
370
    25
390
0
  6
CONTINUOUS
 62
     7
100
AcDbLine
 10
302.188397
 20
700.700003
 30
0.0
 11
302.188397
 21
713.249998
 31
0.0
  0
ARC
  5
FF7
100
AcDbEntity
  8
10000_FRONT
370
    25
390
0
  6
CONTINUOUS
 62
     7
100
AcDbCircle
 10
303.688397
 20
700.7
 30
0.0
 40
1.5
100
AcDbArc
 50
179.999883
 51
180.142389
  0
ARC
  5
FF8
100
AcDbEntity
  8
10000_FRONT
370
    25
390
0
  6
CONTINUOUS
 62
     7
100
AcDbCircle
 10
303.688397
 20
700.7
 30
0.0
 40
1.5
100
AcDbArc
 50
269.858733
 51
270.0
  0
ARC
  5
FF9
100
AcDbEntity
  8
10000_FRONT
370
    25
390
0
  6
CONTINUOUS
 62
     7
100
AcDbCircle
 10
318.938397
 20
700.7
 30
0.0
 40
1.5
100
AcDbArc
 50
270.0
 51
270.14123
  0
ARC
  5
FFA
100
AcDbEntity
  8
10000_FRONT
370
    25
390
0
  6
CONTINUOUS
 62
     7
100
AcDbCircle
 10
322.938397
 20
700.7
 30
0.0
 40
1.5
100
AcDbArc
 50
269.858752
 51
270.0
  0
LINE
  5
FFB
100
AcDbEntity
  8
10000_FRONT
370
    25
390
0
  6
CONTINUOUS
 62
     7
100
AcDbLine
 10
340.738397
 20
841.200003
 30
0.0
 11
340.738397
 21
839.200003
 31
0.0
  0
LINE
  5
FFC
100
AcDbEntity
  8
10000_FRONT
370
    25
390
0
  6
CONTINUOUS
 62
     7
100
AcDbLine
 10
336.138397
 20
839.200003
 30
0.0
 11
336.138397
 21
841.200003
 31
0.0
  0
LINE
  5
FFD
100
AcDbEntity
  8
10000_FRONT
370
    25
390
0
  6
CONTINUOUS
 62
     7
100
AcDbLine
 10
323.238397
 20
841.200003
 30
0.0
 11
323.238397
 21
839.200003
 31
0.0
  0
LINE
  5
FFE
100
AcDbEntity
  8
10000_FRONT
370
    25
390
0
  6
CONTINUOUS
 62
     7
100
AcDbLine
 10
323.238397
 20
841.200003
 30
0.0
 11
336.138397
 21
841.200003
 31
0.0
  0
LINE
  5
FFF
100
AcDbEntity
  8
10000_FRONT
370
    25
390
0
  6
CONTINUOUS
 62
     7
100
AcDbLine
 10
318.638397
 20
839.200003
 30
0.0
 11
318.638397
 21
841.200003
 31
0.0
  0
LINE
  5
1000
100
AcDbEntity
  8
10000_FRONT
370
    25
390
0
  6
CONTINUOUS
 62
     7
100
AcDbLine
 10
355.438397
 20
841.200003
 30
0.0
 11
355.438397
 21
839.200003
 31
0.0
  0
LINE
  5
1001
100
AcDbEntity
  8
10000_FRONT
370
    25
390
0
  6
CONTINUOUS
 62
     7
100
AcDbLine
 10
340.738397
 20
841.200003
 30
0.0
 11
355.438397
 21
841.200003
 31
0.0
  0
LINE
  5
1002
100
AcDbEntity
  8
10000_FRONT
370
    25
390
0
  6
CONTINUOUS
 62
     7
100
AcDbLine
 10
303.938397
 20
839.200003
 30
0.0
 11
303.938397
 21
841.200003
 31
0.0
  0
LINE
  5
1003
100
AcDbEntity
  8
10000_FRONT
370
    25
390
0
  6
CONTINUOUS
 62
     7
100
AcDbLine
 10
303.938397
 20
841.200003
 30
0.0
 11
318.638397
 21
841.200003
 31
0.0
  0
ARC
  5
1004
100
AcDbEntity
  8
10000_FRONT
370
    25
390
0
  6
CONTINUOUS
 62
     7
100
AcDbCircle
 10
303.688397
 20
837.7
 30
0.0
 40
1.5
100
AcDbArc
 50
179.858253
 51
179.999883
  0
LINE
  5
1005
100
AcDbEntity
  8
10000_FRONT
370
    25
390
0
  6
CONTINUOUS
 62
     7
100
AcDbLine
 10
302.188397
 20
825.15
 30
0.0
 11
302.188397
 21
837.700003
 31
0.0
  0
ARC
  5
1006
100
AcDbEntity
  8
10000_FRONT
370
    25
390
0
  6
CONTINUOUS
 62
     7
100
AcDbCircle
 10
302.388397
 20
825.15
 30
0.0
 40
0.2
100
AcDbArc
 50
180.0
 51
180.389049
  0
LINE
  5
1007
100
AcDbEntity
  8
10000_FRONT
370
    25
390
0
  6
CONTINUOUS
 62
     7
100
AcDbLine
 10
318.438397
 20
824.199999
 30
0.0
 11
318.438397
 21
823.699999
 31
0.0
  0
LINE
  5
1008
100
AcDbEntity
  8
10000_FRONT
370
    25
390
0
  6
CONTINUOUS
 62
     7
100
AcDbLine
 10
315.638397
 20
824.199999
 30
0.0
 11
318.438397
 21
824.199999
 31
0.0
  0
LINE
  5
1009
100
AcDbEntity
  8
10000_FRONT
370
    25
390
0
  6
CONTINUOUS
 62
     7
100
AcDbLine
 10
315.638397
 20
823.699999
 30
0.0
 11
315.638397
 21
824.199999
 31
0.0
  0
LINE
  5
100A
100
AcDbEntity
  8
10000_FRONT
370
    25
390
0
  6
CONTINUOUS
 62
     7
100
AcDbLine
 10
311.238396
 20
823.699999
 30
0.0
 11
315.638397
 21
823.699999
 31
0.0
  0
LINE
  5
100B
100
AcDbEntity
  8
10000_FRONT
370
    25
390
0
  6
CONTINUOUS
 62
     7
100
AcDbLine
 10
311.238396
 20
824.199999
 30
0.0
 11
311.238396
 21
823.699999
 31
0.0
  0
LINE
  5
100C
100
AcDbEntity
  8
10000_FRONT
370
    25
390
0
  6
CONTINUOUS
 62
     7
100
AcDbLine
 10
308.438397
 20
824.199999
 30
0.0
 11
311.238396
 21
824.199999
 31
0.0
  0
LINE
  5
100D
100
AcDbEntity
  8
10000_FRONT
370
    25
390
0
  6
CONTINUOUS
 62
     7
100
AcDbLine
 10
308.438397
 20
823.699999
 30
0.0
 11
308.438397
 21
824.199999
 31
0.0
  0
LINE
  5
100E
100
AcDbEntity
  8
10000_FRONT
370
    25
390
0
  6
CONTINUOUS
 62
     7
100
AcDbLine
 10
304.038397
 20
823.699999
 30
0.0
 11
308.438397
 21
823.699999
 31
0.0
  0
LINE
  5
100F
100
AcDbEntity
  8
10000_FRONT
370
    25
390
0
  6
CONTINUOUS
 62
     7
100
AcDbLine
 10
304.038397
 20
824.199999
 30
0.0
 11
304.038397
 21
823.699999
 31
0.0
  0
LINE
  5
1010
100
AcDbEntity
  8
10000_FRONT
370
    25
390
0
  6
CONTINUOUS
 62
     7
100
AcDbLine
 10
302.388398
 20
824.199999
 30
0.0
 11
304.038397
 21
824.199999
 31
0.0
  0
ARC
  5
1011
100
AcDbEntity
  8
10000_FRONT
370
    25
390
0
  6
CONTINUOUS
 62
     7
100
AcDbCircle
 10
302.388397
 20
824.0
 30
0.0
 40
0.2
100
AcDbArc
 50
89.999781
 51
180.000437
  0
LINE
  5
1012
100
AcDbEntity
  8
10000_FRONT
370
    25
390
0
  6
CONTINUOUS
 62
     7
100
AcDbLine
 10
302.188397
 20
810.4
 30
0.0
 11
302.188397
 21
823.999998
 31
0.0
  0
ARC
  5
1013
100
AcDbEntity
  8
10000_FRONT
370
    25
390
0
  6
CONTINUOUS
 62
     7
100
AcDbCircle
 10
302.388397
 20
810.4
 30
0.0
 40
0.2
100
AcDbArc
 50
180.0
 51
270.000219
  0
LINE
  5
1014
100
AcDbEntity
  8
10000_FRONT
370
    25
390
0
  6
CONTINUOUS
 62
     7
100
AcDbLine
 10
305.588397
 20
810.199999
 30
0.0
 11
302.388398
 21
810.199999
 31
0.0
  0
LINE
  5
1015
100
AcDbEntity
  8
10000_FRONT
370
    25
390
0
  6
CONTINUOUS
 62
     7
100
AcDbLine
 10
305.588397
 20
810.999998
 30
0.0
 11
305.588397
 21
810.199999
 31
0.0
  0
LINE
  5
1016
100
AcDbEntity
  8
10000_FRONT
370
    25
390
0
  6
CONTINUOUS
 62
     7
100
AcDbLine
 10
303.338397
 20
810.999998
 30
0.0
 11
305.588397
 21
810.999998
 31
0.0
  0
LINE
  5
1017
100
AcDbEntity
  8
10000_FRONT
370
    25
390
0
  6
CONTINUOUS
 62
     7
100
AcDbLine
 10
303.338397
 20
813.199999
 30
0.0
 11
303.338397
 21
810.999998
 31
0.0
  0
LINE
  5
1018
100
AcDbEntity
  8
10000_FRONT
370
    25
390
0
  6
CONTINUOUS
 62
     7
100
AcDbLine
 10
323.538397
 20
813.199999
 30
0.0
 11
303.338397
 21
813.199999
 31
0.0
  0
LINE
  5
1019
100
AcDbEntity
  8
10000_FRONT
370
    25
390
0
  6
CONTINUOUS
 62
     7
100
AcDbLine
 10
323.538397
 20
810.999998
 30
0.0
 11
323.538397
 21
813.199999
 31
0.0
  0
LINE
  5
101A
100
AcDbEntity
  8
10000_FRONT
370
    25
390
0
  6
CONTINUOUS
 62
     7
100
AcDbLine
 10
321.288397
 20
810.999998
 30
0.0
 11
323.538397
 21
810.999998
 31
0.0
  0
LINE
  5
101B
100
AcDbEntity
  8
10000_FRONT
370
    25
390
0
  6
CONTINUOUS
 62
     7
100
AcDbLine
 10
321.288397
 20
810.199999
 30
0.0
 11
321.288397
 21
810.999998
 31
0.0
  0
LINE
  5
101C
100
AcDbEntity
  8
10000_FRONT
370
    25
390
0
  6
CONTINUOUS
 62
     7
100
AcDbLine
 10
324.488397
 20
810.199999
 30
0.0
 11
321.288397
 21
810.199999
 31
0.0
  0
ARC
  5
101D
100
AcDbEntity
  8
10000_FRONT
370
    25
390
0
  6
CONTINUOUS
 62
     7
100
AcDbCircle
 10
324.488397
 20
810.4
 30
0.0
 40
0.2
100
AcDbArc
 50
270.000055
 51
0.0
  0
LINE
  5
101E
100
AcDbEntity
  8
10000_FRONT
370
    25
390
0
  6
CONTINUOUS
 62
     7
100
AcDbLine
 10
324.688397
 20
823.999998
 30
0.0
 11
324.688397
 21
810.4
 31
0.0
  0
ARC
  5
101F
100
AcDbEntity
  8
10000_FRONT
370
    25
390
0
  6
CONTINUOUS
 62
     7
100
AcDbCircle
 10
324.488397
 20
824.0
 30
0.0
 40
0.2
100
AcDbArc
 50
359.999563
 51
89.999945
  0
LINE
  5
1020
100
AcDbEntity
  8
10000_FRONT
370
    25
390
0
  6
CONTINUOUS
 62
     7
100
AcDbLine
 10
322.838397
 20
824.199999
 30
0.0
 11
324.488397
 21
824.199999
 31
0.0
  0
LINE
  5
1021
100
AcDbEntity
  8
10000_FRONT
370
    25
390
0
  6
CONTINUOUS
 62
     7
100
AcDbLine
 10
322.838397
 20
823.699999
 30
0.0
 11
322.838397
 21
824.199999
 31
0.0
  0
LINE
  5
1022
100
AcDbEntity
  8
10000_FRONT
370
    25
390
0
  6
CONTINUOUS
 62
     7
100
AcDbLine
 10
318.438397
 20
823.699999
 30
0.0
 11
322.838397
 21
823.699999
 31
0.0
  0
ARC
  5
1023
100
AcDbEntity
  8
10000_FRONT
370
    25
390
0
  6
CONTINUOUS
 62
     7
100
AcDbCircle
 10
320.638397
 20
817.0
 30
0.0
 40
3.1
100
AcDbArc
 50
90.000004
 51
269.999996
  0
ARC
  5
1024
100
AcDbEntity
  8
10000_FRONT
370
    25
390
0
  6
CONTINUOUS
 62
     7
100
AcDbCircle
 10
320.638397
 20
817.0
 30
0.0
 40
3.1
100
AcDbArc
 50
269.999996
 51
90.000004
  0
ARC
  5
1025
100
AcDbEntity
  8
10000_FRONT
370
    25
390
0
  6
CONTINUOUS
 62
     7
100
AcDbCircle
 10
313.438397
 20
817.0
 30
0.0
 40
3.1
100
AcDbArc
 50
90.0
 51
270.0
  0
ARC
  5
1026
100
AcDbEntity
  8
10000_FRONT
370
    25
390
0
  6
CONTINUOUS
 62
     7
100
AcDbCircle
 10
313.438397
 20
817.0
 30
0.0
 40
3.1
100
AcDbArc
 50
270.0
 51
90.0
  0
ARC
  5
1027
100
AcDbEntity
  8
10000_FRONT
370
    25
390
0
  6
CONTINUOUS
 62
     7
100
AcDbCircle
 10
306.238397
 20
817.0
 30
0.0
 40
3.1
100
AcDbArc
 50
90.000014
 51
269.999986
  0
ARC
  5
1028
100
AcDbEntity
  8
10000_FRONT
370
    25
390
0
  6
CONTINUOUS
 62
     7
100
AcDbCircle
 10
306.238397
 20
817.0
 30
0.0
 40
3.1
100
AcDbArc
 50
269.999986
 51
90.000014
  0
LINE
  5
1029
100
AcDbEntity
  8
10000_FRONT
370
    25
390
0
  6
CONTINUOUS
 62
     7
100
AcDbLine
 10
324.688397
 20
810.398524
 30
0.0
 11
324.688397
 21
806.100001
 31
0.0
  0
LINE
  5
102A
100
AcDbEntity
  8
10000_FRONT
370
    25
390
0
  6
CONTINUOUS
 62
     7
100
AcDbLine
 10
302.188397
 20
810.4
 30
0.0
 11
302.188397
 21
806.100001
 31
0.0
  0
LINE
  5
102B
100
AcDbEntity
  8
10000_FRONT
370
    25
390
0
  6
CONTINUOUS
 62
     7
100
AcDbLine
 10
350.938397
 20
824.199999
 30
0.0
 11
350.938397
 21
823.699999
 31
0.0
  0
LINE
  5
102C
100
AcDbEntity
  8
10000_FRONT
370
    25
390
0
  6
CONTINUOUS
 62
     7
100
AcDbLine
 10
348.138398
 20
824.199999
 30
0.0
 11
350.938397
 21
824.199999
 31
0.0
  0
LINE
  5
102D
100
AcDbEntity
  8
10000_FRONT
370
    25
390
0
  6
CONTINUOUS
 62
     7
100
AcDbLine
 10
348.138398
 20
823.699999
 30
0.0
 11
348.138398
 21
824.199999
 31
0.0
  0
LINE
  5
102E
100
AcDbEntity
  8
10000_FRONT
370
    25
390
0
  6
CONTINUOUS
 62
     7
100
AcDbLine
 10
343.738397
 20
823.699999
 30
0.0
 11
348.138398
 21
823.699999
 31
0.0
  0
LINE
  5
102F
100
AcDbEntity
  8
10000_FRONT
370
    25
390
0
  6
CONTINUOUS
 62
     7
100
AcDbLine
 10
343.738397
 20
824.199999
 30
0.0
 11
343.738397
 21
823.699999
 31
0.0
  0
LINE
  5
1030
100
AcDbEntity
  8
10000_FRONT
370
    25
390
0
  6
CONTINUOUS
 62
     7
100
AcDbLine
 10
340.938397
 20
824.199999
 30
0.0
 11
343.738397
 21
824.199999
 31
0.0
  0
LINE
  5
1031
100
AcDbEntity
  8
10000_FRONT
370
    25
390
0
  6
CONTINUOUS
 62
     7
100
AcDbLine
 10
340.938397
 20
823.699999
 30
0.0
 11
340.938397
 21
824.199999
 31
0.0
  0
LINE
  5
1032
100
AcDbEntity
  8
10000_FRONT
370
    25
390
0
  6
CONTINUOUS
 62
     7
100
AcDbLine
 10
336.538397
 20
823.699999
 30
0.0
 11
340.938397
 21
823.699999
 31
0.0
  0
LINE
  5
1033
100
AcDbEntity
  8
10000_FRONT
370
    25
390
0
  6
CONTINUOUS
 62
     7
100
AcDbLine
 10
336.538397
 20
824.199999
 30
0.0
 11
336.538397
 21
823.699999
 31
0.0
  0
LINE
  5
1034
100
AcDbEntity
  8
10000_FRONT
370
    25
390
0
  6
CONTINUOUS
 62
     7
100
AcDbLine
 10
334.888397
 20
824.199999
 30
0.0
 11
336.538397
 21
824.199999
 31
0.0
  0
ARC
  5
1035
100
AcDbEntity
  8
10000_FRONT
370
    25
390
0
  6
CONTINUOUS
 62
     7
100
AcDbCircle
 10
334.888397
 20
824.0
 30
0.0
 40
0.2
100
AcDbArc
 50
90.000055
 51
180.000437
  0
LINE
  5
1036
100
AcDbEntity
  8
10000_FRONT
370
    25
390
0
  6
CONTINUOUS
 62
     7
100
AcDbLine
 10
334.688397
 20
810.4
 30
0.0
 11
334.688397
 21
823.999998
 31
0.0
  0
ARC
  5
1037
100
AcDbEntity
  8
10000_FRONT
370
    25
390
0
  6
CONTINUOUS
 62
     7
100
AcDbCircle
 10
334.888397
 20
810.4
 30
0.0
 40
0.2
100
AcDbArc
 50
180.0
 51
269.999945
  0
LINE
  5
1038
100
AcDbEntity
  8
10000_FRONT
370
    25
390
0
  6
CONTINUOUS
 62
     7
100
AcDbLine
 10
338.088397
 20
810.199999
 30
0.0
 11
334.888397
 21
810.199999
 31
0.0
  0
LINE
  5
1039
100
AcDbEntity
  8
10000_FRONT
370
    25
390
0
  6
CONTINUOUS
 62
     7
100
AcDbLine
 10
338.088397
 20
810.999998
 30
0.0
 11
338.088397
 21
810.199999
 31
0.0
  0
LINE
  5
103A
100
AcDbEntity
  8
10000_FRONT
370
    25
390
0
  6
CONTINUOUS
 62
     7
100
AcDbLine
 10
335.838397
 20
810.999998
 30
0.0
 11
338.088397
 21
810.999998
 31
0.0
  0
LINE
  5
103B
100
AcDbEntity
  8
10000_FRONT
370
    25
390
0
  6
CONTINUOUS
 62
     7
100
AcDbLine
 10
335.838397
 20
813.199999
 30
0.0
 11
335.838397
 21
810.999998
 31
0.0
  0
LINE
  5
103C
100
AcDbEntity
  8
10000_FRONT
370
    25
390
0
  6
CONTINUOUS
 62
     7
100
AcDbLine
 10
356.038397
 20
813.199999
 30
0.0
 11
335.838397
 21
813.199999
 31
0.0
  0
LINE
  5
103D
100
AcDbEntity
  8
10000_FRONT
370
    25
390
0
  6
CONTINUOUS
 62
     7
100
AcDbLine
 10
356.038397
 20
810.999998
 30
0.0
 11
356.038397
 21
813.199999
 31
0.0
  0
LINE
  5
103E
100
AcDbEntity
  8
10000_FRONT
370
    25
390
0
  6
CONTINUOUS
 62
     7
100
AcDbLine
 10
353.788397
 20
810.999998
 30
0.0
 11
356.038397
 21
810.999998
 31
0.0
  0
LINE
  5
103F
100
AcDbEntity
  8
10000_FRONT
370
    25
390
0
  6
CONTINUOUS
 62
     7
100
AcDbLine
 10
353.788397
 20
810.199999
 30
0.0
 11
353.788397
 21
810.999998
 31
0.0
  0
LINE
  5
1040
100
AcDbEntity
  8
10000_FRONT
370
    25
390
0
  6
CONTINUOUS
 62
     7
100
AcDbLine
 10
356.988396
 20
810.199999
 30
0.0
 11
353.788397
 21
810.199999
 31
0.0
  0
ARC
  5
1041
100
AcDbEntity
  8
10000_FRONT
370
    25
390
0
  6
CONTINUOUS
 62
     7
100
AcDbCircle
 10
356.988397
 20
810.4
 30
0.0
 40
0.2
100
AcDbArc
 50
269.999781
 51
0.0
  0
LINE
  5
1042
100
AcDbEntity
  8
10000_FRONT
370
    25
390
0
  6
CONTINUOUS
 62
     7
100
AcDbLine
 10
357.188397
 20
823.999998
 30
0.0
 11
357.188397
 21
810.4
 31
0.0
  0
ARC
  5
1043
100
AcDbEntity
  8
10000_FRONT
370
    25
390
0
  6
CONTINUOUS
 62
     7
100
AcDbCircle
 10
356.988397
 20
824.0
 30
0.0
 40
0.2
100
AcDbArc
 50
359.999563
 51
90.000219
  0
LINE
  5
1044
100
AcDbEntity
  8
10000_FRONT
370
    25
390
0
  6
CONTINUOUS
 62
     7
100
AcDbLine
 10
355.338397
 20
824.199999
 30
0.0
 11
356.988396
 21
824.199999
 31
0.0
  0
LINE
  5
1045
100
AcDbEntity
  8
10000_FRONT
370
    25
390
0
  6
CONTINUOUS
 62
     7
100
AcDbLine
 10
355.338397
 20
823.699999
 30
0.0
 11
355.338397
 21
824.199999
 31
0.0
  0
LINE
  5
1046
100
AcDbEntity
  8
10000_FRONT
370
    25
390
0
  6
CONTINUOUS
 62
     7
100
AcDbLine
 10
350.938397
 20
823.699999
 30
0.0
 11
355.338397
 21
823.699999
 31
0.0
  0
ARC
  5
1047
100
AcDbEntity
  8
10000_FRONT
370
    25
390
0
  6
CONTINUOUS
 62
     7
100
AcDbCircle
 10
353.138397
 20
817.0
 30
0.0
 40
3.1
100
AcDbArc
 50
89.999986
 51
270.000014
  0
ARC
  5
1048
100
AcDbEntity
  8
10000_FRONT
370
    25
390
0
  6
CONTINUOUS
 62
     7
100
AcDbCircle
 10
353.138397
 20
817.0
 30
0.0
 40
3.1
100
AcDbArc
 50
270.000014
 51
89.999986
  0
ARC
  5
1049
100
AcDbEntity
  8
10000_FRONT
370
    25
390
0
  6
CONTINUOUS
 62
     7
100
AcDbCircle
 10
345.938397
 20
817.0
 30
0.0
 40
3.1
100
AcDbArc
 50
90.0
 51
270.0
  0
ARC
  5
104A
100
AcDbEntity
  8
10000_FRONT
370
    25
390
0
  6
CONTINUOUS
 62
     7
100
AcDbCircle
 10
345.938397
 20
817.0
 30
0.0
 40
3.1
100
AcDbArc
 50
270.0
 51
90.0
  0
ARC
  5
104B
100
AcDbEntity
  8
10000_FRONT
370
    25
390
0
  6
CONTINUOUS
 62
     7
100
AcDbCircle
 10
338.738397
 20
817.0
 30
0.0
 40
3.1
100
AcDbArc
 50
89.999996
 51
270.000004
  0
ARC
  5
104C
100
AcDbEntity
  8
10000_FRONT
370
    25
390
0
  6
CONTINUOUS
 62
     7
100
AcDbCircle
 10
338.738397
 20
817.0
 30
0.0
 40
3.1
100
AcDbArc
 50
270.000004
 51
89.999996
  0
LINE
  5
104D
100
AcDbEntity
  8
10000_FRONT
370
    25
390
0
  6
CONTINUOUS
 62
     7
100
AcDbLine
 10
357.188397
 20
810.398524
 30
0.0
 11
357.188397
 21
810.200007
 31
0.0
  0
LINE
  5
104E
100
AcDbEntity
  8
10000_FRONT
370
    25
390
0
  6
CONTINUOUS
 62
     7
100
AcDbLine
 10
334.688397
 20
810.4
 30
0.0
 11
334.688397
 21
806.100001
 31
0.0
  0
LINE
  5
104F
100
AcDbEntity
  8
10000_FRONT
370
    25
390
0
  6
CONTINUOUS
 62
     7
100
AcDbLine
 10
302.188397
 20
819.699999
 30
0.0
 11
302.188397
 21
823.199999
 31
0.0
  0
LINE
  5
1050
100
AcDbEntity
  8
10000_FRONT
370
    25
390
0
  6
CONTINUOUS
 62
     7
100
AcDbLine
 10
302.188397
 20
824.199999
 30
0.0
 11
302.188397
 21
823.199999
 31
0.0
  0
LINE
  5
1051
100
AcDbEntity
  8
10000_FRONT
370
    25
390
0
  6
CONTINUOUS
 62
     7
100
AcDbLine
 10
302.188397
 20
824.4
 30
0.0
 11
302.188397
 21
824.199999
 31
0.0
  0
LINE
  5
1052
100
AcDbEntity
  8
10000_FRONT
370
    25
390
0
  6
CONTINUOUS
 62
     7
100
AcDbLine
 10
302.188397
 20
839.200003
 30
0.0
 11
302.188397
 21
824.4
 31
0.0
  0
LINE
  5
1053
100
AcDbEntity
  8
10000_FRONT
370
    25
390
0
  6
CONTINUOUS
 62
     7
100
AcDbLine
 10
302.188397
 20
714.199999
 30
0.0
 11
302.188397
 21
699.200003
 31
0.0
  0
LINE
  5
1054
100
AcDbEntity
  8
10000_FRONT
370
    25
390
0
  6
CONTINUOUS
 62
     7
100
AcDbLine
 10
302.188397
 20
714.199999
 30
0.0
 11
302.188397
 21
714.4
 31
0.0
  0
LINE
  5
1055
100
AcDbEntity
  8
10000_FRONT
370
    25
390
0
  6
CONTINUOUS
 62
     7
100
AcDbLine
 10
302.188397
 20
742.699999
 30
0.0
 11
302.188397
 21
714.4
 31
0.0
  0
LINE
  5
1056
100
AcDbEntity
  8
10000_FRONT
370
    25
390
0
  6
CONTINUOUS
 62
     7
100
AcDbLine
 10
302.188397
 20
742.699999
 30
0.0
 11
302.188397
 21
787.699999
 31
0.0
  0
LINE
  5
1057
100
AcDbEntity
  8
10000_FRONT
370
    25
390
0
  6
CONTINUOUS
 62
     7
100
AcDbLine
 10
302.188397
 20
802.199999
 30
0.0
 11
302.188397
 21
787.699999
 31
0.0
  0
LINE
  5
1058
100
AcDbEntity
  8
10000_FRONT
370
    25
390
0
  6
CONTINUOUS
 62
     7
100
AcDbLine
 10
302.188397
 20
802.499998
 30
0.0
 11
302.188397
 21
802.199999
 31
0.0
  0
LINE
  5
1059
100
AcDbEntity
  8
10000_FRONT
370
    25
390
0
  6
CONTINUOUS
 62
     7
100
AcDbLine
 10
302.188397
 20
810.191607
 30
0.0
 11
302.188397
 21
802.499998
 31
0.0
  0
LINE
  5
105A
100
AcDbEntity
  8
10000_FRONT
370
    25
390
0
  6
CONTINUOUS
 62
     7
100
AcDbLine
 10
302.188397
 20
810.191607
 30
0.0
 11
302.188397
 21
810.199999
 31
0.0
  0
LINE
  5
105B
100
AcDbEntity
  8
10000_FRONT
370
    25
390
0
  6
CONTINUOUS
 62
     7
100
AcDbLine
 10
302.188397
 20
810.200022
 30
0.0
 11
302.188397
 21
819.499998
 31
0.0
  0
LINE
  5
105C
100
AcDbEntity
  8
10000_FRONT
370
    25
390
0
  6
CONTINUOUS
 62
     7
100
AcDbLine
 10
302.188397
 20
819.499998
 30
0.0
 11
302.188397
 21
819.699999
 31
0.0
  0
ARC
  5
105D
100
AcDbEntity
  8
10000_FRONT
370
    25
390
0
  6
CONTINUOUS
 62
     7
100
AcDbCircle
 10
347.188397
 20
708.6
 30
0.0
 40
4.0
100
AcDbArc
 50
0.0
 51
180.0
  0
ARC
  5
105E
100
AcDbEntity
  8
10000_FRONT
370
    25
390
0
  6
CONTINUOUS
 62
     7
100
AcDbCircle
 10
347.188397
 20
829.3
 30
0.0
 40
4.0
100
AcDbArc
 50
0.0
 51
180.0
  0
ARC
  5
105F
100
AcDbEntity
  8
10000_FRONT
370
    25
390
0
  6
CONTINUOUS
 62
     7
100
AcDbCircle
 10
329.688397
 20
708.6
 30
0.0
 40
4.0
100
AcDbArc
 50
0.0
 51
180.0
  0
ARC
  5
1060
100
AcDbEntity
  8
10000_FRONT
370
    25
390
0
  6
CONTINUOUS
 62
     7
100
AcDbCircle
 10
329.688397
 20
829.3
 30
0.0
 40
4.0
100
AcDbArc
 50
0.0
 51
180.0
  0
ARC
  5
1061
100
AcDbEntity
  8
10000_FRONT
370
    25
390
0
  6
CONTINUOUS
 62
     7
100
AcDbCircle
 10
312.188397
 20
708.6
 30
0.0
 40
4.0
100
AcDbArc
 50
0.0
 51
180.0
  0
ARC
  5
1062
100
AcDbEntity
  8
10000_FRONT
370
    25
390
0
  6
CONTINUOUS
 62
     7
100
AcDbCircle
 10
312.188397
 20
829.3
 30
0.0
 40
4.0
100
AcDbArc
 50
0.0
 51
180.0
  0
LINE
  5
1063
100
AcDbEntity
  8
10000_FRONT
370
    25
390
0
  6
CONTINUOUS
 62
     7
100
AcDbLine
 10
335.238397
 20
771.2
 30
0.0
 11
335.242097
 21
771.369048
 31
0.0
  0
LINE
  5
1064
100
AcDbEntity
  8
10000_FRONT
370
    25
390
0
  6
CONTINUOUS
 62
     7
100
AcDbLine
 10
335.242097
 20
771.369048
 30
0.0
 11
335.253315
 21
771.540008
 31
0.0
  0
LINE
  5
1065
100
AcDbEntity
  8
10000_FRONT
370
    25
390
0
  6
CONTINUOUS
 62
     7
100
AcDbLine
 10
335.253315
 20
771.540008
 30
0.0
 11
335.272227
 21
771.712185
 31
0.0
  0
LINE
  5
1066
100
AcDbEntity
  8
10000_FRONT
370
    25
390
0
  6
CONTINUOUS
 62
     7
100
AcDbLine
 10
335.272227
 20
771.712185
 30
0.0
 11
335.299012
 21
771.884885
 31
0.0
  0
LINE
  5
1067
100
AcDbEntity
  8
10000_FRONT
370
    25
390
0
  6
CONTINUOUS
 62
     7
100
AcDbLine
 10
335.299012
 20
771.884885
 30
0.0
 11
335.333831
 21
772.057415
 31
0.0
  0
LINE
  5
1068
100
AcDbEntity
  8
10000_FRONT
370
    25
390
0
  6
CONTINUOUS
 62
     7
100
AcDbLine
 10
335.333831
 20
772.057415
 30
0.0
 11
335.376684
 21
772.229117
 31
0.0
  0
LINE
  5
1069
100
AcDbEntity
  8
10000_FRONT
370
    25
390
0
  6
CONTINUOUS
 62
     7
100
AcDbLine
 10
335.376684
 20
772.229117
 30
0.0
 11
335.427455
 21
772.399355
 31
0.0
  0
LINE
  5
106A
100
AcDbEntity
  8
10000_FRONT
370
    25
390
0
  6
CONTINUOUS
 62
     7
100
AcDbLine
 10
335.427455
 20
772.399355
 30
0.0
 11
335.486027
 21
772.567491
 31
0.0
  0
LINE
  5
106B
100
AcDbEntity
  8
10000_FRONT
370
    25
390
0
  6
CONTINUOUS
 62
     7
100
AcDbLine
 10
335.486027
 20
772.567491
 30
0.0
 11
335.552283
 21
772.732895
 31
0.0
  0
LINE
  5
106C
100
AcDbEntity
  8
10000_FRONT
370
    25
390
0
  6
CONTINUOUS
 62
     7
100
AcDbLine
 10
335.552283
 20
772.732895
 30
0.0
 11
335.626062
 21
772.895044
 31
0.0
  0
LINE
  5
106D
100
AcDbEntity
  8
10000_FRONT
370
    25
390
0
  6
CONTINUOUS
 62
     7
100
AcDbLine
 10
335.626062
 20
772.895044
 30
0.0
 11
335.707028
 21
773.053431
 31
0.0
  0
LINE
  5
106E
100
AcDbEntity
  8
10000_FRONT
370
    25
390
0
  6
CONTINUOUS
 62
     7
100
AcDbLine
 10
335.707028
 20
773.053431
 30
0.0
 11
335.794815
 21
773.207526
 31
0.0
  0
LINE
  5
106F
100
AcDbEntity
  8
10000_FRONT
370
    25
390
0
  6
CONTINUOUS
 62
     7
100
AcDbLine
 10
335.794815
 20
773.207526
 30
0.0
 11
335.889055
 21
773.356796
 31
0.0
  0
LINE
  5
1070
100
AcDbEntity
  8
10000_FRONT
370
    25
390
0
  6
CONTINUOUS
 62
     7
100
AcDbLine
 10
335.889055
 20
773.356796
 30
0.0
 11
335.989358
 21
773.500725
 31
0.0
  0
LINE
  5
1071
100
AcDbEntity
  8
10000_FRONT
370
    25
390
0
  6
CONTINUOUS
 62
     7
100
AcDbLine
 10
335.989358
 20
773.500725
 30
0.0
 11
336.095171
 21
773.638905
 31
0.0
  0
LINE
  5
1072
100
AcDbEntity
  8
10000_FRONT
370
    25
390
0
  6
CONTINUOUS
 62
     7
100
AcDbLine
 10
336.095171
 20
773.638905
 30
0.0
 11
336.205879
 21
773.770972
 31
0.0
  0
LINE
  5
1073
100
AcDbEntity
  8
10000_FRONT
370
    25
390
0
  6
CONTINUOUS
 62
     7
100
AcDbLine
 10
336.205879
 20
773.770972
 30
0.0
 11
336.320866
 21
773.896558
 31
0.0
  0
LINE
  5
1074
100
AcDbEntity
  8
10000_FRONT
370
    25
390
0
  6
CONTINUOUS
 62
     7
100
AcDbLine
 10
336.320866
 20
773.896558
 30
0.0
 11
336.439955
 21
774.015728
 31
0.0
  0
LINE
  5
1075
100
AcDbEntity
  8
10000_FRONT
370
    25
390
0
  6
CONTINUOUS
 62
     7
100
AcDbLine
 10
336.439955
 20
774.015728
 30
0.0
 11
336.565433
 21
774.130772
 31
0.0
  0
LINE
  5
1076
100
AcDbEntity
  8
10000_FRONT
370
    25
390
0
  6
CONTINUOUS
 62
     7
100
AcDbLine
 10
336.565433
 20
774.130772
 30
0.0
 11
336.697426
 21
774.241569
 31
0.0
  0
LINE
  5
1077
100
AcDbEntity
  8
10000_FRONT
370
    25
390
0
  6
CONTINUOUS
 62
     7
100
AcDbLine
 10
336.697426
 20
774.241569
 30
0.0
 11
336.835568
 21
774.3475
 31
0.0
  0
LINE
  5
1078
100
AcDbEntity
  8
10000_FRONT
370
    25
390
0
  6
CONTINUOUS
 62
     7
100
AcDbLine
 10
336.835568
 20
774.3475
 30
0.0
 11
336.979492
 21
774.447942
 31
0.0
  0
LINE
  5
1079
100
AcDbEntity
  8
10000_FRONT
370
    25
390
0
  6
CONTINUOUS
 62
     7
100
AcDbLine
 10
336.979492
 20
774.447942
 30
0.0
 11
337.128792
 21
774.542334
 31
0.0
  0
LINE
  5
107A
100
AcDbEntity
  8
10000_FRONT
370
    25
390
0
  6
CONTINUOUS
 62
     7
100
AcDbLine
 10
337.128792
 20
774.542334
 30
0.0
 11
337.28295
 21
774.630279
 31
0.0
  0
LINE
  5
107B
100
AcDbEntity
  8
10000_FRONT
370
    25
390
0
  6
CONTINUOUS
 62
     7
100
AcDbLine
 10
337.28295
 20
774.630279
 30
0.0
 11
337.441431
 21
774.711406
 31
0.0
  0
LINE
  5
107C
100
AcDbEntity
  8
10000_FRONT
370
    25
390
0
  6
CONTINUOUS
 62
     7
100
AcDbLine
 10
337.441431
 20
774.711406
 30
0.0
 11
337.603701
 21
774.785343
 31
0.0
  0
LINE
  5
107D
100
AcDbEntity
  8
10000_FRONT
370
    25
390
0
  6
CONTINUOUS
 62
     7
100
AcDbLine
 10
337.603701
 20
774.785343
 30
0.0
 11
337.76925
 21
774.85175
 31
0.0
  0
LINE
  5
107E
100
AcDbEntity
  8
10000_FRONT
370
    25
390
0
  6
CONTINUOUS
 62
     7
100
AcDbLine
 10
337.76925
 20
774.85175
 30
0.0
 11
337.937555
 21
774.91046
 31
0.0
  0
LINE
  5
107F
100
AcDbEntity
  8
10000_FRONT
370
    25
390
0
  6
CONTINUOUS
 62
     7
100
AcDbLine
 10
337.937555
 20
774.91046
 30
0.0
 11
338.10798
 21
774.961357
 31
0.0
  0
LINE
  5
1080
100
AcDbEntity
  8
10000_FRONT
370
    25
390
0
  6
CONTINUOUS
 62
     7
100
AcDbLine
 10
338.10798
 20
774.961357
 30
0.0
 11
338.279886
 21
775.004318
 31
0.0
  0
LINE
  5
1081
100
AcDbEntity
  8
10000_FRONT
370
    25
390
0
  6
CONTINUOUS
 62
     7
100
AcDbLine
 10
338.279886
 20
775.004318
 30
0.0
 11
338.452631
 21
775.039228
 31
0.0
  0
LINE
  5
1082
100
AcDbEntity
  8
10000_FRONT
370
    25
390
0
  6
CONTINUOUS
 62
     7
100
AcDbLine
 10
338.452631
 20
775.039228
 30
0.0
 11
338.625552
 21
775.066082
 31
0.0
  0
LINE
  5
1083
100
AcDbEntity
  8
10000_FRONT
370
    25
390
0
  6
CONTINUOUS
 62
     7
100
AcDbLine
 10
338.625552
 20
775.066082
 30
0.0
 11
338.797952
 21
775.085044
 31
0.0
  0
LINE
  5
1084
100
AcDbEntity
  8
10000_FRONT
370
    25
390
0
  6
CONTINUOUS
 62
     7
100
AcDbLine
 10
338.797952
 20
775.085044
 30
0.0
 11
338.969134
 21
775.09629
 31
0.0
  0
LINE
  5
1085
100
AcDbEntity
  8
10000_FRONT
370
    25
390
0
  6
CONTINUOUS
 62
     7
100
AcDbLine
 10
338.969134
 20
775.09629
 30
0.0
 11
339.138397
 21
775.1
 31
0.0
  0
LINE
  5
1086
100
AcDbEntity
  8
10000_FRONT
370
    25
390
0
  6
CONTINUOUS
 62
     7
100
AcDbLine
 10
339.138397
 20
775.1
 30
0.0
 11
339.307661
 21
775.09629
 31
0.0
  0
LINE
  5
1087
100
AcDbEntity
  8
10000_FRONT
370
    25
390
0
  6
CONTINUOUS
 62
     7
100
AcDbLine
 10
339.307661
 20
775.09629
 30
0.0
 11
339.478841
 21
775.085044
 31
0.0
  0
LINE
  5
1088
100
AcDbEntity
  8
10000_FRONT
370
    25
390
0
  6
CONTINUOUS
 62
     7
100
AcDbLine
 10
339.478841
 20
775.085044
 30
0.0
 11
339.651243
 21
775.066082
 31
0.0
  0
LINE
  5
1089
100
AcDbEntity
  8
10000_FRONT
370
    25
390
0
  6
CONTINUOUS
 62
     7
100
AcDbLine
 10
339.651243
 20
775.066082
 30
0.0
 11
339.824164
 21
775.039228
 31
0.0
  0
LINE
  5
108A
100
AcDbEntity
  8
10000_FRONT
370
    25
390
0
  6
CONTINUOUS
 62
     7
100
AcDbLine
 10
339.824164
 20
775.039228
 30
0.0
 11
339.996909
 21
775.004318
 31
0.0
  0
LINE
  5
108B
100
AcDbEntity
  8
10000_FRONT
370
    25
390
0
  6
CONTINUOUS
 62
     7
100
AcDbLine
 10
339.996909
 20
775.004318
 30
0.0
 11
340.168814
 21
774.961357
 31
0.0
  0
LINE
  5
108C
100
AcDbEntity
  8
10000_FRONT
370
    25
390
0
  6
CONTINUOUS
 62
     7
100
AcDbLine
 10
340.168814
 20
774.961357
 30
0.0
 11
340.33924
 21
774.91046
 31
0.0
  0
LINE
  5
108D
100
AcDbEntity
  8
10000_FRONT
370
    25
390
0
  6
CONTINUOUS
 62
     7
100
AcDbLine
 10
340.33924
 20
774.91046
 30
0.0
 11
340.507544
 21
774.85175
 31
0.0
  0
LINE
  5
108E
100
AcDbEntity
  8
10000_FRONT
370
    25
390
0
  6
CONTINUOUS
 62
     7
100
AcDbLine
 10
340.507544
 20
774.85175
 30
0.0
 11
340.673093
 21
774.785343
 31
0.0
  0
LINE
  5
108F
100
AcDbEntity
  8
10000_FRONT
370
    25
390
0
  6
CONTINUOUS
 62
     7
100
AcDbLine
 10
340.673093
 20
774.785343
 30
0.0
 11
340.835363
 21
774.711406
 31
0.0
  0
LINE
  5
1090
100
AcDbEntity
  8
10000_FRONT
370
    25
390
0
  6
CONTINUOUS
 62
     7
100
AcDbLine
 10
340.835363
 20
774.711406
 30
0.0
 11
340.993845
 21
774.630279
 31
0.0
  0
LINE
  5
1091
100
AcDbEntity
  8
10000_FRONT
370
    25
390
0
  6
CONTINUOUS
 62
     7
100
AcDbLine
 10
340.993845
 20
774.630279
 30
0.0
 11
341.148002
 21
774.542334
 31
0.0
  0
LINE
  5
1092
100
AcDbEntity
  8
10000_FRONT
370
    25
390
0
  6
CONTINUOUS
 62
     7
100
AcDbLine
 10
341.148002
 20
774.542334
 30
0.0
 11
341.297302
 21
774.447942
 31
0.0
  0
LINE
  5
1093
100
AcDbEntity
  8
10000_FRONT
370
    25
390
0
  6
CONTINUOUS
 62
     7
100
AcDbLine
 10
341.297302
 20
774.447942
 30
0.0
 11
341.441226
 21
774.3475
 31
0.0
  0
LINE
  5
1094
100
AcDbEntity
  8
10000_FRONT
370
    25
390
0
  6
CONTINUOUS
 62
     7
100
AcDbLine
 10
341.441226
 20
774.3475
 30
0.0
 11
341.579367
 21
774.241569
 31
0.0
  0
LINE
  5
1095
100
AcDbEntity
  8
10000_FRONT
370
    25
390
0
  6
CONTINUOUS
 62
     7
100
AcDbLine
 10
341.579367
 20
774.241569
 30
0.0
 11
341.711361
 21
774.130772
 31
0.0
  0
LINE
  5
1096
100
AcDbEntity
  8
10000_FRONT
370
    25
390
0
  6
CONTINUOUS
 62
     7
100
AcDbLine
 10
341.711361
 20
774.130772
 30
0.0
 11
341.836839
 21
774.015728
 31
0.0
  0
LINE
  5
1097
100
AcDbEntity
  8
10000_FRONT
370
    25
390
0
  6
CONTINUOUS
 62
     7
100
AcDbLine
 10
341.836839
 20
774.015728
 30
0.0
 11
341.955927
 21
773.896558
 31
0.0
  0
LINE
  5
1098
100
AcDbEntity
  8
10000_FRONT
370
    25
390
0
  6
CONTINUOUS
 62
     7
100
AcDbLine
 10
341.955927
 20
773.896558
 30
0.0
 11
342.070915
 21
773.770972
 31
0.0
  0
LINE
  5
1099
100
AcDbEntity
  8
10000_FRONT
370
    25
390
0
  6
CONTINUOUS
 62
     7
100
AcDbLine
 10
342.070915
 20
773.770972
 30
0.0
 11
342.181623
 21
773.638905
 31
0.0
  0
LINE
  5
109A
100
AcDbEntity
  8
10000_FRONT
370
    25
390
0
  6
CONTINUOUS
 62
     7
100
AcDbLine
 10
342.181623
 20
773.638905
 30
0.0
 11
342.287436
 21
773.500725
 31
0.0
  0
LINE
  5
109B
100
AcDbEntity
  8
10000_FRONT
370
    25
390
0
  6
CONTINUOUS
 62
     7
100
AcDbLine
 10
342.287436
 20
773.500725
 30
0.0
 11
342.387739
 21
773.356796
 31
0.0
  0
LINE
  5
109C
100
AcDbEntity
  8
10000_FRONT
370
    25
390
0
  6
CONTINUOUS
 62
     7
100
AcDbLine
 10
342.387739
 20
773.356796
 30
0.0
 11
342.481979
 21
773.207526
 31
0.0
  0
LINE
  5
109D
100
AcDbEntity
  8
10000_FRONT
370
    25
390
0
  6
CONTINUOUS
 62
     7
100
AcDbLine
 10
342.481979
 20
773.207526
 30
0.0
 11
342.569767
 21
773.053431
 31
0.0
  0
LINE
  5
109E
100
AcDbEntity
  8
10000_FRONT
370
    25
390
0
  6
CONTINUOUS
 62
     7
100
AcDbLine
 10
342.569767
 20
773.053431
 30
0.0
 11
342.650733
 21
772.895044
 31
0.0
  0
LINE
  5
109F
100
AcDbEntity
  8
10000_FRONT
370
    25
390
0
  6
CONTINUOUS
 62
     7
100
AcDbLine
 10
342.650733
 20
772.895044
 30
0.0
 11
342.724511
 21
772.732895
 31
0.0
  0
LINE
  5
10A0
100
AcDbEntity
  8
10000_FRONT
370
    25
390
0
  6
CONTINUOUS
 62
     7
100
AcDbLine
 10
342.724511
 20
772.732895
 30
0.0
 11
342.790766
 21
772.567491
 31
0.0
  0
LINE
  5
10A1
100
AcDbEntity
  8
10000_FRONT
370
    25
390
0
  6
CONTINUOUS
 62
     7
100
AcDbLine
 10
342.790766
 20
772.567491
 30
0.0
 11
342.849338
 21
772.399355
 31
0.0
  0
LINE
  5
10A2
100
AcDbEntity
  8
10000_FRONT
370
    25
390
0
  6
CONTINUOUS
 62
     7
100
AcDbLine
 10
342.849338
 20
772.399355
 30
0.0
 11
342.90011
 21
772.229117
 31
0.0
  0
LINE
  5
10A3
100
AcDbEntity
  8
10000_FRONT
370
    25
390
0
  6
CONTINUOUS
 62
     7
100
AcDbLine
 10
342.90011
 20
772.229117
 30
0.0
 11
342.942963
 21
772.057415
 31
0.0
  0
LINE
  5
10A4
100
AcDbEntity
  8
10000_FRONT
370
    25
390
0
  6
CONTINUOUS
 62
     7
100
AcDbLine
 10
342.942963
 20
772.057415
 30
0.0
 11
342.977782
 21
771.884885
 31
0.0
  0
LINE
  5
10A5
100
AcDbEntity
  8
10000_FRONT
370
    25
390
0
  6
CONTINUOUS
 62
     7
100
AcDbLine
 10
342.977782
 20
771.884885
 30
0.0
 11
343.004567
 21
771.712185
 31
0.0
  0
LINE
  5
10A6
100
AcDbEntity
  8
10000_FRONT
370
    25
390
0
  6
CONTINUOUS
 62
     7
100
AcDbLine
 10
343.004567
 20
771.712185
 30
0.0
 11
343.023479
 21
771.540008
 31
0.0
  0
LINE
  5
10A7
100
AcDbEntity
  8
10000_FRONT
370
    25
390
0
  6
CONTINUOUS
 62
     7
100
AcDbLine
 10
343.023479
 20
771.540008
 30
0.0
 11
343.034697
 21
771.369048
 31
0.0
  0
LINE
  5
10A8
100
AcDbEntity
  8
10000_FRONT
370
    25
390
0
  6
CONTINUOUS
 62
     7
100
AcDbLine
 10
343.034697
 20
771.369048
 30
0.0
 11
343.038397
 21
771.2
 31
0.0
  0
LINE
  5
10A9
100
AcDbEntity
  8
10000_FRONT
370
    25
390
0
  6
CONTINUOUS
 62
     7
100
AcDbLine
 10
335.238397
 20
760.2
 30
0.0
 11
335.242094
 21
760.368986
 31
0.0
  0
LINE
  5
10AA
100
AcDbEntity
  8
10000_FRONT
370
    25
390
0
  6
CONTINUOUS
 62
     7
100
AcDbLine
 10
335.242094
 20
760.368986
 30
0.0
 11
335.253306
 21
760.539906
 31
0.0
  0
LINE
  5
10AB
100
AcDbEntity
  8
10000_FRONT
370
    25
390
0
  6
CONTINUOUS
 62
     7
100
AcDbLine
 10
335.253306
 20
760.539906
 30
0.0
 11
335.272212
 21
760.712065
 31
0.0
  0
LINE
  5
10AC
100
AcDbEntity
  8
10000_FRONT
370
    25
390
0
  6
CONTINUOUS
 62
     7
100
AcDbLine
 10
335.272212
 20
760.712065
 30
0.0
 11
335.29899
 21
760.884766
 31
0.0
  0
LINE
  5
10AD
100
AcDbEntity
  8
10000_FRONT
370
    25
390
0
  6
CONTINUOUS
 62
     7
100
AcDbLine
 10
335.29899
 20
760.884766
 30
0.0
 11
335.333809
 21
761.057316
 31
0.0
  0
LINE
  5
10AE
100
AcDbEntity
  8
10000_FRONT
370
    25
390
0
  6
CONTINUOUS
 62
     7
100
AcDbLine
 10
335.333809
 20
761.057316
 30
0.0
 11
335.376667
 21
761.229053
 31
0.0
  0
LINE
  5
10AF
100
AcDbEntity
  8
10000_FRONT
370
    25
390
0
  6
CONTINUOUS
 62
     7
100
AcDbLine
 10
335.376667
 20
761.229053
 30
0.0
 11
335.42745
 21
761.399336
 31
0.0
  0
LINE
  5
10B0
100
AcDbEntity
  8
10000_FRONT
370
    25
390
0
  6
CONTINUOUS
 62
     7
100
AcDbLine
 10
335.42745
 20
761.399336
 30
0.0
 11
335.486041
 21
761.567529
 31
0.0
  0
LINE
  5
10B1
100
AcDbEntity
  8
10000_FRONT
370
    25
390
0
  6
CONTINUOUS
 62
     7
100
AcDbLine
 10
335.486041
 20
761.567529
 30
0.0
 11
335.552326
 21
761.732994
 31
0.0
  0
LINE
  5
10B2
100
AcDbEntity
  8
10000_FRONT
370
    25
390
0
  6
CONTINUOUS
 62
     7
100
AcDbLine
 10
335.552326
 20
761.732994
 30
0.0
 11
335.626142
 21
761.895209
 31
0.0
  0
LINE
  5
10B3
100
AcDbEntity
  8
10000_FRONT
370
    25
390
0
  6
CONTINUOUS
 62
     7
100
AcDbLine
 10
335.626142
 20
761.895209
 30
0.0
 11
335.707154
 21
762.053664
 31
0.0
  0
LINE
  5
10B4
100
AcDbEntity
  8
10000_FRONT
370
    25
390
0
  6
CONTINUOUS
 62
     7
100
AcDbLine
 10
335.707154
 20
762.053664
 30
0.0
 11
335.794993
 21
762.207824
 31
0.0
  0
LINE
  5
10B5
100
AcDbEntity
  8
10000_FRONT
370
    25
390
0
  6
CONTINUOUS
 62
     7
100
AcDbLine
 10
335.794993
 20
762.207824
 30
0.0
 11
335.889292
 21
762.357154
 31
0.0
  0
LINE
  5
10B6
100
AcDbEntity
  8
10000_FRONT
370
    25
390
0
  6
CONTINUOUS
 62
     7
100
AcDbLine
 10
335.889292
 20
762.357154
 30
0.0
 11
335.989658
 21
762.501135
 31
0.0
  0
LINE
  5
10B7
100
AcDbEntity
  8
10000_FRONT
370
    25
390
0
  6
CONTINUOUS
 62
     7
100
AcDbLine
 10
335.989658
 20
762.501135
 30
0.0
 11
336.095534
 21
762.639358
 31
0.0
  0
LINE
  5
10B8
100
AcDbEntity
  8
10000_FRONT
370
    25
390
0
  6
CONTINUOUS
 62
     7
100
AcDbLine
 10
336.095534
 20
762.639358
 30
0.0
 11
336.206304
 21
762.771457
 31
0.0
  0
LINE
  5
10B9
100
AcDbEntity
  8
10000_FRONT
370
    25
390
0
  6
CONTINUOUS
 62
     7
100
AcDbLine
 10
336.206304
 20
762.771457
 30
0.0
 11
336.321348
 21
762.897062
 31
0.0
  0
LINE
  5
10BA
100
AcDbEntity
  8
10000_FRONT
370
    25
390
0
  6
CONTINUOUS
 62
     7
100
AcDbLine
 10
336.321348
 20
762.897062
 30
0.0
 11
336.440508
 21
763.016258
 31
0.0
  0
LINE
  5
10BB
100
AcDbEntity
  8
10000_FRONT
370
    25
390
0
  6
CONTINUOUS
 62
     7
100
AcDbLine
 10
336.440508
 20
763.016258
 30
0.0
 11
336.566071
 21
763.131331
 31
0.0
  0
LINE
  5
10BC
100
AcDbEntity
  8
10000_FRONT
370
    25
390
0
  6
CONTINUOUS
 62
     7
100
AcDbLine
 10
336.566071
 20
763.131331
 30
0.0
 11
336.698136
 21
763.242139
 31
0.0
  0
LINE
  5
10BD
100
AcDbEntity
  8
10000_FRONT
370
    25
390
0
  6
CONTINUOUS
 62
     7
100
AcDbLine
 10
336.698136
 20
763.242139
 30
0.0
 11
336.836337
 21
763.348062
 31
0.0
  0
LINE
  5
10BE
100
AcDbEntity
  8
10000_FRONT
370
    25
390
0
  6
CONTINUOUS
 62
     7
100
AcDbLine
 10
336.836337
 20
763.348062
 30
0.0
 11
336.980305
 21
763.448482
 31
0.0
  0
LINE
  5
10BF
100
AcDbEntity
  8
10000_FRONT
370
    25
390
0
  6
CONTINUOUS
 62
     7
100
AcDbLine
 10
336.980305
 20
763.448482
 30
0.0
 11
337.129634
 21
763.54284
 31
0.0
  0
LINE
  5
10C0
100
AcDbEntity
  8
10000_FRONT
370
    25
390
0
  6
CONTINUOUS
 62
     7
100
AcDbLine
 10
337.129634
 20
763.54284
 30
0.0
 11
337.283804
 21
763.630742
 31
0.0
  0
LINE
  5
10C1
100
AcDbEntity
  8
10000_FRONT
370
    25
390
0
  6
CONTINUOUS
 62
     7
100
AcDbLine
 10
337.283804
 20
763.630742
 30
0.0
 11
337.442282
 21
763.711818
 31
0.0
  0
LINE
  5
10C2
100
AcDbEntity
  8
10000_FRONT
370
    25
390
0
  6
CONTINUOUS
 62
     7
100
AcDbLine
 10
337.442282
 20
763.711818
 30
0.0
 11
337.604532
 21
763.785699
 31
0.0
  0
LINE
  5
10C3
100
AcDbEntity
  8
10000_FRONT
370
    25
390
0
  6
CONTINUOUS
 62
     7
100
AcDbLine
 10
337.604532
 20
763.785699
 30
0.0
 11
337.770045
 21
763.852048
 31
0.0
  0
LINE
  5
10C4
100
AcDbEntity
  8
10000_FRONT
370
    25
390
0
  6
CONTINUOUS
 62
     7
100
AcDbLine
 10
337.770045
 20
763.852048
 30
0.0
 11
337.938298
 21
763.910701
 31
0.0
  0
LINE
  5
10C5
100
AcDbEntity
  8
10000_FRONT
370
    25
390
0
  6
CONTINUOUS
 62
     7
100
AcDbLine
 10
337.938298
 20
763.910701
 30
0.0
 11
338.108655
 21
763.961542
 31
0.0
  0
LINE
  5
10C6
100
AcDbEntity
  8
10000_FRONT
370
    25
390
0
  6
CONTINUOUS
 62
     7
100
AcDbLine
 10
338.108655
 20
763.961542
 30
0.0
 11
338.280477
 21
764.004452
 31
0.0
  0
LINE
  5
10C7
100
AcDbEntity
  8
10000_FRONT
370
    25
390
0
  6
CONTINUOUS
 62
     7
100
AcDbLine
 10
338.280477
 20
764.004452
 30
0.0
 11
338.453126
 21
764.039317
 31
0.0
  0
LINE
  5
10C8
100
AcDbEntity
  8
10000_FRONT
370
    25
390
0
  6
CONTINUOUS
 62
     7
100
AcDbLine
 10
338.453126
 20
764.039317
 30
0.0
 11
338.625937
 21
764.066133
 31
0.0
  0
LINE
  5
10C9
100
AcDbEntity
  8
10000_FRONT
370
    25
390
0
  6
CONTINUOUS
 62
     7
100
AcDbLine
 10
338.625937
 20
764.066133
 30
0.0
 11
338.798217
 21
764.085067
 31
0.0
  0
LINE
  5
10CA
100
AcDbEntity
  8
10000_FRONT
370
    25
390
0
  6
CONTINUOUS
 62
     7
100
AcDbLine
 10
338.798217
 20
764.085067
 30
0.0
 11
338.96927
 21
764.096297
 31
0.0
  0
LINE
  5
10CB
100
AcDbEntity
  8
10000_FRONT
370
    25
390
0
  6
CONTINUOUS
 62
     7
100
AcDbLine
 10
338.96927
 20
764.096297
 30
0.0
 11
339.138397
 21
764.1
 31
0.0
  0
LINE
  5
10CC
100
AcDbEntity
  8
10000_FRONT
370
    25
390
0
  6
CONTINUOUS
 62
     7
100
AcDbLine
 10
339.138397
 20
764.1
 30
0.0
 11
339.307524
 21
764.096297
 31
0.0
  0
LINE
  5
10CD
100
AcDbEntity
  8
10000_FRONT
370
    25
390
0
  6
CONTINUOUS
 62
     7
100
AcDbLine
 10
339.307524
 20
764.096297
 30
0.0
 11
339.478576
 21
764.085067
 31
0.0
  0
LINE
  5
10CE
100
AcDbEntity
  8
10000_FRONT
370
    25
390
0
  6
CONTINUOUS
 62
     7
100
AcDbLine
 10
339.478576
 20
764.085067
 30
0.0
 11
339.650857
 21
764.066133
 31
0.0
  0
LINE
  5
10CF
100
AcDbEntity
  8
10000_FRONT
370
    25
390
0
  6
CONTINUOUS
 62
     7
100
AcDbLine
 10
339.650857
 20
764.066133
 30
0.0
 11
339.823669
 21
764.039317
 31
0.0
  0
LINE
  5
10D0
100
AcDbEntity
  8
10000_FRONT
370
    25
390
0
  6
CONTINUOUS
 62
     7
100
AcDbLine
 10
339.823669
 20
764.039317
 30
0.0
 11
339.996317
 21
764.004452
 31
0.0
  0
LINE
  5
10D1
100
AcDbEntity
  8
10000_FRONT
370
    25
390
0
  6
CONTINUOUS
 62
     7
100
AcDbLine
 10
339.996317
 20
764.004452
 30
0.0
 11
340.168139
 21
763.961542
 31
0.0
  0
LINE
  5
10D2
100
AcDbEntity
  8
10000_FRONT
370
    25
390
0
  6
CONTINUOUS
 62
     7
100
AcDbLine
 10
340.168139
 20
763.961542
 30
0.0
 11
340.338496
 21
763.910701
 31
0.0
  0
LINE
  5
10D3
100
AcDbEntity
  8
10000_FRONT
370
    25
390
0
  6
CONTINUOUS
 62
     7
100
AcDbLine
 10
340.338496
 20
763.910701
 30
0.0
 11
340.506749
 21
763.852048
 31
0.0
  0
LINE
  5
10D4
100
AcDbEntity
  8
10000_FRONT
370
    25
390
0
  6
CONTINUOUS
 62
     7
100
AcDbLine
 10
340.506749
 20
763.852048
 30
0.0
 11
340.672262
 21
763.785699
 31
0.0
  0
LINE
  5
10D5
100
AcDbEntity
  8
10000_FRONT
370
    25
390
0
  6
CONTINUOUS
 62
     7
100
AcDbLine
 10
340.672262
 20
763.785699
 30
0.0
 11
340.834511
 21
763.711818
 31
0.0
  0
LINE
  5
10D6
100
AcDbEntity
  8
10000_FRONT
370
    25
390
0
  6
CONTINUOUS
 62
     7
100
AcDbLine
 10
340.834511
 20
763.711818
 30
0.0
 11
340.992989
 21
763.630742
 31
0.0
  0
LINE
  5
10D7
100
AcDbEntity
  8
10000_FRONT
370
    25
390
0
  6
CONTINUOUS
 62
     7
100
AcDbLine
 10
340.992989
 20
763.630742
 30
0.0
 11
341.14716
 21
763.54284
 31
0.0
  0
LINE
  5
10D8
100
AcDbEntity
  8
10000_FRONT
370
    25
390
0
  6
CONTINUOUS
 62
     7
100
AcDbLine
 10
341.14716
 20
763.54284
 30
0.0
 11
341.296488
 21
763.448482
 31
0.0
  0
LINE
  5
10D9
100
AcDbEntity
  8
10000_FRONT
370
    25
390
0
  6
CONTINUOUS
 62
     7
100
AcDbLine
 10
341.296488
 20
763.448482
 30
0.0
 11
341.440457
 21
763.348062
 31
0.0
  0
LINE
  5
10DA
100
AcDbEntity
  8
10000_FRONT
370
    25
390
0
  6
CONTINUOUS
 62
     7
100
AcDbLine
 10
341.440457
 20
763.348062
 30
0.0
 11
341.578658
 21
763.242139
 31
0.0
  0
LINE
  5
10DB
100
AcDbEntity
  8
10000_FRONT
370
    25
390
0
  6
CONTINUOUS
 62
     7
100
AcDbLine
 10
341.578658
 20
763.242139
 30
0.0
 11
341.710723
 21
763.131331
 31
0.0
  0
LINE
  5
10DC
100
AcDbEntity
  8
10000_FRONT
370
    25
390
0
  6
CONTINUOUS
 62
     7
100
AcDbLine
 10
341.710723
 20
763.131331
 30
0.0
 11
341.836286
 21
763.016258
 31
0.0
  0
LINE
  5
10DD
100
AcDbEntity
  8
10000_FRONT
370
    25
390
0
  6
CONTINUOUS
 62
     7
100
AcDbLine
 10
341.836286
 20
763.016258
 30
0.0
 11
341.955447
 21
762.897062
 31
0.0
  0
LINE
  5
10DE
100
AcDbEntity
  8
10000_FRONT
370
    25
390
0
  6
CONTINUOUS
 62
     7
100
AcDbLine
 10
341.955447
 20
762.897062
 30
0.0
 11
342.07049
 21
762.771457
 31
0.0
  0
LINE
  5
10DF
100
AcDbEntity
  8
10000_FRONT
370
    25
390
0
  6
CONTINUOUS
 62
     7
100
AcDbLine
 10
342.07049
 20
762.771457
 30
0.0
 11
342.18126
 21
762.639358
 31
0.0
  0
LINE
  5
10E0
100
AcDbEntity
  8
10000_FRONT
370
    25
390
0
  6
CONTINUOUS
 62
     7
100
AcDbLine
 10
342.18126
 20
762.639358
 30
0.0
 11
342.287136
 21
762.501135
 31
0.0
  0
LINE
  5
10E1
100
AcDbEntity
  8
10000_FRONT
370
    25
390
0
  6
CONTINUOUS
 62
     7
100
AcDbLine
 10
342.287136
 20
762.501135
 30
0.0
 11
342.387501
 21
762.357154
 31
0.0
  0
LINE
  5
10E2
100
AcDbEntity
  8
10000_FRONT
370
    25
390
0
  6
CONTINUOUS
 62
     7
100
AcDbLine
 10
342.387501
 20
762.357154
 30
0.0
 11
342.481801
 21
762.207824
 31
0.0
  0
LINE
  5
10E3
100
AcDbEntity
  8
10000_FRONT
370
    25
390
0
  6
CONTINUOUS
 62
     7
100
AcDbLine
 10
342.481801
 20
762.207824
 30
0.0
 11
342.569641
 21
762.053664
 31
0.0
  0
LINE
  5
10E4
100
AcDbEntity
  8
10000_FRONT
370
    25
390
0
  6
CONTINUOUS
 62
     7
100
AcDbLine
 10
342.569641
 20
762.053664
 30
0.0
 11
342.650652
 21
761.895209
 31
0.0
  0
LINE
  5
10E5
100
AcDbEntity
  8
10000_FRONT
370
    25
390
0
  6
CONTINUOUS
 62
     7
100
AcDbLine
 10
342.650652
 20
761.895209
 30
0.0
 11
342.724468
 21
761.732994
 31
0.0
  0
LINE
  5
10E6
100
AcDbEntity
  8
10000_FRONT
370
    25
390
0
  6
CONTINUOUS
 62
     7
100
AcDbLine
 10
342.724468
 20
761.732994
 30
0.0
 11
342.790753
 21
761.567529
 31
0.0
  0
LINE
  5
10E7
100
AcDbEntity
  8
10000_FRONT
370
    25
390
0
  6
CONTINUOUS
 62
     7
100
AcDbLine
 10
342.790753
 20
761.567529
 30
0.0
 11
342.849345
 21
761.399336
 31
0.0
  0
LINE
  5
10E8
100
AcDbEntity
  8
10000_FRONT
370
    25
390
0
  6
CONTINUOUS
 62
     7
100
AcDbLine
 10
342.849345
 20
761.399336
 30
0.0
 11
342.900127
 21
761.229053
 31
0.0
  0
LINE
  5
10E9
100
AcDbEntity
  8
10000_FRONT
370
    25
390
0
  6
CONTINUOUS
 62
     7
100
AcDbLine
 10
342.900127
 20
761.229053
 30
0.0
 11
342.942985
 21
761.057316
 31
0.0
  0
LINE
  5
10EA
100
AcDbEntity
  8
10000_FRONT
370
    25
390
0
  6
CONTINUOUS
 62
     7
100
AcDbLine
 10
342.942985
 20
761.057316
 30
0.0
 11
342.977804
 21
760.884766
 31
0.0
  0
LINE
  5
10EB
100
AcDbEntity
  8
10000_FRONT
370
    25
390
0
  6
CONTINUOUS
 62
     7
100
AcDbLine
 10
342.977804
 20
760.884766
 30
0.0
 11
343.004582
 21
760.712065
 31
0.0
  0
LINE
  5
10EC
100
AcDbEntity
  8
10000_FRONT
370
    25
390
0
  6
CONTINUOUS
 62
     7
100
AcDbLine
 10
343.004582
 20
760.712065
 30
0.0
 11
343.023488
 21
760.539906
 31
0.0
  0
LINE
  5
10ED
100
AcDbEntity
  8
10000_FRONT
370
    25
390
0
  6
CONTINUOUS
 62
     7
100
AcDbLine
 10
343.023488
 20
760.539906
 30
0.0
 11
343.0347
 21
760.368986
 31
0.0
  0
LINE
  5
10EE
100
AcDbEntity
  8
10000_FRONT
370
    25
390
0
  6
CONTINUOUS
 62
     7
100
AcDbLine
 10
343.0347
 20
760.368986
 30
0.0
 11
343.038397
 21
760.2
 31
0.0
  0
ARC
  5
10EF
100
AcDbEntity
  8
10000_FRONT
370
    25
390
0
  6
CONTINUOUS
 62
     7
100
AcDbCircle
 10
339.138397
 20
760.2
 30
0.0
 40
3.2
100
AcDbArc
 50
0.0
 51
180.0
  0
ARC
  5
10F0
100
AcDbEntity
  8
10000_FRONT
370
    25
390
0
  6
CONTINUOUS
 62
     7
100
AcDbCircle
 10
339.138397
 20
760.2
 30
0.0
 40
3.1
100
AcDbArc
 50
0.0
 51
180.0
  0
ARC
  5
10F1
100
AcDbEntity
  8
10000_FRONT
370
    25
390
0
  6
CONTINUOUS
 62
     7
100
AcDbCircle
 10
339.138397
 20
760.2
 30
0.0
 40
3.2
100
AcDbArc
 50
180.0
 51
0.0
  0
ARC
  5
10F2
100
AcDbEntity
  8
10000_FRONT
370
    25
390
0
  6
CONTINUOUS
 62
     7
100
AcDbCircle
 10
339.138397
 20
771.2
 30
0.0
 40
3.2
100
AcDbArc
 50
0.0
 51
180.0
  0
ARC
  5
10F3
100
AcDbEntity
  8
10000_FRONT
370
    25
390
0
  6
CONTINUOUS
 62
     7
100
AcDbCircle
 10
339.138397
 20
771.2
 30
0.0
 40
3.1
100
AcDbArc
 50
0.0
 51
180.0
  0
ARC
  5
10F4
100
AcDbEntity
  8
10000_FRONT
370
    25
390
0
  6
CONTINUOUS
 62
     7
100
AcDbCircle
 10
339.138397
 20
771.2
 30
0.0
 40
3.2
100
AcDbArc
 50
180.0
 51
0.0
  0
LINE
  5
10F5
100
AcDbEntity
  8
10000_FRONT
370
    25
390
0
  6
CONTINUOUS
 62
     7
100
AcDbLine
 10
337.488397
 20
798.350001
 30
0.0
 11
337.488397
 21
802.15
 31
0.0
  0
ARC
  5
10F6
100
AcDbEntity
  8
10000_FRONT
370
    25
390
0
  6
CONTINUOUS
 62
     7
100
AcDbCircle
 10
337.288397
 20
802.15
 30
0.0
 40
0.2
100
AcDbArc
 50
0.0
 51
90.000027
  0
LINE
  5
10F7
100
AcDbEntity
  8
10000_FRONT
370
    25
390
0
  6
CONTINUOUS
 62
     7
100
AcDbLine
 10
337.288397
 20
802.350001
 30
0.0
 11
322.088397
 21
802.350001
 31
0.0
  0
ARC
  5
10F8
100
AcDbEntity
  8
10000_FRONT
370
    25
390
0
  6
CONTINUOUS
 62
     7
100
AcDbCircle
 10
322.088397
 20
802.15
 30
0.0
 40
0.2
100
AcDbArc
 50
89.999973
 51
180.0
  0
LINE
  5
10F9
100
AcDbEntity
  8
10000_FRONT
370
    25
390
0
  6
CONTINUOUS
 62
     7
100
AcDbLine
 10
321.888397
 20
802.15
 30
0.0
 11
321.888397
 21
798.350001
 31
0.0
  0
ARC
  5
10FA
100
AcDbEntity
  8
10000_FRONT
370
    25
390
0
  6
CONTINUOUS
 62
     7
100
AcDbCircle
 10
322.088397
 20
798.35
 30
0.0
 40
0.2
100
AcDbArc
 50
179.999781
 51
270.000027
  0
LINE
  5
10FB
100
AcDbEntity
  8
10000_FRONT
370
    25
390
0
  6
CONTINUOUS
 62
     7
100
AcDbLine
 10
322.088397
 20
798.15
 30
0.0
 11
337.288397
 21
798.15
 31
0.0
  0
ARC
  5
10FC
100
AcDbEntity
  8
10000_FRONT
370
    25
390
0
  6
CONTINUOUS
 62
     7
100
AcDbCircle
 10
337.288397
 20
798.35
 30
0.0
 40
0.2
100
AcDbArc
 50
269.999973
 51
0.000219
  0
LINE
  5
10FD
100
AcDbEntity
  8
10000_FRONT
370
    25
390
0
  6
CONTINUOUS
 62
     7
100
AcDbLine
 10
335.024397
 20
799.196295
 30
0.0
 11
335.024397
 21
799.634552
 31
0.0
  0
ARC
  5
10FE
100
AcDbEntity
  8
10000_FRONT
370
    25
390
0
  6
CONTINUOUS
 62
     7
100
AcDbCircle
 10
335.800915
 20
801.70106
 30
0.0
 40
2.207585
100
AcDbArc
 50
249.405603
 51
266.665878
  0
ARC
  5
10FF
100
AcDbEntity
  8
10000_FRONT
370
    25
390
0
  6
CONTINUOUS
 62
     7
100
AcDbCircle
 10
335.715605
 20
800.123736
 30
0.0
 40
0.628004
100
AcDbArc
 50
266.066542
 51
292.858114
  0
ARC
  5
1100
100
AcDbEntity
  8
10000_FRONT
370
    25
390
0
  6
CONTINUOUS
 62
     7
100
AcDbCircle
 10
335.897761
 20
799.689887
 30
0.0
 40
0.157468
100
AcDbArc
 50
293.104506
 51
0.080132
  0
ARC
  5
1101
100
AcDbEntity
  8
10000_FRONT
370
    25
390
0
  6
CONTINUOUS
 62
     7
100
AcDbCircle
 10
335.874108
 20
799.687793
 30
0.0
 40
0.181136
100
AcDbArc
 50
0.732211
 51
61.854229
  0
ARC
  5
1102
100
AcDbEntity
  8
10000_FRONT
370
    25
390
0
  6
CONTINUOUS
 62
     7
100
AcDbCircle
 10
331.669942
 20
790.990316
 30
0.0
 40
9.841273
100
AcDbArc
 50
64.158716
 51
67.40028
  0
ARC
  5
1103
100
AcDbEntity
  8
10000_FRONT
370
    25
390
0
  6
CONTINUOUS
 62
     7
100
AcDbCircle
 10
335.767804
 20
800.880321
 30
0.0
 40
0.864246
100
AcDbArc
 50
212.423365
 51
248.556758
  0
ARC
  5
1104
100
AcDbEntity
  8
10000_FRONT
370
    25
390
0
  6
CONTINUOUS
 62
     7
100
AcDbCircle
 10
335.55342
 20
800.689895
 30
0.0
 40
0.582983
100
AcDbArc
 50
153.406567
 51
207.918049
  0
ARC
  5
1105
100
AcDbEntity
  8
10000_FRONT
370
    25
390
0
  6
CONTINUOUS
 62
     7
100
AcDbCircle
 10
335.64256
 20
800.59688
 30
0.0
 40
0.70566
100
AcDbArc
 50
101.936969
 51
149.891075
  0
ARC
  5
1106
100
AcDbEntity
  8
10000_FRONT
370
    25
390
0
  6
CONTINUOUS
 62
     7
100
AcDbCircle
 10
335.942413
 20
799.263608
 30
0.0
 40
2.072196
100
AcDbArc
 50
74.886922
 51
102.423622
  0
LINE
  5
1107
100
AcDbEntity
  8
10000_FRONT
370
    25
390
0
  6
CONTINUOUS
 62
     7
100
AcDbLine
 10
336.482686
 20
801.264132
 30
0.0
 11
336.482686
 21
800.855194
 31
0.0
  0
ARC
  5
1108
100
AcDbEntity
  8
10000_FRONT
370
    25
390
0
  6
CONTINUOUS
 62
     7
100
AcDbCircle
 10
335.93287
 20
799.285624
 30
0.0
 40
1.663085
100
AcDbArc
 50
70.694817
 51
95.842713
  0
ARC
  5
1109
100
AcDbEntity
  8
10000_FRONT
370
    25
390
0
  6
CONTINUOUS
 62
     7
100
AcDbCircle
 10
335.785803
 20
800.690346
 30
0.0
 40
0.25071
100
AcDbArc
 50
95.087299
 51
138.888511
  0
ARC
  5
110A
100
AcDbEntity
  8
10000_FRONT
370
    25
390
0
  6
CONTINUOUS
 62
     7
100
AcDbCircle
 10
335.699922
 20
800.782693
 30
0.0
 40
0.125968
100
AcDbArc
 50
144.861363
 51
206.967335
  0
ARC
  5
110B
100
AcDbEntity
  8
10000_FRONT
370
    25
390
0
  6
CONTINUOUS
 62
     7
100
AcDbCircle
 10
336.002314
 20
801.112568
 30
0.0
 40
0.567198
100
AcDbArc
 50
223.023606
 51
247.996479
  0
LINE
  5
110C
100
AcDbEntity
  8
10000_FRONT
370
    25
390
0
  6
CONTINUOUS
 62
     7
100
AcDbLine
 10
335.789805
 20
800.586684
 30
0.0
 11
336.17251
 21
800.413849
 31
0.0
  0
ARC
  5
110D
100
AcDbEntity
  8
10000_FRONT
370
    25
390
0
  6
CONTINUOUS
 62
     7
100
AcDbCircle
 10
335.822974
 20
799.586505
 30
0.0
 40
0.898151
100
AcDbArc
 50
32.199054
 51
67.096925
  0
ARC
  5
110E
100
AcDbEntity
  8
10000_FRONT
370
    25
390
0
  6
CONTINUOUS
 62
     7
100
AcDbCircle
 10
336.03013
 20
799.7827
 30
0.0
 40
0.620808
100
AcDbArc
 50
333.89737
 51
27.057559
  0
ARC
  5
110F
100
AcDbEntity
  8
10000_FRONT
370
    25
390
0
  6
CONTINUOUS
 62
     7
100
AcDbCircle
 10
335.924895
 20
799.887626
 30
0.0
 40
0.762982
100
AcDbArc
 50
283.385311
 51
330.296219
  0
ARC
  5
1110
100
AcDbEntity
  8
10000_FRONT
370
    25
390
0
  6
CONTINUOUS
 62
     7
100
AcDbCircle
 10
335.688702
 20
801.830452
 30
0.0
 40
2.716631
100
AcDbArc
 50
255.845781
 51
278.740595
  0
LINE
  5
1111
100
AcDbEntity
  8
10000_FRONT
370
    25
390
0
  6
CONTINUOUS
 62
     7
100
AcDbLine
 10
330.816397
 20
801.279564
 30
0.0
 11
332.390423
 21
801.279564
 31
0.0
  0
LINE
  5
1112
100
AcDbEntity
  8
10000_FRONT
370
    25
390
0
  6
CONTINUOUS
 62
     7
100
AcDbLine
 10
332.390423
 20
801.279564
 30
0.0
 11
332.390423
 21
800.898404
 31
0.0
  0
LINE
  5
1113
100
AcDbEntity
  8
10000_FRONT
370
    25
390
0
  6
CONTINUOUS
 62
     7
100
AcDbLine
 10
332.390423
 20
800.898404
 30
0.0
 11
331.438291
 21
800.898404
 31
0.0
  0
LINE
  5
1114
100
AcDbEntity
  8
10000_FRONT
370
    25
390
0
  6
CONTINUOUS
 62
     7
100
AcDbLine
 10
331.438291
 20
800.898404
 30
0.0
 11
331.438291
 21
800.413849
 31
0.0
  0
LINE
  5
1115
100
AcDbEntity
  8
10000_FRONT
370
    25
390
0
  6
CONTINUOUS
 62
     7
100
AcDbLine
 10
331.438291
 20
800.413849
 30
0.0
 11
332.270056
 21
800.413849
 31
0.0
  0
LINE
  5
1116
100
AcDbEntity
  8
10000_FRONT
370
    25
390
0
  6
CONTINUOUS
 62
     7
100
AcDbLine
 10
332.270056
 20
800.413849
 30
0.0
 11
332.270056
 21
800.049664
 31
0.0
  0
LINE
  5
1117
100
AcDbEntity
  8
10000_FRONT
370
    25
390
0
  6
CONTINUOUS
 62
     7
100
AcDbLine
 10
332.270056
 20
800.049664
 30
0.0
 11
331.438291
 21
800.049664
 31
0.0
  0
LINE
  5
1118
100
AcDbEntity
  8
10000_FRONT
370
    25
390
0
  6
CONTINUOUS
 62
     7
100
AcDbLine
 10
331.438291
 20
800.049664
 30
0.0
 11
331.438291
 21
799.548136
 31
0.0
  0
LINE
  5
1119
100
AcDbEntity
  8
10000_FRONT
370
    25
390
0
  6
CONTINUOUS
 62
     7
100
AcDbLine
 10
331.438291
 20
799.548136
 30
0.0
 11
332.390423
 21
799.548136
 31
0.0
  0
LINE
  5
111A
100
AcDbEntity
  8
10000_FRONT
370
    25
390
0
  6
CONTINUOUS
 62
     7
100
AcDbLine
 10
332.390423
 20
799.548136
 30
0.0
 11
332.390423
 21
799.15
 31
0.0
  0
LINE
  5
111B
100
AcDbEntity
  8
10000_FRONT
370
    25
390
0
  6
CONTINUOUS
 62
     7
100
AcDbLine
 10
332.390423
 20
799.15
 30
0.0
 11
330.816397
 21
799.15
 31
0.0
  0
LINE
  5
111C
100
AcDbEntity
  8
10000_FRONT
370
    25
390
0
  6
CONTINUOUS
 62
     7
100
AcDbLine
 10
330.816397
 20
799.15
 30
0.0
 11
330.816397
 21
801.279564
 31
0.0
  0
LINE
  5
111D
100
AcDbEntity
  8
10000_FRONT
370
    25
390
0
  6
CONTINUOUS
 62
     7
100
AcDbLine
 10
325.752397
 20
801.279564
 30
0.0
 11
327.326423
 21
801.279564
 31
0.0
  0
LINE
  5
111E
100
AcDbEntity
  8
10000_FRONT
370
    25
390
0
  6
CONTINUOUS
 62
     7
100
AcDbLine
 10
327.326423
 20
801.279564
 30
0.0
 11
327.326423
 21
800.898404
 31
0.0
  0
LINE
  5
111F
100
AcDbEntity
  8
10000_FRONT
370
    25
390
0
  6
CONTINUOUS
 62
     7
100
AcDbLine
 10
327.326423
 20
800.898404
 30
0.0
 11
326.374291
 21
800.898404
 31
0.0
  0
LINE
  5
1120
100
AcDbEntity
  8
10000_FRONT
370
    25
390
0
  6
CONTINUOUS
 62
     7
100
AcDbLine
 10
326.374291
 20
800.898404
 30
0.0
 11
326.374291
 21
800.413849
 31
0.0
  0
LINE
  5
1121
100
AcDbEntity
  8
10000_FRONT
370
    25
390
0
  6
CONTINUOUS
 62
     7
100
AcDbLine
 10
326.374291
 20
800.413849
 30
0.0
 11
327.206056
 21
800.413849
 31
0.0
  0
LINE
  5
1122
100
AcDbEntity
  8
10000_FRONT
370
    25
390
0
  6
CONTINUOUS
 62
     7
100
AcDbLine
 10
327.206056
 20
800.413849
 30
0.0
 11
327.206056
 21
800.049664
 31
0.0
  0
LINE
  5
1123
100
AcDbEntity
  8
10000_FRONT
370
    25
390
0
  6
CONTINUOUS
 62
     7
100
AcDbLine
 10
327.206056
 20
800.049664
 30
0.0
 11
326.374291
 21
800.049664
 31
0.0
  0
LINE
  5
1124
100
AcDbEntity
  8
10000_FRONT
370
    25
390
0
  6
CONTINUOUS
 62
     7
100
AcDbLine
 10
326.374291
 20
800.049664
 30
0.0
 11
326.374291
 21
799.548136
 31
0.0
  0
LINE
  5
1125
100
AcDbEntity
  8
10000_FRONT
370
    25
390
0
  6
CONTINUOUS
 62
     7
100
AcDbLine
 10
326.374291
 20
799.548136
 30
0.0
 11
327.326423
 21
799.548136
 31
0.0
  0
LINE
  5
1126
100
AcDbEntity
  8
10000_FRONT
370
    25
390
0
  6
CONTINUOUS
 62
     7
100
AcDbLine
 10
327.326423
 20
799.548136
 30
0.0
 11
327.326423
 21
799.15
 31
0.0
  0
LINE
  5
1127
100
AcDbEntity
  8
10000_FRONT
370
    25
390
0
  6
CONTINUOUS
 62
     7
100
AcDbLine
 10
327.326423
 20
799.15
 30
0.0
 11
325.752397
 21
799.15
 31
0.0
  0
LINE
  5
1128
100
AcDbEntity
  8
10000_FRONT
370
    25
390
0
  6
CONTINUOUS
 62
     7
100
AcDbLine
 10
325.752397
 20
799.15
 30
0.0
 11
325.752397
 21
801.279564
 31
0.0
  0
LINE
  5
1129
100
AcDbEntity
  8
10000_FRONT
370
    25
390
0
  6
CONTINUOUS
 62
     7
100
AcDbLine
 10
322.688397
 20
799.196295
 30
0.0
 11
322.688397
 21
799.634552
 31
0.0
  0
ARC
  5
112A
100
AcDbEntity
  8
10000_FRONT
370
    25
390
0
  6
CONTINUOUS
 62
     7
100
AcDbCircle
 10
323.464915
 20
801.70106
 30
0.0
 40
2.207585
100
AcDbArc
 50
249.405604
 51
266.665879
  0
ARC
  5
112B
100
AcDbEntity
  8
10000_FRONT
370
    25
390
0
  6
CONTINUOUS
 62
     7
100
AcDbCircle
 10
323.379605
 20
800.123736
 30
0.0
 40
0.628004
100
AcDbArc
 50
266.066545
 51
292.858117
  0
ARC
  5
112C
100
AcDbEntity
  8
10000_FRONT
370
    25
390
0
  6
CONTINUOUS
 62
     7
100
AcDbCircle
 10
323.561761
 20
799.689887
 30
0.0
 40
0.157468
100
AcDbArc
 50
293.104518
 51
0.080132
  0
ARC
  5
112D
100
AcDbEntity
  8
10000_FRONT
370
    25
390
0
  6
CONTINUOUS
 62
     7
100
AcDbCircle
 10
323.538108
 20
799.687793
 30
0.0
 40
0.181136
100
AcDbArc
 50
0.73221
 51
61.854219
  0
ARC
  5
112E
100
AcDbEntity
  8
10000_FRONT
370
    25
390
0
  6
CONTINUOUS
 62
     7
100
AcDbCircle
 10
319.333942
 20
790.990316
 30
0.0
 40
9.841273
100
AcDbArc
 50
64.158716
 51
67.40028
  0
ARC
  5
112F
100
AcDbEntity
  8
10000_FRONT
370
    25
390
0
  6
CONTINUOUS
 62
     7
100
AcDbCircle
 10
323.431804
 20
800.880321
 30
0.0
 40
0.864246
100
AcDbArc
 50
212.423366
 51
248.55676
  0
ARC
  5
1130
100
AcDbEntity
  8
10000_FRONT
370
    25
390
0
  6
CONTINUOUS
 62
     7
100
AcDbCircle
 10
323.21742
 20
800.689895
 30
0.0
 40
0.582983
100
AcDbArc
 50
153.406566
 51
207.91805
  0
ARC
  5
1131
100
AcDbEntity
  8
10000_FRONT
370
    25
390
0
  6
CONTINUOUS
 62
     7
100
AcDbCircle
 10
323.30656
 20
800.59688
 30
0.0
 40
0.70566
100
AcDbArc
 50
101.937004
 51
149.891074
  0
ARC
  5
1132
100
AcDbEntity
  8
10000_FRONT
370
    25
390
0
  6
CONTINUOUS
 62
     7
100
AcDbCircle
 10
323.606413
 20
799.263608
 30
0.0
 40
2.072196
100
AcDbArc
 50
74.886921
 51
102.423633
  0
LINE
  5
1133
100
AcDbEntity
  8
10000_FRONT
370
    25
390
0
  6
CONTINUOUS
 62
     7
100
AcDbLine
 10
324.146686
 20
801.264132
 30
0.0
 11
324.146686
 21
800.855194
 31
0.0
  0
ARC
  5
1134
100
AcDbEntity
  8
10000_FRONT
370
    25
390
0
  6
CONTINUOUS
 62
     7
100
AcDbCircle
 10
323.59687
 20
799.285624
 30
0.0
 40
1.663085
100
AcDbArc
 50
70.694816
 51
95.842711
  0
ARC
  5
1135
100
AcDbEntity
  8
10000_FRONT
370
    25
390
0
  6
CONTINUOUS
 62
     7
100
AcDbCircle
 10
323.449803
 20
800.690346
 30
0.0
 40
0.25071
100
AcDbArc
 50
95.087291
 51
138.888577
  0
ARC
  5
1136
100
AcDbEntity
  8
10000_FRONT
370
    25
390
0
  6
CONTINUOUS
 62
     7
100
AcDbCircle
 10
323.363922
 20
800.782693
 30
0.0
 40
0.125968
100
AcDbArc
 50
144.861479
 51
206.967342
  0
ARC
  5
1137
100
AcDbEntity
  8
10000_FRONT
370
    25
390
0
  6
CONTINUOUS
 62
     7
100
AcDbCircle
 10
323.666314
 20
801.112568
 30
0.0
 40
0.567198
100
AcDbArc
 50
223.023609
 51
247.996482
  0
LINE
  5
1138
100
AcDbEntity
  8
10000_FRONT
370
    25
390
0
  6
CONTINUOUS
 62
     7
100
AcDbLine
 10
323.453806
 20
800.586684
 30
0.0
 11
323.83651
 21
800.413849
 31
0.0
  0
ARC
  5
1139
100
AcDbEntity
  8
10000_FRONT
370
    25
390
0
  6
CONTINUOUS
 62
     7
100
AcDbCircle
 10
323.486974
 20
799.586505
 30
0.0
 40
0.898151
100
AcDbArc
 50
32.199053
 51
67.096923
  0
ARC
  5
113A
100
AcDbEntity
  8
10000_FRONT
370
    25
390
0
  6
CONTINUOUS
 62
     7
100
AcDbCircle
 10
323.69413
 20
799.7827
 30
0.0
 40
0.620808
100
AcDbArc
 50
333.897371
 51
27.057557
  0
ARC
  5
113B
100
AcDbEntity
  8
10000_FRONT
370
    25
390
0
  6
CONTINUOUS
 62
     7
100
AcDbCircle
 10
323.588895
 20
799.887626
 30
0.0
 40
0.762982
100
AcDbArc
 50
283.385313
 51
330.296221
  0
ARC
  5
113C
100
AcDbEntity
  8
10000_FRONT
370
    25
390
0
  6
CONTINUOUS
 62
     7
100
AcDbCircle
 10
323.352702
 20
801.830452
 30
0.0
 40
2.716631
100
AcDbArc
 50
255.845782
 51
278.740596
  0
LINE
  5
113D
100
AcDbEntity
  8
10000_FRONT
370
    25
390
0
  6
CONTINUOUS
 62
     7
100
AcDbLine
 10
324.628397
 20
799.15
 30
0.0
 11
324.628397
 21
801.279564
 31
0.0
  0
LINE
  5
113E
100
AcDbEntity
  8
10000_FRONT
370
    25
390
0
  6
CONTINUOUS
 62
     7
100
AcDbLine
 10
324.628397
 20
801.279564
 30
0.0
 11
325.250291
 21
801.279564
 31
0.0
  0
LINE
  5
113F
100
AcDbEntity
  8
10000_FRONT
370
    25
390
0
  6
CONTINUOUS
 62
     7
100
AcDbLine
 10
325.250291
 20
801.279564
 30
0.0
 11
325.250291
 21
799.15
 31
0.0
  0
LINE
  5
1140
100
AcDbEntity
  8
10000_FRONT
370
    25
390
0
  6
CONTINUOUS
 62
     7
100
AcDbLine
 10
325.250291
 20
799.15
 30
0.0
 11
324.628397
 21
799.15
 31
0.0
  0
LINE
  5
1141
100
AcDbEntity
  8
10000_FRONT
370
    25
390
0
  6
CONTINUOUS
 62
     7
100
AcDbLine
 10
327.708397
 20
799.15
 30
0.0
 11
327.708397
 21
801.279564
 31
0.0
  0
LINE
  5
1142
100
AcDbEntity
  8
10000_FRONT
370
    25
390
0
  6
CONTINUOUS
 62
     7
100
AcDbLine
 10
327.708397
 20
801.279564
 30
0.0
 11
328.478435
 21
801.279564
 31
0.0
  0
LINE
  5
1143
100
AcDbEntity
  8
10000_FRONT
370
    25
390
0
  6
CONTINUOUS
 62
     7
100
AcDbLine
 10
328.478435
 20
801.279564
 30
0.0
 11
329.024715
 21
799.981764
 31
0.0
  0
LINE
  5
1144
100
AcDbEntity
  8
10000_FRONT
370
    25
390
0
  6
CONTINUOUS
 62
     7
100
AcDbLine
 10
329.024715
 20
799.981764
 30
0.0
 11
329.575624
 21
801.279564
 31
0.0
  0
LINE
  5
1145
100
AcDbEntity
  8
10000_FRONT
370
    25
390
0
  6
CONTINUOUS
 62
     7
100
AcDbLine
 10
329.575624
 20
801.279564
 30
0.0
 11
330.339489
 21
801.279564
 31
0.0
  0
LINE
  5
1146
100
AcDbEntity
  8
10000_FRONT
370
    25
390
0
  6
CONTINUOUS
 62
     7
100
AcDbLine
 10
330.339489
 20
801.279564
 30
0.0
 11
330.339489
 21
799.15
 31
0.0
  0
LINE
  5
1147
100
AcDbEntity
  8
10000_FRONT
370
    25
390
0
  6
CONTINUOUS
 62
     7
100
AcDbLine
 10
330.339489
 20
799.15
 30
0.0
 11
329.720681
 21
799.15
 31
0.0
  0
LINE
  5
1148
100
AcDbEntity
  8
10000_FRONT
370
    25
390
0
  6
CONTINUOUS
 62
     7
100
AcDbLine
 10
329.720681
 20
799.15
 30
0.0
 11
329.720681
 21
800.557364
 31
0.0
  0
LINE
  5
1149
100
AcDbEntity
  8
10000_FRONT
370
    25
390
0
  6
CONTINUOUS
 62
     7
100
AcDbLine
 10
329.720681
 20
800.557364
 30
0.0
 11
329.121934
 21
799.15
 31
0.0
  0
LINE
  5
114A
100
AcDbEntity
  8
10000_FRONT
370
    25
390
0
  6
CONTINUOUS
 62
     7
100
AcDbLine
 10
329.121934
 20
799.15
 30
0.0
 11
328.717625
 21
799.15
 31
0.0
  0
LINE
  5
114B
100
AcDbEntity
  8
10000_FRONT
370
    25
390
0
  6
CONTINUOUS
 62
     7
100
AcDbLine
 10
328.717625
 20
799.15
 30
0.0
 11
328.123508
 21
800.552735
 31
0.0
  0
LINE
  5
114C
100
AcDbEntity
  8
10000_FRONT
370
    25
390
0
  6
CONTINUOUS
 62
     7
100
AcDbLine
 10
328.123508
 20
800.552735
 30
0.0
 11
328.123508
 21
799.15
 31
0.0
  0
LINE
  5
114D
100
AcDbEntity
  8
10000_FRONT
370
    25
390
0
  6
CONTINUOUS
 62
     7
100
AcDbLine
 10
328.123508
 20
799.15
 30
0.0
 11
327.708397
 21
799.15
 31
0.0
  0
LINE
  5
114E
100
AcDbEntity
  8
10000_FRONT
370
    25
390
0
  6
CONTINUOUS
 62
     7
100
AcDbLine
 10
332.772397
 20
799.15
 30
0.0
 11
332.772397
 21
801.279564
 31
0.0
  0
LINE
  5
114F
100
AcDbEntity
  8
10000_FRONT
370
    25
390
0
  6
CONTINUOUS
 62
     7
100
AcDbLine
 10
332.772397
 20
801.279564
 30
0.0
 11
333.463734
 21
801.279564
 31
0.0
  0
LINE
  5
1150
100
AcDbEntity
  8
10000_FRONT
370
    25
390
0
  6
CONTINUOUS
 62
     7
100
AcDbLine
 10
333.463734
 20
801.279564
 30
0.0
 11
334.229142
 21
799.946272
 31
0.0
  0
LINE
  5
1151
100
AcDbEntity
  8
10000_FRONT
370
    25
390
0
  6
CONTINUOUS
 62
     7
100
AcDbLine
 10
334.229142
 20
799.946272
 30
0.0
 11
334.229142
 21
801.279564
 31
0.0
  0
LINE
  5
1152
100
AcDbEntity
  8
10000_FRONT
370
    25
390
0
  6
CONTINUOUS
 62
     7
100
AcDbLine
 10
334.229142
 20
801.279564
 30
0.0
 11
334.639624
 21
801.279564
 31
0.0
  0
LINE
  5
1153
100
AcDbEntity
  8
10000_FRONT
370
    25
390
0
  6
CONTINUOUS
 62
     7
100
AcDbLine
 10
334.639624
 20
801.279564
 30
0.0
 11
334.639624
 21
799.15
 31
0.0
  0
LINE
  5
1154
100
AcDbEntity
  8
10000_FRONT
370
    25
390
0
  6
CONTINUOUS
 62
     7
100
AcDbLine
 10
334.639624
 20
799.15
 30
0.0
 11
333.969891
 21
799.15
 31
0.0
  0
LINE
  5
1155
100
AcDbEntity
  8
10000_FRONT
370
    25
390
0
  6
CONTINUOUS
 62
     7
100
AcDbLine
 10
333.969891
 20
799.15
 30
0.0
 11
333.206026
 21
800.500267
 31
0.0
  0
LINE
  5
1156
100
AcDbEntity
  8
10000_FRONT
370
    25
390
0
  6
CONTINUOUS
 62
     7
100
AcDbLine
 10
333.206026
 20
800.500267
 30
0.0
 11
333.206026
 21
799.15
 31
0.0
  0
LINE
  5
1157
100
AcDbEntity
  8
10000_FRONT
370
    25
390
0
  6
CONTINUOUS
 62
     7
100
AcDbLine
 10
333.206026
 20
799.15
 30
0.0
 11
332.772397
 21
799.15
 31
0.0
  0
LINE
  5
1158
100
AcDbEntity
  8
10000_FRONT
370
    25
390
0
  6
CONTINUOUS
 62
     7
100
AcDbLine
 10
339.638397
 20
768.25
 30
0.0
 11
338.638397
 21
768.25
 31
0.0
  0
LINE
  5
1159
100
AcDbEntity
  8
10000_FRONT
370
    25
390
0
  6
CONTINUOUS
 62
     7
100
AcDbLine
 10
339.638397
 20
770.366667
 30
0.0
 11
339.638397
 21
768.25
 31
0.0
  0
ARC
  5
115A
100
AcDbEntity
  8
10000_FRONT
370
    25
390
0
  6
CONTINUOUS
 62
     7
100
AcDbCircle
 10
339.97173
 20
770.366667
 30
0.0
 40
0.333333
100
AcDbArc
 50
89.999924
 51
180.0
  0
LINE
  5
115B
100
AcDbEntity
  8
10000_FRONT
370
    25
390
0
  6
CONTINUOUS
 62
     7
100
AcDbLine
 10
340.971731
 20
770.7
 30
0.0
 11
339.971731
 21
770.7
 31
0.0
  0
LINE
  5
115C
100
AcDbEntity
  8
10000_FRONT
370
    25
390
0
  6
CONTINUOUS
 62
     7
100
AcDbLine
 10
340.971731
 20
771.7
 30
0.0
 11
340.971731
 21
770.7
 31
0.0
  0
LINE
  5
115D
100
AcDbEntity
  8
10000_FRONT
370
    25
390
0
  6
CONTINUOUS
 62
     7
100
AcDbLine
 10
339.971731
 20
771.7
 30
0.0
 11
340.971731
 21
771.7
 31
0.0
  0
ARC
  5
115E
100
AcDbEntity
  8
10000_FRONT
370
    25
390
0
  6
CONTINUOUS
 62
     7
100
AcDbCircle
 10
339.97173
 20
772.033333
 30
0.0
 40
0.333333
100
AcDbArc
 50
180.0
 51
270.000076
  0
LINE
  5
115F
100
AcDbEntity
  8
10000_FRONT
370
    25
390
0
  6
CONTINUOUS
 62
     7
100
AcDbLine
 10
339.638397
 20
774.15
 30
0.0
 11
339.638397
 21
772.033333
 31
0.0
  0
LINE
  5
1160
100
AcDbEntity
  8
10000_FRONT
370
    25
390
0
  6
CONTINUOUS
 62
     7
100
AcDbLine
 10
338.638397
 20
774.15
 30
0.0
 11
339.638397
 21
774.15
 31
0.0
  0
LINE
  5
1161
100
AcDbEntity
  8
10000_FRONT
370
    25
390
0
  6
CONTINUOUS
 62
     7
100
AcDbLine
 10
338.638397
 20
772.033333
 30
0.0
 11
338.638397
 21
774.15
 31
0.0
  0
ARC
  5
1162
100
AcDbEntity
  8
10000_FRONT
370
    25
390
0
  6
CONTINUOUS
 62
     7
100
AcDbCircle
 10
338.305064
 20
772.033333
 30
0.0
 40
0.333333
100
AcDbArc
 50
270.000022
 51
0.0
  0
LINE
  5
1163
100
AcDbEntity
  8
10000_FRONT
370
    25
390
0
  6
CONTINUOUS
 62
     7
100
AcDbLine
 10
337.305064
 20
771.7
 30
0.0
 11
338.305064
 21
771.7
 31
0.0
  0
LINE
  5
1164
100
AcDbEntity
  8
10000_FRONT
370
    25
390
0
  6
CONTINUOUS
 62
     7
100
AcDbLine
 10
337.305064
 20
770.7
 30
0.0
 11
337.305064
 21
771.7
 31
0.0
  0
LINE
  5
1165
100
AcDbEntity
  8
10000_FRONT
370
    25
390
0
  6
CONTINUOUS
 62
     7
100
AcDbLine
 10
338.305064
 20
770.7
 30
0.0
 11
337.305064
 21
770.7
 31
0.0
  0
ARC
  5
1166
100
AcDbEntity
  8
10000_FRONT
370
    25
390
0
  6
CONTINUOUS
 62
     7
100
AcDbCircle
 10
338.305064
 20
770.366667
 30
0.0
 40
0.333333
100
AcDbArc
 50
0.0
 51
89.999978
  0
LINE
  5
1167
100
AcDbEntity
  8
10000_FRONT
370
    25
390
0
  6
CONTINUOUS
 62
     7
100
AcDbLine
 10
338.638397
 20
768.25
 30
0.0
 11
338.638397
 21
770.366667
 31
0.0
  0
ARC
  5
1168
100
AcDbEntity
  8
10000_FRONT
370
    25
390
0
  6
CONTINUOUS
 62
     7
100
AcDbCircle
 10
339.138397
 20
771.2
 30
0.0
 40
3.1
100
AcDbArc
 50
180.0
 51
0.0
  0
LINE
  5
1169
100
AcDbEntity
  8
10000_FRONT
370
    25
390
0
  6
CONTINUOUS
 62
     7
100
AcDbLine
 10
339.638397
 20
757.25
 30
0.0
 11
338.638397
 21
757.25
 31
0.0
  0
LINE
  5
116A
100
AcDbEntity
  8
10000_FRONT
370
    25
390
0
  6
CONTINUOUS
 62
     7
100
AcDbLine
 10
339.638397
 20
759.366666
 30
0.0
 11
339.638397
 21
757.25
 31
0.0
  0
ARC
  5
116B
100
AcDbEntity
  8
10000_FRONT
370
    25
390
0
  6
CONTINUOUS
 62
     7
100
AcDbCircle
 10
339.97173
 20
759.366667
 30
0.0
 40
0.333333
100
AcDbArc
 50
89.999924
 51
180.000076
  0
LINE
  5
116C
100
AcDbEntity
  8
10000_FRONT
370
    25
390
0
  6
CONTINUOUS
 62
     7
100
AcDbLine
 10
340.971731
 20
759.7
 30
0.0
 11
339.971731
 21
759.7
 31
0.0
  0
LINE
  5
116D
100
AcDbEntity
  8
10000_FRONT
370
    25
390
0
  6
CONTINUOUS
 62
     7
100
AcDbLine
 10
340.971731
 20
760.7
 30
0.0
 11
340.971731
 21
759.7
 31
0.0
  0
LINE
  5
116E
100
AcDbEntity
  8
10000_FRONT
370
    25
390
0
  6
CONTINUOUS
 62
     7
100
AcDbLine
 10
339.971731
 20
760.7
 30
0.0
 11
340.971731
 21
760.7
 31
0.0
  0
ARC
  5
116F
100
AcDbEntity
  8
10000_FRONT
370
    25
390
0
  6
CONTINUOUS
 62
     7
100
AcDbCircle
 10
339.97173
 20
761.033333
 30
0.0
 40
0.333333
100
AcDbArc
 50
180.0
 51
270.000076
  0
LINE
  5
1170
100
AcDbEntity
  8
10000_FRONT
370
    25
390
0
  6
CONTINUOUS
 62
     7
100
AcDbLine
 10
339.638397
 20
763.15
 30
0.0
 11
339.638397
 21
761.033333
 31
0.0
  0
LINE
  5
1171
100
AcDbEntity
  8
10000_FRONT
370
    25
390
0
  6
CONTINUOUS
 62
     7
100
AcDbLine
 10
338.638397
 20
763.15
 30
0.0
 11
339.638397
 21
763.15
 31
0.0
  0
LINE
  5
1172
100
AcDbEntity
  8
10000_FRONT
370
    25
390
0
  6
CONTINUOUS
 62
     7
100
AcDbLine
 10
338.638397
 20
761.033333
 30
0.0
 11
338.638397
 21
763.15
 31
0.0
  0
ARC
  5
1173
100
AcDbEntity
  8
10000_FRONT
370
    25
390
0
  6
CONTINUOUS
 62
     7
100
AcDbCircle
 10
338.305064
 20
761.033333
 30
0.0
 40
0.333333
100
AcDbArc
 50
270.000022
 51
0.0
  0
LINE
  5
1174
100
AcDbEntity
  8
10000_FRONT
370
    25
390
0
  6
CONTINUOUS
 62
     7
100
AcDbLine
 10
337.305064
 20
760.7
 30
0.0
 11
338.305064
 21
760.7
 31
0.0
  0
LINE
  5
1175
100
AcDbEntity
  8
10000_FRONT
370
    25
390
0
  6
CONTINUOUS
 62
     7
100
AcDbLine
 10
337.305064
 20
759.7
 30
0.0
 11
337.305064
 21
760.7
 31
0.0
  0
LINE
  5
1176
100
AcDbEntity
  8
10000_FRONT
370
    25
390
0
  6
CONTINUOUS
 62
     7
100
AcDbLine
 10
338.305064
 20
759.7
 30
0.0
 11
337.305064
 21
759.7
 31
0.0
  0
ARC
  5
1177
100
AcDbEntity
  8
10000_FRONT
370
    25
390
0
  6
CONTINUOUS
 62
     7
100
AcDbCircle
 10
338.305064
 20
759.366667
 30
0.0
 40
0.333333
100
AcDbArc
 50
359.999924
 51
89.999978
  0
LINE
  5
1178
100
AcDbEntity
  8
10000_FRONT
370
    25
390
0
  6
CONTINUOUS
 62
     7
100
AcDbLine
 10
338.638397
 20
757.25
 30
0.0
 11
338.638397
 21
759.366666
 31
0.0
  0
ARC
  5
1179
100
AcDbEntity
  8
10000_FRONT
370
    25
390
0
  6
CONTINUOUS
 62
     7
100
AcDbCircle
 10
339.138397
 20
760.2
 30
0.0
 40
3.1
100
AcDbArc
 50
180.0
 51
0.0
  0
LINE
  5
117A
100
AcDbEntity
  8
10000_FRONT
370
    25
390
0
  6
CONTINUOUS
 62
     7
100
AcDbLine
 10
343.038397
 20
760.2
 30
0.0
 11
343.034356
 21
760.023308
 31
0.0
  0
LINE
  5
117B
100
AcDbEntity
  8
10000_FRONT
370
    25
390
0
  6
CONTINUOUS
 62
     7
100
AcDbLine
 10
343.034356
 20
760.023308
 30
0.0
 11
343.022097
 21
759.844562
 31
0.0
  0
LINE
  5
117C
100
AcDbEntity
  8
10000_FRONT
370
    25
390
0
  6
CONTINUOUS
 62
     7
100
AcDbLine
 10
343.022097
 20
759.844562
 30
0.0
 11
343.00142
 21
759.664553
 31
0.0
  0
LINE
  5
117D
100
AcDbEntity
  8
10000_FRONT
370
    25
390
0
  6
CONTINUOUS
 62
     7
100
AcDbLine
 10
343.00142
 20
759.664553
 30
0.0
 11
342.972121
 21
759.484076
 31
0.0
  0
LINE
  5
117E
100
AcDbEntity
  8
10000_FRONT
370
    25
390
0
  6
CONTINUOUS
 62
     7
100
AcDbLine
 10
342.972121
 20
759.484076
 30
0.0
 11
342.934031
 21
759.303915
 31
0.0
  0
LINE
  5
117F
100
AcDbEntity
  8
10000_FRONT
370
    25
390
0
  6
CONTINUOUS
 62
     7
100
AcDbLine
 10
342.934031
 20
759.303915
 30
0.0
 11
342.887196
 21
759.124815
 31
0.0
  0
LINE
  5
1180
100
AcDbEntity
  8
10000_FRONT
370
    25
390
0
  6
CONTINUOUS
 62
     7
100
AcDbLine
 10
342.887196
 20
759.124815
 30
0.0
 11
342.83175
 21
758.947503
 31
0.0
  0
LINE
  5
1181
100
AcDbEntity
  8
10000_FRONT
370
    25
390
0
  6
CONTINUOUS
 62
     7
100
AcDbLine
 10
342.83175
 20
758.947503
 30
0.0
 11
342.767828
 21
758.772702
 31
0.0
  0
LINE
  5
1182
100
AcDbEntity
  8
10000_FRONT
370
    25
390
0
  6
CONTINUOUS
 62
     7
100
AcDbLine
 10
342.767828
 20
758.772702
 30
0.0
 11
342.695563
 21
758.601111
 31
0.0
  0
LINE
  5
1183
100
AcDbEntity
  8
10000_FRONT
370
    25
390
0
  6
CONTINUOUS
 62
     7
100
AcDbLine
 10
342.695563
 20
758.601111
 30
0.0
 11
342.615219
 21
758.43329
 31
0.0
  0
LINE
  5
1184
100
AcDbEntity
  8
10000_FRONT
370
    25
390
0
  6
CONTINUOUS
 62
     7
100
AcDbLine
 10
342.615219
 20
758.43329
 30
0.0
 11
342.527207
 21
758.269838
 31
0.0
  0
LINE
  5
1185
100
AcDbEntity
  8
10000_FRONT
370
    25
390
0
  6
CONTINUOUS
 62
     7
100
AcDbLine
 10
342.527207
 20
758.269838
 30
0.0
 11
342.431947
 21
758.111361
 31
0.0
  0
LINE
  5
1186
100
AcDbEntity
  8
10000_FRONT
370
    25
390
0
  6
CONTINUOUS
 62
     7
100
AcDbLine
 10
342.431947
 20
758.111361
 30
0.0
 11
342.329863
 21
757.958466
 31
0.0
  0
LINE
  5
1187
100
AcDbEntity
  8
10000_FRONT
370
    25
390
0
  6
CONTINUOUS
 62
     7
100
AcDbLine
 10
342.329863
 20
757.958466
 30
0.0
 11
342.221493
 21
757.811678
 31
0.0
  0
LINE
  5
1188
100
AcDbEntity
  8
10000_FRONT
370
    25
390
0
  6
CONTINUOUS
 62
     7
100
AcDbLine
 10
342.221493
 20
757.811678
 30
0.0
 11
342.107534
 21
757.67142
 31
0.0
  0
LINE
  5
1189
100
AcDbEntity
  8
10000_FRONT
370
    25
390
0
  6
CONTINUOUS
 62
     7
100
AcDbLine
 10
342.107534
 20
757.67142
 30
0.0
 11
341.988685
 21
757.538109
 31
0.0
  0
LINE
  5
118A
100
AcDbEntity
  8
10000_FRONT
370
    25
390
0
  6
CONTINUOUS
 62
     7
100
AcDbLine
 10
341.988685
 20
757.538109
 30
0.0
 11
341.865537
 21
757.412048
 31
0.0
  0
LINE
  5
118B
100
AcDbEntity
  8
10000_FRONT
370
    25
390
0
  6
CONTINUOUS
 62
     7
100
AcDbLine
 10
341.865537
 20
757.412048
 30
0.0
 11
341.735943
 21
757.290984
 31
0.0
  0
LINE
  5
118C
100
AcDbEntity
  8
10000_FRONT
370
    25
390
0
  6
CONTINUOUS
 62
     7
100
AcDbLine
 10
341.735943
 20
757.290984
 30
0.0
 11
341.599166
 21
757.174428
 31
0.0
  0
LINE
  5
118D
100
AcDbEntity
  8
10000_FRONT
370
    25
390
0
  6
CONTINUOUS
 62
     7
100
AcDbLine
 10
341.599166
 20
757.174428
 30
0.0
 11
341.455622
 21
757.06309
 31
0.0
  0
LINE
  5
118E
100
AcDbEntity
  8
10000_FRONT
370
    25
390
0
  6
CONTINUOUS
 62
     7
100
AcDbLine
 10
341.455622
 20
757.06309
 30
0.0
 11
341.30573
 21
756.957676
 31
0.0
  0
LINE
  5
118F
100
AcDbEntity
  8
10000_FRONT
370
    25
390
0
  6
CONTINUOUS
 62
     7
100
AcDbLine
 10
341.30573
 20
756.957676
 30
0.0
 11
341.149948
 21
756.858836
 31
0.0
  0
LINE
  5
1190
100
AcDbEntity
  8
10000_FRONT
370
    25
390
0
  6
CONTINUOUS
 62
     7
100
AcDbLine
 10
341.149948
 20
756.858836
 30
0.0
 11
340.988858
 21
756.767028
 31
0.0
  0
LINE
  5
1191
100
AcDbEntity
  8
10000_FRONT
370
    25
390
0
  6
CONTINUOUS
 62
     7
100
AcDbLine
 10
340.988858
 20
756.767028
 30
0.0
 11
340.823072
 21
756.682678
 31
0.0
  0
LINE
  5
1192
100
AcDbEntity
  8
10000_FRONT
370
    25
390
0
  6
CONTINUOUS
 62
     7
100
AcDbLine
 10
340.823072
 20
756.682678
 30
0.0
 11
340.6532
 21
756.606204
 31
0.0
  0
LINE
  5
1193
100
AcDbEntity
  8
10000_FRONT
370
    25
390
0
  6
CONTINUOUS
 62
     7
100
AcDbLine
 10
340.6532
 20
756.606204
 30
0.0
 11
340.479815
 21
756.537981
 31
0.0
  0
LINE
  5
1194
100
AcDbEntity
  8
10000_FRONT
370
    25
390
0
  6
CONTINUOUS
 62
     7
100
AcDbLine
 10
340.479815
 20
756.537981
 30
0.0
 11
340.303537
 21
756.478178
 31
0.0
  0
LINE
  5
1195
100
AcDbEntity
  8
10000_FRONT
370
    25
390
0
  6
CONTINUOUS
 62
     7
100
AcDbLine
 10
340.303537
 20
756.478178
 30
0.0
 11
340.125095
 21
756.426931
 31
0.0
  0
LINE
  5
1196
100
AcDbEntity
  8
10000_FRONT
370
    25
390
0
  6
CONTINUOUS
 62
     7
100
AcDbLine
 10
340.125095
 20
756.426931
 30
0.0
 11
339.945219
 21
756.384374
 31
0.0
  0
LINE
  5
1197
100
AcDbEntity
  8
10000_FRONT
370
    25
390
0
  6
CONTINUOUS
 62
     7
100
AcDbLine
 10
339.945219
 20
756.384374
 30
0.0
 11
339.764641
 21
756.350629
 31
0.0
  0
LINE
  5
1198
100
AcDbEntity
  8
10000_FRONT
370
    25
390
0
  6
CONTINUOUS
 62
     7
100
AcDbLine
 10
339.764641
 20
756.350629
 30
0.0
 11
339.584134
 21
756.32562
 31
0.0
  0
LINE
  5
1199
100
AcDbEntity
  8
10000_FRONT
370
    25
390
0
  6
CONTINUOUS
 62
     7
100
AcDbLine
 10
339.584134
 20
756.32562
 30
0.0
 11
339.404493
 21
756.309147
 31
0.0
  0
LINE
  5
119A
100
AcDbEntity
  8
10000_FRONT
370
    25
390
0
  6
CONTINUOUS
 62
     7
100
AcDbLine
 10
339.404493
 20
756.309147
 30
0.0
 11
339.226514
 21
756.301008
 31
0.0
  0
LINE
  5
119B
100
AcDbEntity
  8
10000_FRONT
370
    25
390
0
  6
CONTINUOUS
 62
     7
100
AcDbLine
 10
339.226514
 20
756.301008
 30
0.0
 11
339.05028
 21
756.301008
 31
0.0
  0
LINE
  5
119C
100
AcDbEntity
  8
10000_FRONT
370
    25
390
0
  6
CONTINUOUS
 62
     7
100
AcDbLine
 10
339.05028
 20
756.301008
 30
0.0
 11
338.872302
 21
756.309147
 31
0.0
  0
LINE
  5
119D
100
AcDbEntity
  8
10000_FRONT
370
    25
390
0
  6
CONTINUOUS
 62
     7
100
AcDbLine
 10
338.872302
 20
756.309147
 30
0.0
 11
338.69266
 21
756.32562
 31
0.0
  0
LINE
  5
119E
100
AcDbEntity
  8
10000_FRONT
370
    25
390
0
  6
CONTINUOUS
 62
     7
100
AcDbLine
 10
338.69266
 20
756.32562
 30
0.0
 11
338.512152
 21
756.350629
 31
0.0
  0
LINE
  5
119F
100
AcDbEntity
  8
10000_FRONT
370
    25
390
0
  6
CONTINUOUS
 62
     7
100
AcDbLine
 10
338.512152
 20
756.350629
 30
0.0
 11
338.331575
 21
756.384374
 31
0.0
  0
LINE
  5
11A0
100
AcDbEntity
  8
10000_FRONT
370
    25
390
0
  6
CONTINUOUS
 62
     7
100
AcDbLine
 10
338.331575
 20
756.384374
 30
0.0
 11
338.151699
 21
756.426931
 31
0.0
  0
LINE
  5
11A1
100
AcDbEntity
  8
10000_FRONT
370
    25
390
0
  6
CONTINUOUS
 62
     7
100
AcDbLine
 10
338.151699
 20
756.426931
 30
0.0
 11
337.973257
 21
756.478178
 31
0.0
  0
LINE
  5
11A2
100
AcDbEntity
  8
10000_FRONT
370
    25
390
0
  6
CONTINUOUS
 62
     7
100
AcDbLine
 10
337.973257
 20
756.478178
 30
0.0
 11
337.796979
 21
756.537981
 31
0.0
  0
LINE
  5
11A3
100
AcDbEntity
  8
10000_FRONT
370
    25
390
0
  6
CONTINUOUS
 62
     7
100
AcDbLine
 10
337.796979
 20
756.537981
 30
0.0
 11
337.623594
 21
756.606204
 31
0.0
  0
LINE
  5
11A4
100
AcDbEntity
  8
10000_FRONT
370
    25
390
0
  6
CONTINUOUS
 62
     7
100
AcDbLine
 10
337.623594
 20
756.606204
 30
0.0
 11
337.453722
 21
756.682678
 31
0.0
  0
LINE
  5
11A5
100
AcDbEntity
  8
10000_FRONT
370
    25
390
0
  6
CONTINUOUS
 62
     7
100
AcDbLine
 10
337.453722
 20
756.682678
 30
0.0
 11
337.287936
 21
756.767028
 31
0.0
  0
LINE
  5
11A6
100
AcDbEntity
  8
10000_FRONT
370
    25
390
0
  6
CONTINUOUS
 62
     7
100
AcDbLine
 10
337.287936
 20
756.767028
 30
0.0
 11
337.126846
 21
756.858836
 31
0.0
  0
LINE
  5
11A7
100
AcDbEntity
  8
10000_FRONT
370
    25
390
0
  6
CONTINUOUS
 62
     7
100
AcDbLine
 10
337.126846
 20
756.858836
 30
0.0
 11
336.971064
 21
756.957676
 31
0.0
  0
LINE
  5
11A8
100
AcDbEntity
  8
10000_FRONT
370
    25
390
0
  6
CONTINUOUS
 62
     7
100
AcDbLine
 10
336.971064
 20
756.957676
 30
0.0
 11
336.821172
 21
757.06309
 31
0.0
  0
LINE
  5
11A9
100
AcDbEntity
  8
10000_FRONT
370
    25
390
0
  6
CONTINUOUS
 62
     7
100
AcDbLine
 10
336.821172
 20
757.06309
 30
0.0
 11
336.677628
 21
757.174428
 31
0.0
  0
LINE
  5
11AA
100
AcDbEntity
  8
10000_FRONT
370
    25
390
0
  6
CONTINUOUS
 62
     7
100
AcDbLine
 10
336.677628
 20
757.174428
 30
0.0
 11
336.540851
 21
757.290984
 31
0.0
  0
LINE
  5
11AB
100
AcDbEntity
  8
10000_FRONT
370
    25
390
0
  6
CONTINUOUS
 62
     7
100
AcDbLine
 10
336.540851
 20
757.290984
 30
0.0
 11
336.411256
 21
757.412048
 31
0.0
  0
LINE
  5
11AC
100
AcDbEntity
  8
10000_FRONT
370
    25
390
0
  6
CONTINUOUS
 62
     7
100
AcDbLine
 10
336.411256
 20
757.412048
 30
0.0
 11
336.288108
 21
757.538109
 31
0.0
  0
LINE
  5
11AD
100
AcDbEntity
  8
10000_FRONT
370
    25
390
0
  6
CONTINUOUS
 62
     7
100
AcDbLine
 10
336.288108
 20
757.538109
 30
0.0
 11
336.169261
 21
757.67142
 31
0.0
  0
LINE
  5
11AE
100
AcDbEntity
  8
10000_FRONT
370
    25
390
0
  6
CONTINUOUS
 62
     7
100
AcDbLine
 10
336.169261
 20
757.67142
 30
0.0
 11
336.0553
 21
757.811678
 31
0.0
  0
LINE
  5
11AF
100
AcDbEntity
  8
10000_FRONT
370
    25
390
0
  6
CONTINUOUS
 62
     7
100
AcDbLine
 10
336.0553
 20
757.811678
 30
0.0
 11
335.946931
 21
757.958466
 31
0.0
  0
LINE
  5
11B0
100
AcDbEntity
  8
10000_FRONT
370
    25
390
0
  6
CONTINUOUS
 62
     7
100
AcDbLine
 10
335.946931
 20
757.958466
 30
0.0
 11
335.844846
 21
758.111361
 31
0.0
  0
LINE
  5
11B1
100
AcDbEntity
  8
10000_FRONT
370
    25
390
0
  6
CONTINUOUS
 62
     7
100
AcDbLine
 10
335.844846
 20
758.111361
 30
0.0
 11
335.749587
 21
758.269838
 31
0.0
  0
LINE
  5
11B2
100
AcDbEntity
  8
10000_FRONT
370
    25
390
0
  6
CONTINUOUS
 62
     7
100
AcDbLine
 10
335.749587
 20
758.269838
 30
0.0
 11
335.661576
 21
758.43329
 31
0.0
  0
LINE
  5
11B3
100
AcDbEntity
  8
10000_FRONT
370
    25
390
0
  6
CONTINUOUS
 62
     7
100
AcDbLine
 10
335.661576
 20
758.43329
 30
0.0
 11
335.581231
 21
758.601111
 31
0.0
  0
LINE
  5
11B4
100
AcDbEntity
  8
10000_FRONT
370
    25
390
0
  6
CONTINUOUS
 62
     7
100
AcDbLine
 10
335.581231
 20
758.601111
 30
0.0
 11
335.508967
 21
758.772702
 31
0.0
  0
LINE
  5
11B5
100
AcDbEntity
  8
10000_FRONT
370
    25
390
0
  6
CONTINUOUS
 62
     7
100
AcDbLine
 10
335.508967
 20
758.772702
 30
0.0
 11
335.445044
 21
758.947503
 31
0.0
  0
LINE
  5
11B6
100
AcDbEntity
  8
10000_FRONT
370
    25
390
0
  6
CONTINUOUS
 62
     7
100
AcDbLine
 10
335.445044
 20
758.947503
 30
0.0
 11
335.389598
 21
759.124815
 31
0.0
  0
LINE
  5
11B7
100
AcDbEntity
  8
10000_FRONT
370
    25
390
0
  6
CONTINUOUS
 62
     7
100
AcDbLine
 10
335.389598
 20
759.124815
 30
0.0
 11
335.342763
 21
759.303915
 31
0.0
  0
LINE
  5
11B8
100
AcDbEntity
  8
10000_FRONT
370
    25
390
0
  6
CONTINUOUS
 62
     7
100
AcDbLine
 10
335.342763
 20
759.303915
 30
0.0
 11
335.304673
 21
759.484076
 31
0.0
  0
LINE
  5
11B9
100
AcDbEntity
  8
10000_FRONT
370
    25
390
0
  6
CONTINUOUS
 62
     7
100
AcDbLine
 10
335.304673
 20
759.484076
 30
0.0
 11
335.275374
 21
759.664553
 31
0.0
  0
LINE
  5
11BA
100
AcDbEntity
  8
10000_FRONT
370
    25
390
0
  6
CONTINUOUS
 62
     7
100
AcDbLine
 10
335.275374
 20
759.664553
 30
0.0
 11
335.254697
 21
759.844562
 31
0.0
  0
LINE
  5
11BB
100
AcDbEntity
  8
10000_FRONT
370
    25
390
0
  6
CONTINUOUS
 62
     7
100
AcDbLine
 10
335.254697
 20
759.844562
 30
0.0
 11
335.242438
 21
760.023308
 31
0.0
  0
LINE
  5
11BC
100
AcDbEntity
  8
10000_FRONT
370
    25
390
0
  6
CONTINUOUS
 62
     7
100
AcDbLine
 10
335.242438
 20
760.023308
 30
0.0
 11
335.238397
 21
760.2
 31
0.0
  0
LINE
  5
11BD
100
AcDbEntity
  8
10000_FRONT
370
    25
390
0
  6
CONTINUOUS
 62
     7
100
AcDbLine
 10
343.038397
 20
771.2
 30
0.0
 11
343.034361
 21
771.02344
 31
0.0
  0
LINE
  5
11BE
100
AcDbEntity
  8
10000_FRONT
370
    25
390
0
  6
CONTINUOUS
 62
     7
100
AcDbLine
 10
343.034361
 20
771.02344
 30
0.0
 11
343.022119
 21
770.844799
 31
0.0
  0
LINE
  5
11BF
100
AcDbEntity
  8
10000_FRONT
370
    25
390
0
  6
CONTINUOUS
 62
     7
100
AcDbLine
 10
343.022119
 20
770.844799
 30
0.0
 11
343.001463
 21
770.664871
 31
0.0
  0
LINE
  5
11C0
100
AcDbEntity
  8
10000_FRONT
370
    25
390
0
  6
CONTINUOUS
 62
     7
100
AcDbLine
 10
343.001463
 20
770.664871
 30
0.0
 11
342.97219
 21
770.48445
 31
0.0
  0
LINE
  5
11C1
100
AcDbEntity
  8
10000_FRONT
370
    25
390
0
  6
CONTINUOUS
 62
     7
100
AcDbLine
 10
342.97219
 20
770.48445
 30
0.0
 11
342.934127
 21
770.304323
 31
0.0
  0
LINE
  5
11C2
100
AcDbEntity
  8
10000_FRONT
370
    25
390
0
  6
CONTINUOUS
 62
     7
100
AcDbLine
 10
342.934127
 20
770.304323
 30
0.0
 11
342.887316
 21
770.125236
 31
0.0
  0
LINE
  5
11C3
100
AcDbEntity
  8
10000_FRONT
370
    25
390
0
  6
CONTINUOUS
 62
     7
100
AcDbLine
 10
342.887316
 20
770.125236
 30
0.0
 11
342.831891
 21
769.947917
 31
0.0
  0
LINE
  5
11C4
100
AcDbEntity
  8
10000_FRONT
370
    25
390
0
  6
CONTINUOUS
 62
     7
100
AcDbLine
 10
342.831891
 20
769.947917
 30
0.0
 11
342.767983
 21
769.773097
 31
0.0
  0
LINE
  5
11C5
100
AcDbEntity
  8
10000_FRONT
370
    25
390
0
  6
CONTINUOUS
 62
     7
100
AcDbLine
 10
342.767983
 20
769.773097
 30
0.0
 11
342.695725
 21
769.601472
 31
0.0
  0
LINE
  5
11C6
100
AcDbEntity
  8
10000_FRONT
370
    25
390
0
  6
CONTINUOUS
 62
     7
100
AcDbLine
 10
342.695725
 20
769.601472
 30
0.0
 11
342.615379
 21
769.433606
 31
0.0
  0
LINE
  5
11C7
100
AcDbEntity
  8
10000_FRONT
370
    25
390
0
  6
CONTINUOUS
 62
     7
100
AcDbLine
 10
342.615379
 20
769.433606
 30
0.0
 11
342.527357
 21
769.270101
 31
0.0
  0
LINE
  5
11C8
100
AcDbEntity
  8
10000_FRONT
370
    25
390
0
  6
CONTINUOUS
 62
     7
100
AcDbLine
 10
342.527357
 20
769.270101
 30
0.0
 11
342.432079
 21
769.111568
 31
0.0
  0
LINE
  5
11C9
100
AcDbEntity
  8
10000_FRONT
370
    25
390
0
  6
CONTINUOUS
 62
     7
100
AcDbLine
 10
342.432079
 20
769.111568
 30
0.0
 11
342.329967
 21
768.958615
 31
0.0
  0
LINE
  5
11CA
100
AcDbEntity
  8
10000_FRONT
370
    25
390
0
  6
CONTINUOUS
 62
     7
100
AcDbLine
 10
342.329967
 20
768.958615
 30
0.0
 11
342.221564
 21
768.81177
 31
0.0
  0
LINE
  5
11CB
100
AcDbEntity
  8
10000_FRONT
370
    25
390
0
  6
CONTINUOUS
 62
     7
100
AcDbLine
 10
342.221564
 20
768.81177
 30
0.0
 11
342.107565
 21
768.671458
 31
0.0
  0
LINE
  5
11CC
100
AcDbEntity
  8
10000_FRONT
370
    25
390
0
  6
CONTINUOUS
 62
     7
100
AcDbLine
 10
342.107565
 20
768.671458
 30
0.0
 11
341.988676
 21
768.538098
 31
0.0
  0
LINE
  5
11CD
100
AcDbEntity
  8
10000_FRONT
370
    25
390
0
  6
CONTINUOUS
 62
     7
100
AcDbLine
 10
341.988676
 20
768.538098
 30
0.0
 11
341.865478
 21
768.41199
 31
0.0
  0
LINE
  5
11CE
100
AcDbEntity
  8
10000_FRONT
370
    25
390
0
  6
CONTINUOUS
 62
     7
100
AcDbLine
 10
341.865478
 20
768.41199
 30
0.0
 11
341.735823
 21
768.290876
 31
0.0
  0
LINE
  5
11CF
100
AcDbEntity
  8
10000_FRONT
370
    25
390
0
  6
CONTINUOUS
 62
     7
100
AcDbLine
 10
341.735823
 20
768.290876
 30
0.0
 11
341.598989
 21
768.174285
 31
0.0
  0
LINE
  5
11D0
100
AcDbEntity
  8
10000_FRONT
370
    25
390
0
  6
CONTINUOUS
 62
     7
100
AcDbLine
 10
341.598989
 20
768.174285
 30
0.0
 11
341.455395
 21
768.062922
 31
0.0
  0
LINE
  5
11D1
100
AcDbEntity
  8
10000_FRONT
370
    25
390
0
  6
CONTINUOUS
 62
     7
100
AcDbLine
 10
341.455395
 20
768.062922
 30
0.0
 11
341.30546
 21
767.957495
 31
0.0
  0
LINE
  5
11D2
100
AcDbEntity
  8
10000_FRONT
370
    25
390
0
  6
CONTINUOUS
 62
     7
100
AcDbLine
 10
341.30546
 20
767.957495
 30
0.0
 11
341.149642
 21
767.858651
 31
0.0
  0
LINE
  5
11D3
100
AcDbEntity
  8
10000_FRONT
370
    25
390
0
  6
CONTINUOUS
 62
     7
100
AcDbLine
 10
341.149642
 20
767.858651
 30
0.0
 11
340.988525
 21
767.766849
 31
0.0
  0
LINE
  5
11D4
100
AcDbEntity
  8
10000_FRONT
370
    25
390
0
  6
CONTINUOUS
 62
     7
100
AcDbLine
 10
340.988525
 20
767.766849
 30
0.0
 11
340.822723
 21
767.68251
 31
0.0
  0
LINE
  5
11D5
100
AcDbEntity
  8
10000_FRONT
370
    25
390
0
  6
CONTINUOUS
 62
     7
100
AcDbLine
 10
340.822723
 20
767.68251
 30
0.0
 11
340.652844
 21
767.606054
 31
0.0
  0
LINE
  5
11D6
100
AcDbEntity
  8
10000_FRONT
370
    25
390
0
  6
CONTINUOUS
 62
     7
100
AcDbLine
 10
340.652844
 20
767.606054
 30
0.0
 11
340.479462
 21
767.537852
 31
0.0
  0
LINE
  5
11D7
100
AcDbEntity
  8
10000_FRONT
370
    25
390
0
  6
CONTINUOUS
 62
     7
100
AcDbLine
 10
340.479462
 20
767.537852
 30
0.0
 11
340.303199
 21
767.478072
 31
0.0
  0
LINE
  5
11D8
100
AcDbEntity
  8
10000_FRONT
370
    25
390
0
  6
CONTINUOUS
 62
     7
100
AcDbLine
 10
340.303199
 20
767.478072
 30
0.0
 11
340.124783
 21
767.426849
 31
0.0
  0
LINE
  5
11D9
100
AcDbEntity
  8
10000_FRONT
370
    25
390
0
  6
CONTINUOUS
 62
     7
100
AcDbLine
 10
340.124783
 20
767.426849
 30
0.0
 11
339.944943
 21
767.384316
 31
0.0
  0
LINE
  5
11DA
100
AcDbEntity
  8
10000_FRONT
370
    25
390
0
  6
CONTINUOUS
 62
     7
100
AcDbLine
 10
339.944943
 20
767.384316
 30
0.0
 11
339.764412
 21
767.350592
 31
0.0
  0
LINE
  5
11DB
100
AcDbEntity
  8
10000_FRONT
370
    25
390
0
  6
CONTINUOUS
 62
     7
100
AcDbLine
 10
339.764412
 20
767.350592
 30
0.0
 11
339.58396
 21
767.3256
 31
0.0
  0
LINE
  5
11DC
100
AcDbEntity
  8
10000_FRONT
370
    25
390
0
  6
CONTINUOUS
 62
     7
100
AcDbLine
 10
339.58396
 20
767.3256
 30
0.0
 11
339.404382
 21
767.30914
 31
0.0
  0
LINE
  5
11DD
100
AcDbEntity
  8
10000_FRONT
370
    25
390
0
  6
CONTINUOUS
 62
     7
100
AcDbLine
 10
339.404382
 20
767.30914
 30
0.0
 11
339.226475
 21
767.301007
 31
0.0
  0
LINE
  5
11DE
100
AcDbEntity
  8
10000_FRONT
370
    25
390
0
  6
CONTINUOUS
 62
     7
100
AcDbLine
 10
339.226475
 20
767.301007
 30
0.0
 11
339.050318
 21
767.301007
 31
0.0
  0
LINE
  5
11DF
100
AcDbEntity
  8
10000_FRONT
370
    25
390
0
  6
CONTINUOUS
 62
     7
100
AcDbLine
 10
339.050318
 20
767.301007
 30
0.0
 11
338.872411
 21
767.30914
 31
0.0
  0
LINE
  5
11E0
100
AcDbEntity
  8
10000_FRONT
370
    25
390
0
  6
CONTINUOUS
 62
     7
100
AcDbLine
 10
338.872411
 20
767.30914
 30
0.0
 11
338.692834
 21
767.3256
 31
0.0
  0
LINE
  5
11E1
100
AcDbEntity
  8
10000_FRONT
370
    25
390
0
  6
CONTINUOUS
 62
     7
100
AcDbLine
 10
338.692834
 20
767.3256
 30
0.0
 11
338.512382
 21
767.350592
 31
0.0
  0
LINE
  5
11E2
100
AcDbEntity
  8
10000_FRONT
370
    25
390
0
  6
CONTINUOUS
 62
     7
100
AcDbLine
 10
338.512382
 20
767.350592
 30
0.0
 11
338.331852
 21
767.384316
 31
0.0
  0
LINE
  5
11E3
100
AcDbEntity
  8
10000_FRONT
370
    25
390
0
  6
CONTINUOUS
 62
     7
100
AcDbLine
 10
338.331852
 20
767.384316
 30
0.0
 11
338.152011
 21
767.426849
 31
0.0
  0
LINE
  5
11E4
100
AcDbEntity
  8
10000_FRONT
370
    25
390
0
  6
CONTINUOUS
 62
     7
100
AcDbLine
 10
338.152011
 20
767.426849
 30
0.0
 11
337.973595
 21
767.478072
 31
0.0
  0
LINE
  5
11E5
100
AcDbEntity
  8
10000_FRONT
370
    25
390
0
  6
CONTINUOUS
 62
     7
100
AcDbLine
 10
337.973595
 20
767.478072
 30
0.0
 11
337.797331
 21
767.537852
 31
0.0
  0
LINE
  5
11E6
100
AcDbEntity
  8
10000_FRONT
370
    25
390
0
  6
CONTINUOUS
 62
     7
100
AcDbLine
 10
337.797331
 20
767.537852
 30
0.0
 11
337.623951
 21
767.606054
 31
0.0
  0
LINE
  5
11E7
100
AcDbEntity
  8
10000_FRONT
370
    25
390
0
  6
CONTINUOUS
 62
     7
100
AcDbLine
 10
337.623951
 20
767.606054
 30
0.0
 11
337.454072
 21
767.68251
 31
0.0
  0
LINE
  5
11E8
100
AcDbEntity
  8
10000_FRONT
370
    25
390
0
  6
CONTINUOUS
 62
     7
100
AcDbLine
 10
337.454072
 20
767.68251
 30
0.0
 11
337.288269
 21
767.766849
 31
0.0
  0
LINE
  5
11E9
100
AcDbEntity
  8
10000_FRONT
370
    25
390
0
  6
CONTINUOUS
 62
     7
100
AcDbLine
 10
337.288269
 20
767.766849
 30
0.0
 11
337.127153
 21
767.858651
 31
0.0
  0
LINE
  5
11EA
100
AcDbEntity
  8
10000_FRONT
370
    25
390
0
  6
CONTINUOUS
 62
     7
100
AcDbLine
 10
337.127153
 20
767.858651
 30
0.0
 11
336.971335
 21
767.957495
 31
0.0
  0
LINE
  5
11EB
100
AcDbEntity
  8
10000_FRONT
370
    25
390
0
  6
CONTINUOUS
 62
     7
100
AcDbLine
 10
336.971335
 20
767.957495
 30
0.0
 11
336.821399
 21
768.062922
 31
0.0
  0
LINE
  5
11EC
100
AcDbEntity
  8
10000_FRONT
370
    25
390
0
  6
CONTINUOUS
 62
     7
100
AcDbLine
 10
336.821399
 20
768.062922
 30
0.0
 11
336.677805
 21
768.174285
 31
0.0
  0
LINE
  5
11ED
100
AcDbEntity
  8
10000_FRONT
370
    25
390
0
  6
CONTINUOUS
 62
     7
100
AcDbLine
 10
336.677805
 20
768.174285
 30
0.0
 11
336.540971
 21
768.290876
 31
0.0
  0
LINE
  5
11EE
100
AcDbEntity
  8
10000_FRONT
370
    25
390
0
  6
CONTINUOUS
 62
     7
100
AcDbLine
 10
336.540971
 20
768.290876
 30
0.0
 11
336.411316
 21
768.41199
 31
0.0
  0
LINE
  5
11EF
100
AcDbEntity
  8
10000_FRONT
370
    25
390
0
  6
CONTINUOUS
 62
     7
100
AcDbLine
 10
336.411316
 20
768.41199
 30
0.0
 11
336.288119
 21
768.538098
 31
0.0
  0
LINE
  5
11F0
100
AcDbEntity
  8
10000_FRONT
370
    25
390
0
  6
CONTINUOUS
 62
     7
100
AcDbLine
 10
336.288119
 20
768.538098
 30
0.0
 11
336.169229
 21
768.671458
 31
0.0
  0
LINE
  5
11F1
100
AcDbEntity
  8
10000_FRONT
370
    25
390
0
  6
CONTINUOUS
 62
     7
100
AcDbLine
 10
336.169229
 20
768.671458
 30
0.0
 11
336.05523
 21
768.81177
 31
0.0
  0
LINE
  5
11F2
100
AcDbEntity
  8
10000_FRONT
370
    25
390
0
  6
CONTINUOUS
 62
     7
100
AcDbLine
 10
336.05523
 20
768.81177
 30
0.0
 11
335.946827
 21
768.958615
 31
0.0
  0
LINE
  5
11F3
100
AcDbEntity
  8
10000_FRONT
370
    25
390
0
  6
CONTINUOUS
 62
     7
100
AcDbLine
 10
335.946827
 20
768.958615
 30
0.0
 11
335.844715
 21
769.111568
 31
0.0
  0
LINE
  5
11F4
100
AcDbEntity
  8
10000_FRONT
370
    25
390
0
  6
CONTINUOUS
 62
     7
100
AcDbLine
 10
335.844715
 20
769.111568
 30
0.0
 11
335.749437
 21
769.270101
 31
0.0
  0
LINE
  5
11F5
100
AcDbEntity
  8
10000_FRONT
370
    25
390
0
  6
CONTINUOUS
 62
     7
100
AcDbLine
 10
335.749437
 20
769.270101
 30
0.0
 11
335.661415
 21
769.433606
 31
0.0
  0
LINE
  5
11F6
100
AcDbEntity
  8
10000_FRONT
370
    25
390
0
  6
CONTINUOUS
 62
     7
100
AcDbLine
 10
335.661415
 20
769.433606
 30
0.0
 11
335.581069
 21
769.601472
 31
0.0
  0
LINE
  5
11F7
100
AcDbEntity
  8
10000_FRONT
370
    25
390
0
  6
CONTINUOUS
 62
     7
100
AcDbLine
 10
335.581069
 20
769.601472
 30
0.0
 11
335.508811
 21
769.773097
 31
0.0
  0
LINE
  5
11F8
100
AcDbEntity
  8
10000_FRONT
370
    25
390
0
  6
CONTINUOUS
 62
     7
100
AcDbLine
 10
335.508811
 20
769.773097
 30
0.0
 11
335.444903
 21
769.947917
 31
0.0
  0
LINE
  5
11F9
100
AcDbEntity
  8
10000_FRONT
370
    25
390
0
  6
CONTINUOUS
 62
     7
100
AcDbLine
 10
335.444903
 20
769.947917
 30
0.0
 11
335.389477
 21
770.125236
 31
0.0
  0
LINE
  5
11FA
100
AcDbEntity
  8
10000_FRONT
370
    25
390
0
  6
CONTINUOUS
 62
     7
100
AcDbLine
 10
335.389477
 20
770.125236
 30
0.0
 11
335.342667
 21
770.304323
 31
0.0
  0
LINE
  5
11FB
100
AcDbEntity
  8
10000_FRONT
370
    25
390
0
  6
CONTINUOUS
 62
     7
100
AcDbLine
 10
335.342667
 20
770.304323
 30
0.0
 11
335.304604
 21
770.48445
 31
0.0
  0
LINE
  5
11FC
100
AcDbEntity
  8
10000_FRONT
370
    25
390
0
  6
CONTINUOUS
 62
     7
100
AcDbLine
 10
335.304604
 20
770.48445
 30
0.0
 11
335.275331
 21
770.664871
 31
0.0
  0
LINE
  5
11FD
100
AcDbEntity
  8
10000_FRONT
370
    25
390
0
  6
CONTINUOUS
 62
     7
100
AcDbLine
 10
335.275331
 20
770.664871
 30
0.0
 11
335.254675
 21
770.844799
 31
0.0
  0
LINE
  5
11FE
100
AcDbEntity
  8
10000_FRONT
370
    25
390
0
  6
CONTINUOUS
 62
     7
100
AcDbLine
 10
335.254675
 20
770.844799
 30
0.0
 11
335.242432
 21
771.02344
 31
0.0
  0
LINE
  5
11FF
100
AcDbEntity
  8
10000_FRONT
370
    25
390
0
  6
CONTINUOUS
 62
     7
100
AcDbLine
 10
335.242432
 20
771.02344
 30
0.0
 11
335.238397
 21
771.2
 31
0.0
  0
ARC
  5
1200
100
AcDbEntity
  8
10000_FRONT
370
    25
390
0
  6
CONTINUOUS
 62
     7
100
AcDbCircle
 10
320.088397
 20
736.1
 30
0.0
 40
0.2
100
AcDbArc
 50
179.999781
 51
269.999891
  0
LINE
  5
1201
100
AcDbEntity
  8
10000_FRONT
370
    25
390
0
  6
CONTINUOUS
 62
     7
100
AcDbLine
 10
337.688397
 20
735.9
 30
0.0
 11
320.088397
 21
735.9
 31
0.0
  0
ARC
  5
1202
100
AcDbEntity
  8
10000_FRONT
370
    25
390
0
  6
CONTINUOUS
 62
     7
100
AcDbCircle
 10
337.688397
 20
736.1
 30
0.0
 40
0.2
100
AcDbArc
 50
270.0
 51
0.000219
  0
LINE
  5
1203
100
AcDbEntity
  8
10000_FRONT
370
    25
390
0
  6
CONTINUOUS
 62
     7
100
AcDbLine
 10
337.888397
 20
742.3
 30
0.0
 11
337.888397
 21
736.100001
 31
0.0
  0
ARC
  5
1204
100
AcDbEntity
  8
10000_FRONT
370
    25
390
0
  6
CONTINUOUS
 62
     7
100
AcDbCircle
 10
337.688397
 20
742.3
 30
0.0
 40
0.2
100
AcDbArc
 50
359.999891
 51
90.0
  0
LINE
  5
1205
100
AcDbEntity
  8
10000_FRONT
370
    25
390
0
  6
CONTINUOUS
 62
     7
100
AcDbLine
 10
320.088397
 20
742.5
 30
0.0
 11
337.688397
 21
742.5
 31
0.0
  0
ARC
  5
1206
100
AcDbEntity
  8
10000_FRONT
370
    25
390
0
  6
CONTINUOUS
 62
     7
100
AcDbCircle
 10
320.088397
 20
742.3
 30
0.0
 40
0.2
100
AcDbArc
 50
90.000109
 51
180.000109
  0
LINE
  5
1207
100
AcDbEntity
  8
10000_FRONT
370
    25
390
0
  6
CONTINUOUS
 62
     7
100
AcDbLine
 10
319.888397
 20
736.100001
 30
0.0
 11
319.888397
 21
742.3
 31
0.0
  0
LINE
  5
1208
100
AcDbEntity
  8
10000_FRONT
370
    25
390
0
  6
CONTINUOUS
 62
     7
100
AcDbLine
 10
319.688397
 20
735.800002
 30
0.0
 11
319.688397
 21
742.600001
 31
0.0
  0
ARC
  5
1209
100
AcDbEntity
  8
10000_FRONT
370
    25
390
0
  6
CONTINUOUS
 62
     7
100
AcDbCircle
 10
319.788397
 20
742.6
 30
0.0
 40
0.1
100
AcDbArc
 50
89.999781
 51
179.999563
  0
LINE
  5
120A
100
AcDbEntity
  8
10000_FRONT
370
    25
390
0
  6
CONTINUOUS
 62
     7
100
AcDbLine
 10
339.588397
 20
742.699999
 30
0.0
 11
319.788397
 21
742.699999
 31
0.0
  0
ARC
  5
120B
100
AcDbEntity
  8
10000_FRONT
370
    25
390
0
  6
CONTINUOUS
 62
     7
100
AcDbCircle
 10
339.588397
 20
742.6
 30
0.0
 40
0.1
100
AcDbArc
 50
0.000437
 51
90.000219
  0
LINE
  5
120C
100
AcDbEntity
  8
10000_FRONT
370
    25
390
0
  6
CONTINUOUS
 62
     7
100
AcDbLine
 10
339.688397
 20
742.600001
 30
0.0
 11
339.688397
 21
735.800002
 31
0.0
  0
ARC
  5
120D
100
AcDbEntity
  8
10000_FRONT
370
    25
390
0
  6
CONTINUOUS
 62
     7
100
AcDbCircle
 10
319.788397
 20
735.8
 30
0.0
 40
0.1
100
AcDbArc
 50
179.999126
 51
270.000219
  0
LINE
  5
120E
100
AcDbEntity
  8
10000_FRONT
370
    25
390
0
  6
CONTINUOUS
 62
     7
100
AcDbLine
 10
339.588397
 20
735.699999
 30
0.0
 11
319.788397
 21
735.699999
 31
0.0
  0
ARC
  5
120F
100
AcDbEntity
  8
10000_FRONT
370
    25
390
0
  6
CONTINUOUS
 62
     7
100
AcDbCircle
 10
339.588397
 20
735.8
 30
0.0
 40
0.1
100
AcDbArc
 50
269.999781
 51
0.000874
  0
LINE
  5
1210
100
AcDbEntity
  8
10000_FRONT
370
    25
390
0
  6
CONTINUOUS
 62
     7
100
AcDbLine
 10
321.688397
 20
798.25
 30
0.0
 11
321.688397
 21
802.199999
 31
0.0
  0
LINE
  5
1211
100
AcDbEntity
  8
10000_FRONT
370
    25
390
0
  6
CONTINUOUS
 62
     7
100
AcDbLine
 10
321.688397
 20
802.199999
 30
0.0
 11
321.688397
 21
802.249998
 31
0.0
  0
ARC
  5
1212
100
AcDbEntity
  8
10000_FRONT
370
    25
390
0
  6
CONTINUOUS
 62
     7
100
AcDbCircle
 10
321.888397
 20
802.25
 30
0.0
 40
0.2
100
AcDbArc
 50
90.000055
 51
180.000437
  0
LINE
  5
1213
100
AcDbEntity
  8
10000_FRONT
370
    25
390
0
  6
CONTINUOUS
 62
     7
100
AcDbLine
 10
321.888397
 20
802.449999
 30
0.0
 11
337.488397
 21
802.449999
 31
0.0
  0
ARC
  5
1214
100
AcDbEntity
  8
10000_FRONT
370
    25
390
0
  6
CONTINUOUS
 62
     7
100
AcDbCircle
 10
337.488397
 20
802.25
 30
0.0
 40
0.2
100
AcDbArc
 50
359.999563
 51
89.999945
  0
LINE
  5
1215
100
AcDbEntity
  8
10000_FRONT
370
    25
390
0
  6
CONTINUOUS
 62
     7
100
AcDbLine
 10
337.688397
 20
802.199999
 30
0.0
 11
337.688397
 21
798.25
 31
0.0
  0
LINE
  5
1216
100
AcDbEntity
  8
10000_FRONT
370
    25
390
0
  6
CONTINUOUS
 62
     7
100
AcDbLine
 10
337.688397
 20
802.249998
 30
0.0
 11
337.688397
 21
802.199999
 31
0.0
  0
ARC
  5
1217
100
AcDbEntity
  8
10000_FRONT
370
    25
390
0
  6
CONTINUOUS
 62
     7
100
AcDbCircle
 10
321.888397
 20
798.25
 30
0.0
 40
0.2
100
AcDbArc
 50
179.999891
 51
269.999945
  0
LINE
  5
1218
100
AcDbEntity
  8
10000_FRONT
370
    25
390
0
  6
CONTINUOUS
 62
     7
100
AcDbLine
 10
337.488397
 20
798.05
 30
0.0
 11
321.888397
 21
798.05
 31
0.0
  0
ARC
  5
1219
100
AcDbEntity
  8
10000_FRONT
370
    25
390
0
  6
CONTINUOUS
 62
     7
100
AcDbCircle
 10
337.488397
 20
798.25
 30
0.0
 40
0.2
100
AcDbArc
 50
270.000055
 51
0.000109
  0
LINE
  5
121A
100
AcDbEntity
  8
10000_FRONT
370
    25
390
0
  6
CONTINUOUS
 62
     7
100
AcDbLine
 10
357.188397
 20
802.499998
 30
0.0
 11
357.188397
 21
802.199999
 31
0.0
  0
LINE
  5
121B
100
AcDbEntity
  8
10000_FRONT
370
    25
390
0
  6
CONTINUOUS
 62
     7
100
AcDbLine
 10
357.188397
 20
802.199999
 30
0.0
 11
337.688397
 21
802.199999
 31
0.0
  0
LINE
  5
121C
100
AcDbEntity
  8
10000_FRONT
370
    25
390
0
  6
CONTINUOUS
 62
     7
100
AcDbLine
 10
321.688397
 20
802.199999
 30
0.0
 11
302.188397
 21
802.199999
 31
0.0
  0
LINE
  5
121D
100
AcDbEntity
  8
10000_FRONT
370
    25
390
0
  6
CONTINUOUS
 62
     7
100
AcDbLine
 10
325.188397
 20
822.999998
 30
0.0
 11
327.138397
 21
822.999998
 31
0.0
  0
LINE
  5
121E
100
AcDbEntity
  8
10000_FRONT
370
    25
390
0
  6
CONTINUOUS
 62
     7
100
AcDbLine
 10
325.188397
 20
823.199999
 30
0.0
 11
327.138397
 21
823.199999
 31
0.0
  0
LINE
  5
121F
100
AcDbEntity
  8
10000_FRONT
370
    25
390
0
  6
CONTINUOUS
 62
     7
100
AcDbLine
 10
325.188397
 20
822.999998
 30
0.0
 11
325.188397
 21
823.199999
 31
0.0
  0
LINE
  5
1220
100
AcDbEntity
  8
10000_FRONT
370
    25
390
0
  6
CONTINUOUS
 62
     7
100
AcDbLine
 10
328.638397
 20
822.999998
 30
0.0
 11
330.738397
 21
822.999998
 31
0.0
  0
LINE
  5
1221
100
AcDbEntity
  8
10000_FRONT
370
    25
390
0
  6
CONTINUOUS
 62
     7
100
AcDbLine
 10
328.638397
 20
823.199999
 30
0.0
 11
330.738397
 21
823.199999
 31
0.0
  0
LINE
  5
1222
100
AcDbEntity
  8
10000_FRONT
370
    25
390
0
  6
CONTINUOUS
 62
     7
100
AcDbLine
 10
332.238397
 20
823.199999
 30
0.0
 11
334.188397
 21
823.199999
 31
0.0
  0
LINE
  5
1223
100
AcDbEntity
  8
10000_FRONT
370
    25
390
0
  6
CONTINUOUS
 62
     7
100
AcDbLine
 10
332.238397
 20
822.999998
 30
0.0
 11
334.188397
 21
822.999998
 31
0.0
  0
LINE
  5
1224
100
AcDbEntity
  8
10000_FRONT
370
    25
390
0
  6
CONTINUOUS
 62
     7
100
AcDbLine
 10
334.188397
 20
822.999998
 30
0.0
 11
334.188397
 21
823.199999
 31
0.0
  0
LINE
  5
1225
100
AcDbEntity
  8
10000_FRONT
370
    25
390
0
  6
CONTINUOUS
 62
     7
100
AcDbLine
 10
325.188397
 20
821.4
 30
0.0
 11
327.138397
 21
821.4
 31
0.0
  0
LINE
  5
1226
100
AcDbEntity
  8
10000_FRONT
370
    25
390
0
  6
CONTINUOUS
 62
     7
100
AcDbLine
 10
325.188397
 20
821.4
 30
0.0
 11
325.188397
 21
822.999998
 31
0.0
  0
LINE
  5
1227
100
AcDbEntity
  8
10000_FRONT
370
    25
390
0
  6
CONTINUOUS
 62
     7
100
AcDbLine
 10
328.638397
 20
821.4
 30
0.0
 11
330.738397
 21
821.4
 31
0.0
  0
LINE
  5
1228
100
AcDbEntity
  8
10000_FRONT
370
    25
390
0
  6
CONTINUOUS
 62
     7
100
AcDbLine
 10
332.238397
 20
821.4
 30
0.0
 11
334.188397
 21
821.4
 31
0.0
  0
LINE
  5
1229
100
AcDbEntity
  8
10000_FRONT
370
    25
390
0
  6
CONTINUOUS
 62
     7
100
AcDbLine
 10
334.188397
 20
821.4
 30
0.0
 11
334.188397
 21
822.999998
 31
0.0
  0
LINE
  5
122A
100
AcDbEntity
  8
10000_FRONT
370
    25
390
0
  6
CONTINUOUS
 62
     7
100
AcDbLine
 10
325.688397
 20
821.199999
 30
0.0
 11
327.138397
 21
821.199999
 31
0.0
  0
LINE
  5
122B
100
AcDbEntity
  8
10000_FRONT
370
    25
390
0
  6
CONTINUOUS
 62
     7
100
AcDbLine
 10
325.188397
 20
821.200251
 30
0.0
 11
325.188397
 21
821.4
 31
0.0
  0
LINE
  5
122C
100
AcDbEntity
  8
10000_FRONT
370
    25
390
0
  6
CONTINUOUS
 62
     7
100
AcDbLine
 10
325.688397
 20
821.200251
 30
0.0
 11
325.188397
 21
821.200251
 31
0.0
  0
LINE
  5
122D
100
AcDbEntity
  8
10000_FRONT
370
    25
390
0
  6
CONTINUOUS
 62
     7
100
AcDbLine
 10
328.638397
 20
821.199999
 30
0.0
 11
330.738397
 21
821.199999
 31
0.0
  0
LINE
  5
122E
100
AcDbEntity
  8
10000_FRONT
370
    25
390
0
  6
CONTINUOUS
 62
     7
100
AcDbLine
 10
332.238397
 20
821.199999
 30
0.0
 11
333.688397
 21
821.199999
 31
0.0
  0
LINE
  5
122F
100
AcDbEntity
  8
10000_FRONT
370
    25
390
0
  6
CONTINUOUS
 62
     7
100
AcDbLine
 10
334.188397
 20
821.200251
 30
0.0
 11
333.688397
 21
821.200251
 31
0.0
  0
LINE
  5
1230
100
AcDbEntity
  8
10000_FRONT
370
    25
390
0
  6
CONTINUOUS
 62
     7
100
AcDbLine
 10
334.188397
 20
821.200251
 30
0.0
 11
334.188397
 21
821.4
 31
0.0
  0
LINE
  5
1231
100
AcDbEntity
  8
10000_FRONT
370
    25
390
0
  6
CONTINUOUS
 62
     7
100
AcDbLine
 10
325.688397
 20
815.350001
 30
0.0
 11
325.688397
 21
821.200251
 31
0.0
  0
LINE
  5
1232
100
AcDbEntity
  8
10000_FRONT
370
    25
390
0
  6
CONTINUOUS
 62
     7
100
AcDbLine
 10
325.188397
 20
822.999998
 30
0.0
 11
324.788397
 21
822.999998
 31
0.0
  0
LINE
  5
1233
100
AcDbEntity
  8
10000_FRONT
370
    25
390
0
  6
CONTINUOUS
 62
     7
100
AcDbLine
 10
324.788397
 20
822.999998
 30
0.0
 11
324.788397
 21
815.199999
 31
0.0
  0
LINE
  5
1234
100
AcDbEntity
  8
10000_FRONT
370
    25
390
0
  6
CONTINUOUS
 62
     7
100
AcDbLine
 10
327.138397
 20
815.350001
 30
0.0
 11
325.688397
 21
815.350001
 31
0.0
  0
LINE
  5
1235
100
AcDbEntity
  8
10000_FRONT
370
    25
390
0
  6
CONTINUOUS
 62
     7
100
AcDbLine
 10
325.188397
 20
823.199999
 30
0.0
 11
324.788397
 21
823.199999
 31
0.0
  0
LINE
  5
1236
100
AcDbEntity
  8
10000_FRONT
370
    25
390
0
  6
CONTINUOUS
 62
     7
100
AcDbLine
 10
324.788397
 20
822.999998
 30
0.0
 11
324.788397
 21
823.199999
 31
0.0
  0
LINE
  5
1237
100
AcDbEntity
  8
10000_FRONT
370
    25
390
0
  6
CONTINUOUS
 62
     7
100
AcDbLine
 10
324.688418
 20
823.199999
 30
0.0
 11
324.788397
 21
823.199999
 31
0.0
  0
LINE
  5
1238
100
AcDbEntity
  8
10000_FRONT
370
    25
390
0
  6
CONTINUOUS
 62
     7
100
AcDbLine
 10
333.688397
 20
821.200251
 30
0.0
 11
333.688397
 21
815.350001
 31
0.0
  0
LINE
  5
1239
100
AcDbEntity
  8
10000_FRONT
370
    25
390
0
  6
CONTINUOUS
 62
     7
100
AcDbLine
 10
332.238397
 20
824.199999
 30
0.0
 11
332.238397
 21
806.100001
 31
0.0
  0
LINE
  5
123A
100
AcDbEntity
  8
10000_FRONT
370
    25
390
0
  6
CONTINUOUS
 62
     7
100
AcDbLine
 10
330.738397
 20
806.100001
 30
0.0
 11
330.738397
 21
824.199999
 31
0.0
  0
LINE
  5
123B
100
AcDbEntity
  8
10000_FRONT
370
    25
390
0
  6
CONTINUOUS
 62
     7
100
AcDbLine
 10
332.238397
 20
806.100001
 30
0.0
 11
330.738397
 21
806.100001
 31
0.0
  0
LINE
  5
123C
100
AcDbEntity
  8
10000_FRONT
370
    25
390
0
  6
CONTINUOUS
 62
     7
100
AcDbLine
 10
330.738397
 20
824.199999
 30
0.0
 11
332.238397
 21
824.199999
 31
0.0
  0
LINE
  5
123D
100
AcDbEntity
  8
10000_FRONT
370
    25
390
0
  6
CONTINUOUS
 62
     7
100
AcDbLine
 10
334.588397
 20
814.300002
 30
0.0
 11
332.238397
 21
814.300002
 31
0.0
  0
LINE
  5
123E
100
AcDbEntity
  8
10000_FRONT
370
    25
390
0
  6
CONTINUOUS
 62
     7
100
AcDbLine
 10
330.738397
 20
814.300002
 30
0.0
 11
328.638397
 21
814.300002
 31
0.0
  0
LINE
  5
123F
100
AcDbEntity
  8
10000_FRONT
370
    25
390
0
  6
CONTINUOUS
 62
     7
100
AcDbLine
 10
327.138397
 20
814.300002
 30
0.0
 11
324.788397
 21
814.300002
 31
0.0
  0
LINE
  5
1240
100
AcDbEntity
  8
10000_FRONT
370
    25
390
0
  6
CONTINUOUS
 62
     7
100
AcDbLine
 10
324.788397
 20
814.300002
 30
0.0
 11
324.788397
 21
806.100001
 31
0.0
  0
LINE
  5
1241
100
AcDbEntity
  8
10000_FRONT
370
    25
390
0
  6
CONTINUOUS
 62
     7
100
AcDbLine
 10
324.788397
 20
806.100001
 30
0.0
 11
322.588397
 21
806.100001
 31
0.0
  0
LINE
  5
1242
100
AcDbEntity
  8
10000_FRONT
370
    25
390
0
  6
CONTINUOUS
 62
     7
100
AcDbLine
 10
322.588397
 20
806.100001
 30
0.0
 11
322.588397
 21
810.191607
 31
0.0
  0
LINE
  5
1243
100
AcDbEntity
  8
10000_FRONT
370
    25
390
0
  6
CONTINUOUS
 62
     7
100
AcDbLine
 10
322.588397
 20
810.191607
 30
0.0
 11
302.188397
 21
810.191607
 31
0.0
  0
LINE
  5
1244
100
AcDbEntity
  8
10000_FRONT
370
    25
390
0
  6
CONTINUOUS
 62
     7
100
AcDbLine
 10
357.188397
 20
802.499998
 30
0.0
 11
302.188397
 21
802.499998
 31
0.0
  0
LINE
  5
1245
100
AcDbEntity
  8
10000_FRONT
370
    25
390
0
  6
CONTINUOUS
 62
     7
100
AcDbLine
 10
357.188397
 20
810.191607
 30
0.0
 11
357.188397
 21
802.499998
 31
0.0
  0
LINE
  5
1246
100
AcDbEntity
  8
10000_FRONT
370
    25
390
0
  6
CONTINUOUS
 62
     7
100
AcDbLine
 10
357.188397
 20
810.191607
 30
0.0
 11
336.788397
 21
810.191607
 31
0.0
  0
LINE
  5
1247
100
AcDbEntity
  8
10000_FRONT
370
    25
390
0
  6
CONTINUOUS
 62
     7
100
AcDbLine
 10
336.788397
 20
810.191607
 30
0.0
 11
336.788397
 21
806.100001
 31
0.0
  0
LINE
  5
1248
100
AcDbEntity
  8
10000_FRONT
370
    25
390
0
  6
CONTINUOUS
 62
     7
100
AcDbLine
 10
336.788397
 20
806.100001
 30
0.0
 11
334.588397
 21
806.100001
 31
0.0
  0
LINE
  5
1249
100
AcDbEntity
  8
10000_FRONT
370
    25
390
0
  6
CONTINUOUS
 62
     7
100
AcDbLine
 10
334.588397
 20
806.100001
 30
0.0
 11
334.588397
 21
814.300002
 31
0.0
  0
LINE
  5
124A
100
AcDbEntity
  8
10000_FRONT
370
    25
390
0
  6
CONTINUOUS
 62
     7
100
AcDbLine
 10
330.738397
 20
815.199999
 30
0.0
 11
328.638397
 21
815.199999
 31
0.0
  0
LINE
  5
124B
100
AcDbEntity
  8
10000_FRONT
370
    25
390
0
  6
CONTINUOUS
 62
     7
100
AcDbLine
 10
330.738397
 20
815.350001
 30
0.0
 11
328.638397
 21
815.350001
 31
0.0
  0
LINE
  5
124C
100
AcDbEntity
  8
10000_FRONT
370
    25
390
0
  6
CONTINUOUS
 62
     7
100
AcDbLine
 10
330.738397
 20
824.199999
 30
0.0
 11
328.638397
 21
824.199999
 31
0.0
  0
LINE
  5
124D
100
AcDbEntity
  8
10000_FRONT
370
    25
390
0
  6
CONTINUOUS
 62
     7
100
AcDbLine
 10
328.638397
 20
824.199999
 30
0.0
 11
328.638397
 21
806.100001
 31
0.0
  0
LINE
  5
124E
100
AcDbEntity
  8
10000_FRONT
370
    25
390
0
  6
CONTINUOUS
 62
     7
100
AcDbLine
 10
327.138397
 20
806.100001
 30
0.0
 11
327.138397
 21
824.199999
 31
0.0
  0
LINE
  5
124F
100
AcDbEntity
  8
10000_FRONT
370
    25
390
0
  6
CONTINUOUS
 62
     7
100
AcDbLine
 10
328.638397
 20
806.100001
 30
0.0
 11
327.138397
 21
806.100001
 31
0.0
  0
LINE
  5
1250
100
AcDbEntity
  8
10000_FRONT
370
    25
390
0
  6
CONTINUOUS
 62
     7
100
AcDbLine
 10
327.138397
 20
824.199999
 30
0.0
 11
328.638397
 21
824.199999
 31
0.0
  0
LINE
  5
1251
100
AcDbEntity
  8
10000_FRONT
370
    25
390
0
  6
CONTINUOUS
 62
     7
100
AcDbLine
 10
327.138397
 20
815.199999
 30
0.0
 11
324.788397
 21
815.199999
 31
0.0
  0
LINE
  5
1252
100
AcDbEntity
  8
10000_FRONT
370
    25
390
0
  6
CONTINUOUS
 62
     7
100
AcDbLine
 10
324.788397
 20
814.300002
 30
0.0
 11
324.788397
 21
815.199999
 31
0.0
  0
LINE
  5
1253
100
AcDbEntity
  8
10000_FRONT
370
    25
390
0
  6
CONTINUOUS
 62
     7
100
AcDbLine
 10
327.138397
 20
824.199999
 30
0.0
 11
324.49128
 21
824.199999
 31
0.0
  0
LINE
  5
1254
100
AcDbEntity
  8
10000_FRONT
370
    25
390
0
  6
CONTINUOUS
 62
     7
100
AcDbLine
 10
322.838418
 20
824.199999
 30
0.0
 11
318.438418
 21
824.199999
 31
0.0
  0
LINE
  5
1255
100
AcDbEntity
  8
10000_FRONT
370
    25
390
0
  6
CONTINUOUS
 62
     7
100
AcDbLine
 10
315.638418
 20
824.199999
 30
0.0
 11
311.238417
 21
824.199999
 31
0.0
  0
LINE
  5
1256
100
AcDbEntity
  8
10000_FRONT
370
    25
390
0
  6
CONTINUOUS
 62
     7
100
AcDbLine
 10
308.438418
 20
824.199999
 30
0.0
 11
304.038418
 21
824.199999
 31
0.0
  0
LINE
  5
1257
100
AcDbEntity
  8
10000_FRONT
370
    25
390
0
  6
CONTINUOUS
 62
     7
100
AcDbLine
 10
302.385556
 20
824.199999
 30
0.0
 11
302.188397
 21
824.199999
 31
0.0
  0
LINE
  5
1258
100
AcDbEntity
  8
10000_FRONT
370
    25
390
0
  6
CONTINUOUS
 62
     7
100
AcDbLine
 10
333.688397
 20
815.350001
 30
0.0
 11
332.238397
 21
815.350001
 31
0.0
  0
LINE
  5
1259
100
AcDbEntity
  8
10000_FRONT
370
    25
390
0
  6
CONTINUOUS
 62
     7
100
AcDbLine
 10
334.588397
 20
815.199999
 30
0.0
 11
334.588397
 21
822.999998
 31
0.0
  0
LINE
  5
125A
100
AcDbEntity
  8
10000_FRONT
370
    25
390
0
  6
CONTINUOUS
 62
     7
100
AcDbLine
 10
334.588397
 20
822.999998
 30
0.0
 11
334.188397
 21
822.999998
 31
0.0
  0
LINE
  5
125B
100
AcDbEntity
  8
10000_FRONT
370
    25
390
0
  6
CONTINUOUS
 62
     7
100
AcDbLine
 10
336.788397
 20
810.191607
 30
0.0
 11
336.788397
 21
810.199999
 31
0.0
  0
LINE
  5
125C
100
AcDbEntity
  8
10000_FRONT
370
    25
390
0
  6
CONTINUOUS
 62
     7
100
AcDbLine
 10
357.188397
 20
810.199999
 30
0.0
 11
336.788397
 21
810.199999
 31
0.0
  0
LINE
  5
125D
100
AcDbEntity
  8
10000_FRONT
370
    25
390
0
  6
CONTINUOUS
 62
     7
100
AcDbLine
 10
353.838397
 20
810.199999
 30
0.0
 11
353.838397
 21
810.200022
 31
0.0
  0
LINE
  5
125E
100
AcDbEntity
  8
10000_FRONT
370
    25
390
0
  6
CONTINUOUS
 62
     7
100
AcDbLine
 10
335.838397
 20
810.199999
 30
0.0
 11
335.838397
 21
810.200022
 31
0.0
  0
LINE
  5
125F
100
AcDbEntity
  8
10000_FRONT
370
    25
390
0
  6
CONTINUOUS
 62
     7
100
AcDbLine
 10
357.188397
 20
810.191607
 30
0.0
 11
357.188397
 21
810.199999
 31
0.0
  0
LINE
  5
1260
100
AcDbEntity
  8
10000_FRONT
370
    25
390
0
  6
CONTINUOUS
 62
     7
100
AcDbLine
 10
322.588397
 20
810.191607
 30
0.0
 11
322.588397
 21
810.199999
 31
0.0
  0
LINE
  5
1261
100
AcDbEntity
  8
10000_FRONT
370
    25
390
0
  6
CONTINUOUS
 62
     7
100
AcDbLine
 10
321.438397
 20
810.199999
 30
0.0
 11
321.438397
 21
810.200022
 31
0.0
  0
LINE
  5
1262
100
AcDbEntity
  8
10000_FRONT
370
    25
390
0
  6
CONTINUOUS
 62
     7
100
AcDbLine
 10
303.438397
 20
810.199999
 30
0.0
 11
303.438397
 21
810.200022
 31
0.0
  0
LINE
  5
1263
100
AcDbEntity
  8
10000_FRONT
370
    25
390
0
  6
CONTINUOUS
 62
     7
100
AcDbLine
 10
324.788397
 20
819.499998
 30
0.0
 11
324.688419
 21
819.499998
 31
0.0
  0
LINE
  5
1264
100
AcDbEntity
  8
10000_FRONT
370
    25
390
0
  6
CONTINUOUS
 62
     7
100
AcDbLine
 10
334.688419
 20
819.499998
 30
0.0
 11
334.588397
 21
819.499998
 31
0.0
  0
LINE
  5
1265
100
AcDbEntity
  8
10000_FRONT
370
    25
390
0
  6
CONTINUOUS
 62
     7
100
AcDbLine
 10
355.938397
 20
716.999998
 30
0.0
 11
353.838397
 21
716.999998
 31
0.0
  0
LINE
  5
1266
100
AcDbEntity
  8
10000_FRONT
370
    25
390
0
  6
CONTINUOUS
 62
     7
100
AcDbLine
 10
355.938397
 20
715.4
 30
0.0
 11
353.838397
 21
715.4
 31
0.0
  0
LINE
  5
1267
100
AcDbEntity
  8
10000_FRONT
370
    25
390
0
  6
CONTINUOUS
 62
     7
100
AcDbLine
 10
352.338397
 20
716.999998
 30
0.0
 11
350.238396
 21
716.999998
 31
0.0
  0
LINE
  5
1268
100
AcDbEntity
  8
10000_FRONT
370
    25
390
0
  6
CONTINUOUS
 62
     7
100
AcDbLine
 10
352.338397
 20
715.4
 30
0.0
 11
350.238396
 21
715.4
 31
0.0
  0
LINE
  5
1269
100
AcDbEntity
  8
10000_FRONT
370
    25
390
0
  6
CONTINUOUS
 62
     7
100
AcDbLine
 10
348.738396
 20
716.999998
 30
0.0
 11
346.638398
 21
716.999998
 31
0.0
  0
LINE
  5
126A
100
AcDbEntity
  8
10000_FRONT
370
    25
390
0
  6
CONTINUOUS
 62
     7
100
AcDbLine
 10
348.738396
 20
715.4
 30
0.0
 11
346.638398
 21
715.4
 31
0.0
  0
LINE
  5
126B
100
AcDbEntity
  8
10000_FRONT
370
    25
390
0
  6
CONTINUOUS
 62
     7
100
AcDbLine
 10
345.138397
 20
716.999998
 30
0.0
 11
343.038397
 21
716.999998
 31
0.0
  0
LINE
  5
126C
100
AcDbEntity
  8
10000_FRONT
370
    25
390
0
  6
CONTINUOUS
 62
     7
100
AcDbLine
 10
345.138397
 20
715.4
 30
0.0
 11
343.038397
 21
715.4
 31
0.0
  0
LINE
  5
126D
100
AcDbEntity
  8
10000_FRONT
370
    25
390
0
  6
CONTINUOUS
 62
     7
100
AcDbLine
 10
341.538397
 20
716.999998
 30
0.0
 11
339.438397
 21
716.999998
 31
0.0
  0
LINE
  5
126E
100
AcDbEntity
  8
10000_FRONT
370
    25
390
0
  6
CONTINUOUS
 62
     7
100
AcDbLine
 10
341.538397
 20
715.4
 30
0.0
 11
339.438397
 21
715.4
 31
0.0
  0
LINE
  5
126F
100
AcDbEntity
  8
10000_FRONT
370
    25
390
0
  6
CONTINUOUS
 62
     7
100
AcDbLine
 10
337.938397
 20
716.999998
 30
0.0
 11
335.838397
 21
716.999998
 31
0.0
  0
LINE
  5
1270
100
AcDbEntity
  8
10000_FRONT
370
    25
390
0
  6
CONTINUOUS
 62
     7
100
AcDbLine
 10
337.938397
 20
715.4
 30
0.0
 11
335.838397
 21
715.4
 31
0.0
  0
LINE
  5
1271
100
AcDbEntity
  8
10000_FRONT
370
    25
390
0
  6
CONTINUOUS
 62
     7
100
AcDbLine
 10
334.338397
 20
716.999998
 30
0.0
 11
332.238397
 21
716.999998
 31
0.0
  0
LINE
  5
1272
100
AcDbEntity
  8
10000_FRONT
370
    25
390
0
  6
CONTINUOUS
 62
     7
100
AcDbLine
 10
334.338397
 20
715.4
 30
0.0
 11
332.238397
 21
715.4
 31
0.0
  0
LINE
  5
1273
100
AcDbEntity
  8
10000_FRONT
370
    25
390
0
  6
CONTINUOUS
 62
     7
100
AcDbLine
 10
330.738397
 20
716.999998
 30
0.0
 11
328.638397
 21
716.999998
 31
0.0
  0
LINE
  5
1274
100
AcDbEntity
  8
10000_FRONT
370
    25
390
0
  6
CONTINUOUS
 62
     7
100
AcDbLine
 10
330.738397
 20
715.4
 30
0.0
 11
328.638397
 21
715.4
 31
0.0
  0
LINE
  5
1275
100
AcDbEntity
  8
10000_FRONT
370
    25
390
0
  6
CONTINUOUS
 62
     7
100
AcDbLine
 10
327.138397
 20
716.999998
 30
0.0
 11
325.038397
 21
716.999998
 31
0.0
  0
LINE
  5
1276
100
AcDbEntity
  8
10000_FRONT
370
    25
390
0
  6
CONTINUOUS
 62
     7
100
AcDbLine
 10
327.138397
 20
715.4
 30
0.0
 11
325.038397
 21
715.4
 31
0.0
  0
LINE
  5
1277
100
AcDbEntity
  8
10000_FRONT
370
    25
390
0
  6
CONTINUOUS
 62
     7
100
AcDbLine
 10
323.538397
 20
716.999998
 30
0.0
 11
321.438397
 21
716.999998
 31
0.0
  0
LINE
  5
1278
100
AcDbEntity
  8
10000_FRONT
370
    25
390
0
  6
CONTINUOUS
 62
     7
100
AcDbLine
 10
323.538397
 20
715.4
 30
0.0
 11
321.438397
 21
715.4
 31
0.0
  0
LINE
  5
1279
100
AcDbEntity
  8
10000_FRONT
370
    25
390
0
  6
CONTINUOUS
 62
     7
100
AcDbLine
 10
319.938397
 20
716.999998
 30
0.0
 11
317.838397
 21
716.999998
 31
0.0
  0
LINE
  5
127A
100
AcDbEntity
  8
10000_FRONT
370
    25
390
0
  6
CONTINUOUS
 62
     7
100
AcDbLine
 10
319.938397
 20
715.4
 30
0.0
 11
317.838397
 21
715.4
 31
0.0
  0
LINE
  5
127B
100
AcDbEntity
  8
10000_FRONT
370
    25
390
0
  6
CONTINUOUS
 62
     7
100
AcDbLine
 10
316.338397
 20
716.999998
 30
0.0
 11
314.238397
 21
716.999998
 31
0.0
  0
LINE
  5
127C
100
AcDbEntity
  8
10000_FRONT
370
    25
390
0
  6
CONTINUOUS
 62
     7
100
AcDbLine
 10
316.338397
 20
715.4
 30
0.0
 11
314.238397
 21
715.4
 31
0.0
  0
LINE
  5
127D
100
AcDbEntity
  8
10000_FRONT
370
    25
390
0
  6
CONTINUOUS
 62
     7
100
AcDbLine
 10
312.738396
 20
716.999998
 30
0.0
 11
310.638398
 21
716.999998
 31
0.0
  0
LINE
  5
127E
100
AcDbEntity
  8
10000_FRONT
370
    25
390
0
  6
CONTINUOUS
 62
     7
100
AcDbLine
 10
312.738396
 20
715.4
 30
0.0
 11
310.638398
 21
715.4
 31
0.0
  0
LINE
  5
127F
100
AcDbEntity
  8
10000_FRONT
370
    25
390
0
  6
CONTINUOUS
 62
     7
100
AcDbLine
 10
309.138398
 20
716.999998
 30
0.0
 11
307.038397
 21
716.999998
 31
0.0
  0
LINE
  5
1280
100
AcDbEntity
  8
10000_FRONT
370
    25
390
0
  6
CONTINUOUS
 62
     7
100
AcDbLine
 10
309.138398
 20
715.4
 30
0.0
 11
307.038397
 21
715.4
 31
0.0
  0
LINE
  5
1281
100
AcDbEntity
  8
10000_FRONT
370
    25
390
0
  6
CONTINUOUS
 62
     7
100
AcDbLine
 10
355.938397
 20
717.199999
 30
0.0
 11
353.838397
 21
717.199999
 31
0.0
  0
LINE
  5
1282
100
AcDbEntity
  8
10000_FRONT
370
    25
390
0
  6
CONTINUOUS
 62
     7
100
AcDbLine
 10
352.338397
 20
717.199999
 30
0.0
 11
350.238396
 21
717.199999
 31
0.0
  0
LINE
  5
1283
100
AcDbEntity
  8
10000_FRONT
370
    25
390
0
  6
CONTINUOUS
 62
     7
100
AcDbLine
 10
348.738396
 20
717.199999
 30
0.0
 11
346.638398
 21
717.199999
 31
0.0
  0
LINE
  5
1284
100
AcDbEntity
  8
10000_FRONT
370
    25
390
0
  6
CONTINUOUS
 62
     7
100
AcDbLine
 10
345.138397
 20
717.199999
 30
0.0
 11
343.038397
 21
717.199999
 31
0.0
  0
LINE
  5
1285
100
AcDbEntity
  8
10000_FRONT
370
    25
390
0
  6
CONTINUOUS
 62
     7
100
AcDbLine
 10
341.538397
 20
717.199999
 30
0.0
 11
339.438397
 21
717.199999
 31
0.0
  0
LINE
  5
1286
100
AcDbEntity
  8
10000_FRONT
370
    25
390
0
  6
CONTINUOUS
 62
     7
100
AcDbLine
 10
337.938397
 20
717.199999
 30
0.0
 11
335.838397
 21
717.199999
 31
0.0
  0
LINE
  5
1287
100
AcDbEntity
  8
10000_FRONT
370
    25
390
0
  6
CONTINUOUS
 62
     7
100
AcDbLine
 10
334.338397
 20
717.199999
 30
0.0
 11
332.238397
 21
717.199999
 31
0.0
  0
LINE
  5
1288
100
AcDbEntity
  8
10000_FRONT
370
    25
390
0
  6
CONTINUOUS
 62
     7
100
AcDbLine
 10
330.738397
 20
717.199999
 30
0.0
 11
328.638397
 21
717.199999
 31
0.0
  0
LINE
  5
1289
100
AcDbEntity
  8
10000_FRONT
370
    25
390
0
  6
CONTINUOUS
 62
     7
100
AcDbLine
 10
327.138397
 20
717.199999
 30
0.0
 11
325.038397
 21
717.199999
 31
0.0
  0
LINE
  5
128A
100
AcDbEntity
  8
10000_FRONT
370
    25
390
0
  6
CONTINUOUS
 62
     7
100
AcDbLine
 10
323.538397
 20
717.199999
 30
0.0
 11
321.438397
 21
717.199999
 31
0.0
  0
LINE
  5
128B
100
AcDbEntity
  8
10000_FRONT
370
    25
390
0
  6
CONTINUOUS
 62
     7
100
AcDbLine
 10
319.938397
 20
717.199999
 30
0.0
 11
317.838397
 21
717.199999
 31
0.0
  0
LINE
  5
128C
100
AcDbEntity
  8
10000_FRONT
370
    25
390
0
  6
CONTINUOUS
 62
     7
100
AcDbLine
 10
316.338397
 20
717.199999
 30
0.0
 11
314.238397
 21
717.199999
 31
0.0
  0
LINE
  5
128D
100
AcDbEntity
  8
10000_FRONT
370
    25
390
0
  6
CONTINUOUS
 62
     7
100
AcDbLine
 10
312.738396
 20
717.199999
 30
0.0
 11
310.638398
 21
717.199999
 31
0.0
  0
LINE
  5
128E
100
AcDbEntity
  8
10000_FRONT
370
    25
390
0
  6
CONTINUOUS
 62
     7
100
AcDbLine
 10
309.138398
 20
717.199999
 30
0.0
 11
307.038397
 21
717.199999
 31
0.0
  0
LINE
  5
128F
100
AcDbEntity
  8
10000_FRONT
370
    25
390
0
  6
CONTINUOUS
 62
     7
100
AcDbLine
 10
355.938397
 20
715.199999
 30
0.0
 11
353.838397
 21
715.199999
 31
0.0
  0
LINE
  5
1290
100
AcDbEntity
  8
10000_FRONT
370
    25
390
0
  6
CONTINUOUS
 62
     7
100
AcDbLine
 10
352.338397
 20
715.199999
 30
0.0
 11
350.238396
 21
715.199999
 31
0.0
  0
LINE
  5
1291
100
AcDbEntity
  8
10000_FRONT
370
    25
390
0
  6
CONTINUOUS
 62
     7
100
AcDbLine
 10
348.738396
 20
715.199999
 30
0.0
 11
346.638398
 21
715.199999
 31
0.0
  0
LINE
  5
1292
100
AcDbEntity
  8
10000_FRONT
370
    25
390
0
  6
CONTINUOUS
 62
     7
100
AcDbLine
 10
345.138397
 20
715.199999
 30
0.0
 11
343.038397
 21
715.199999
 31
0.0
  0
LINE
  5
1293
100
AcDbEntity
  8
10000_FRONT
370
    25
390
0
  6
CONTINUOUS
 62
     7
100
AcDbLine
 10
341.538397
 20
715.199999
 30
0.0
 11
339.438397
 21
715.199999
 31
0.0
  0
LINE
  5
1294
100
AcDbEntity
  8
10000_FRONT
370
    25
390
0
  6
CONTINUOUS
 62
     7
100
AcDbLine
 10
337.938397
 20
715.199999
 30
0.0
 11
335.838397
 21
715.199999
 31
0.0
  0
LINE
  5
1295
100
AcDbEntity
  8
10000_FRONT
370
    25
390
0
  6
CONTINUOUS
 62
     7
100
AcDbLine
 10
334.338397
 20
715.199999
 30
0.0
 11
332.238397
 21
715.199999
 31
0.0
  0
LINE
  5
1296
100
AcDbEntity
  8
10000_FRONT
370
    25
390
0
  6
CONTINUOUS
 62
     7
100
AcDbLine
 10
330.738397
 20
715.199999
 30
0.0
 11
328.638397
 21
715.199999
 31
0.0
  0
LINE
  5
1297
100
AcDbEntity
  8
10000_FRONT
370
    25
390
0
  6
CONTINUOUS
 62
     7
100
AcDbLine
 10
327.138397
 20
715.199999
 30
0.0
 11
325.038397
 21
715.199999
 31
0.0
  0
LINE
  5
1298
100
AcDbEntity
  8
10000_FRONT
370
    25
390
0
  6
CONTINUOUS
 62
     7
100
AcDbLine
 10
323.538397
 20
715.199999
 30
0.0
 11
321.438397
 21
715.199999
 31
0.0
  0
LINE
  5
1299
100
AcDbEntity
  8
10000_FRONT
370
    25
390
0
  6
CONTINUOUS
 62
     7
100
AcDbLine
 10
319.938397
 20
715.199999
 30
0.0
 11
317.838397
 21
715.199999
 31
0.0
  0
LINE
  5
129A
100
AcDbEntity
  8
10000_FRONT
370
    25
390
0
  6
CONTINUOUS
 62
     7
100
AcDbLine
 10
316.338397
 20
715.199999
 30
0.0
 11
314.238397
 21
715.199999
 31
0.0
  0
LINE
  5
129B
100
AcDbEntity
  8
10000_FRONT
370
    25
390
0
  6
CONTINUOUS
 62
     7
100
AcDbLine
 10
312.738396
 20
715.199999
 30
0.0
 11
310.638398
 21
715.199999
 31
0.0
  0
LINE
  5
129C
100
AcDbEntity
  8
10000_FRONT
370
    25
390
0
  6
CONTINUOUS
 62
     7
100
AcDbLine
 10
309.138398
 20
715.199999
 30
0.0
 11
307.038397
 21
715.199999
 31
0.0
  0
LINE
  5
129D
100
AcDbEntity
  8
10000_FRONT
370
    25
390
0
  6
CONTINUOUS
 62
     7
100
AcDbLine
 10
305.538397
 20
715.4
 30
0.0
 11
303.438397
 21
715.4
 31
0.0
  0
LINE
  5
129E
100
AcDbEntity
  8
10000_FRONT
370
    25
390
0
  6
CONTINUOUS
 62
     7
100
AcDbLine
 10
305.538397
 20
715.199999
 30
0.0
 11
303.438397
 21
715.199999
 31
0.0
  0
LINE
  5
129F
100
AcDbEntity
  8
10000_FRONT
370
    25
390
0
  6
CONTINUOUS
 62
     7
100
AcDbLine
 10
305.538397
 20
717.199999
 30
0.0
 11
303.438397
 21
717.199999
 31
0.0
  0
LINE
  5
12A0
100
AcDbEntity
  8
10000_FRONT
370
    25
390
0
  6
CONTINUOUS
 62
     7
100
AcDbLine
 10
305.538397
 20
716.999998
 30
0.0
 11
303.438397
 21
716.999998
 31
0.0
  0
LINE
  5
12A1
100
AcDbEntity
  8
10000_FRONT
370
    25
390
0
  6
CONTINUOUS
 62
     7
100
AcDbLine
 10
303.438397
 20
714.199999
 30
0.0
 11
303.438397
 21
714.4
 31
0.0
  0
LINE
  5
12A2
100
AcDbEntity
  8
10000_FRONT
370
    25
390
0
  6
CONTINUOUS
 62
     7
100
AcDbLine
 10
303.438397
 20
714.4
 30
0.0
 11
303.438397
 21
727.850001
 31
0.0
  0
LINE
  5
12A3
100
AcDbEntity
  8
10000_FRONT
370
    25
390
0
  6
CONTINUOUS
 62
     7
100
AcDbLine
 10
303.438397
 20
727.850001
 30
0.0
 11
305.538397
 21
727.850001
 31
0.0
  0
LINE
  5
12A4
100
AcDbEntity
  8
10000_FRONT
370
    25
390
0
  6
CONTINUOUS
 62
     7
100
AcDbLine
 10
305.538397
 20
714.199999
 30
0.0
 11
305.538397
 21
714.4
 31
0.0
  0
LINE
  5
12A5
100
AcDbEntity
  8
10000_FRONT
370
    25
390
0
  6
CONTINUOUS
 62
     7
100
AcDbLine
 10
305.538397
 20
727.850001
 30
0.0
 11
305.538397
 21
714.4
 31
0.0
  0
LINE
  5
12A6
100
AcDbEntity
  8
10000_FRONT
370
    25
390
0
  6
CONTINUOUS
 62
     7
100
AcDbLine
 10
305.538397
 20
714.199999
 30
0.0
 11
303.438397
 21
714.199999
 31
0.0
  0
LINE
  5
12A7
100
AcDbEntity
  8
10000_FRONT
370
    25
390
0
  6
CONTINUOUS
 62
     7
100
AcDbLine
 10
319.788397
 20
742.699999
 30
0.0
 11
302.188397
 21
742.699999
 31
0.0
  0
LINE
  5
12A8
100
AcDbEntity
  8
10000_FRONT
370
    25
390
0
  6
CONTINUOUS
 62
     7
100
AcDbLine
 10
303.438397
 20
714.4
 30
0.0
 11
302.188397
 21
714.4
 31
0.0
  0
LINE
  5
12A9
100
AcDbEntity
  8
10000_FRONT
370
    25
390
0
  6
CONTINUOUS
 62
     7
100
AcDbLine
 10
307.038397
 20
714.4
 30
0.0
 11
305.538397
 21
714.4
 31
0.0
  0
LINE
  5
12AA
100
AcDbEntity
  8
10000_FRONT
370
    25
390
0
  6
CONTINUOUS
 62
     7
100
AcDbLine
 10
307.038397
 20
714.4
 30
0.0
 11
307.038397
 21
727.850001
 31
0.0
  0
LINE
  5
12AB
100
AcDbEntity
  8
10000_FRONT
370
    25
390
0
  6
CONTINUOUS
 62
     7
100
AcDbLine
 10
307.038397
 20
727.850001
 30
0.0
 11
309.138398
 21
727.850001
 31
0.0
  0
LINE
  5
12AC
100
AcDbEntity
  8
10000_FRONT
370
    25
390
0
  6
CONTINUOUS
 62
     7
100
AcDbLine
 10
309.138398
 20
727.850001
 30
0.0
 11
309.138398
 21
714.4
 31
0.0
  0
LINE
  5
12AD
100
AcDbEntity
  8
10000_FRONT
370
    25
390
0
  6
CONTINUOUS
 62
     7
100
AcDbLine
 10
310.638398
 20
714.4
 30
0.0
 11
309.138398
 21
714.4
 31
0.0
  0
LINE
  5
12AE
100
AcDbEntity
  8
10000_FRONT
370
    25
390
0
  6
CONTINUOUS
 62
     7
100
AcDbLine
 10
310.638398
 20
714.4
 30
0.0
 11
310.638398
 21
727.850001
 31
0.0
  0
LINE
  5
12AF
100
AcDbEntity
  8
10000_FRONT
370
    25
390
0
  6
CONTINUOUS
 62
     7
100
AcDbLine
 10
310.638398
 20
727.850001
 30
0.0
 11
312.738396
 21
727.850001
 31
0.0
  0
LINE
  5
12B0
100
AcDbEntity
  8
10000_FRONT
370
    25
390
0
  6
CONTINUOUS
 62
     7
100
AcDbLine
 10
312.738396
 20
727.850001
 30
0.0
 11
312.738396
 21
714.4
 31
0.0
  0
LINE
  5
12B1
100
AcDbEntity
  8
10000_FRONT
370
    25
390
0
  6
CONTINUOUS
 62
     7
100
AcDbLine
 10
314.238397
 20
714.4
 30
0.0
 11
312.738396
 21
714.4
 31
0.0
  0
LINE
  5
12B2
100
AcDbEntity
  8
10000_FRONT
370
    25
390
0
  6
CONTINUOUS
 62
     7
100
AcDbLine
 10
314.238397
 20
714.4
 30
0.0
 11
314.238397
 21
727.850001
 31
0.0
  0
LINE
  5
12B3
100
AcDbEntity
  8
10000_FRONT
370
    25
390
0
  6
CONTINUOUS
 62
     7
100
AcDbLine
 10
314.238397
 20
727.850001
 30
0.0
 11
316.338397
 21
727.850001
 31
0.0
  0
LINE
  5
12B4
100
AcDbEntity
  8
10000_FRONT
370
    25
390
0
  6
CONTINUOUS
 62
     7
100
AcDbLine
 10
316.338397
 20
727.850001
 30
0.0
 11
316.338397
 21
714.4
 31
0.0
  0
LINE
  5
12B5
100
AcDbEntity
  8
10000_FRONT
370
    25
390
0
  6
CONTINUOUS
 62
     7
100
AcDbLine
 10
317.838397
 20
714.4
 30
0.0
 11
316.338397
 21
714.4
 31
0.0
  0
LINE
  5
12B6
100
AcDbEntity
  8
10000_FRONT
370
    25
390
0
  6
CONTINUOUS
 62
     7
100
AcDbLine
 10
317.838397
 20
714.4
 30
0.0
 11
317.838397
 21
727.850001
 31
0.0
  0
LINE
  5
12B7
100
AcDbEntity
  8
10000_FRONT
370
    25
390
0
  6
CONTINUOUS
 62
     7
100
AcDbLine
 10
317.838397
 20
727.850001
 30
0.0
 11
319.938397
 21
727.850001
 31
0.0
  0
LINE
  5
12B8
100
AcDbEntity
  8
10000_FRONT
370
    25
390
0
  6
CONTINUOUS
 62
     7
100
AcDbLine
 10
319.938397
 20
727.850001
 30
0.0
 11
319.938397
 21
714.4
 31
0.0
  0
LINE
  5
12B9
100
AcDbEntity
  8
10000_FRONT
370
    25
390
0
  6
CONTINUOUS
 62
     7
100
AcDbLine
 10
321.438397
 20
714.4
 30
0.0
 11
319.938397
 21
714.4
 31
0.0
  0
LINE
  5
12BA
100
AcDbEntity
  8
10000_FRONT
370
    25
390
0
  6
CONTINUOUS
 62
     7
100
AcDbLine
 10
321.438397
 20
714.4
 30
0.0
 11
321.438397
 21
727.850001
 31
0.0
  0
LINE
  5
12BB
100
AcDbEntity
  8
10000_FRONT
370
    25
390
0
  6
CONTINUOUS
 62
     7
100
AcDbLine
 10
321.438397
 20
727.850001
 30
0.0
 11
323.538397
 21
727.850001
 31
0.0
  0
LINE
  5
12BC
100
AcDbEntity
  8
10000_FRONT
370
    25
390
0
  6
CONTINUOUS
 62
     7
100
AcDbLine
 10
323.538397
 20
727.850001
 30
0.0
 11
323.538397
 21
714.4
 31
0.0
  0
LINE
  5
12BD
100
AcDbEntity
  8
10000_FRONT
370
    25
390
0
  6
CONTINUOUS
 62
     7
100
AcDbLine
 10
325.038397
 20
714.4
 30
0.0
 11
323.538397
 21
714.4
 31
0.0
  0
LINE
  5
12BE
100
AcDbEntity
  8
10000_FRONT
370
    25
390
0
  6
CONTINUOUS
 62
     7
100
AcDbLine
 10
325.038397
 20
714.4
 30
0.0
 11
325.038397
 21
727.850001
 31
0.0
  0
LINE
  5
12BF
100
AcDbEntity
  8
10000_FRONT
370
    25
390
0
  6
CONTINUOUS
 62
     7
100
AcDbLine
 10
325.038397
 20
727.850001
 30
0.0
 11
327.138397
 21
727.850001
 31
0.0
  0
LINE
  5
12C0
100
AcDbEntity
  8
10000_FRONT
370
    25
390
0
  6
CONTINUOUS
 62
     7
100
AcDbLine
 10
327.138397
 20
727.850001
 30
0.0
 11
327.138397
 21
714.4
 31
0.0
  0
LINE
  5
12C1
100
AcDbEntity
  8
10000_FRONT
370
    25
390
0
  6
CONTINUOUS
 62
     7
100
AcDbLine
 10
328.638397
 20
714.4
 30
0.0
 11
327.138397
 21
714.4
 31
0.0
  0
LINE
  5
12C2
100
AcDbEntity
  8
10000_FRONT
370
    25
390
0
  6
CONTINUOUS
 62
     7
100
AcDbLine
 10
328.638397
 20
714.4
 30
0.0
 11
328.638397
 21
727.850001
 31
0.0
  0
LINE
  5
12C3
100
AcDbEntity
  8
10000_FRONT
370
    25
390
0
  6
CONTINUOUS
 62
     7
100
AcDbLine
 10
328.638397
 20
727.850001
 30
0.0
 11
330.738397
 21
727.850001
 31
0.0
  0
LINE
  5
12C4
100
AcDbEntity
  8
10000_FRONT
370
    25
390
0
  6
CONTINUOUS
 62
     7
100
AcDbLine
 10
330.738397
 20
727.850001
 30
0.0
 11
330.738397
 21
714.4
 31
0.0
  0
LINE
  5
12C5
100
AcDbEntity
  8
10000_FRONT
370
    25
390
0
  6
CONTINUOUS
 62
     7
100
AcDbLine
 10
332.238397
 20
714.4
 30
0.0
 11
330.738397
 21
714.4
 31
0.0
  0
LINE
  5
12C6
100
AcDbEntity
  8
10000_FRONT
370
    25
390
0
  6
CONTINUOUS
 62
     7
100
AcDbLine
 10
332.238397
 20
714.4
 30
0.0
 11
332.238397
 21
727.850001
 31
0.0
  0
LINE
  5
12C7
100
AcDbEntity
  8
10000_FRONT
370
    25
390
0
  6
CONTINUOUS
 62
     7
100
AcDbLine
 10
332.238397
 20
727.850001
 30
0.0
 11
334.338397
 21
727.850001
 31
0.0
  0
LINE
  5
12C8
100
AcDbEntity
  8
10000_FRONT
370
    25
390
0
  6
CONTINUOUS
 62
     7
100
AcDbLine
 10
334.338397
 20
727.850001
 30
0.0
 11
334.338397
 21
714.4
 31
0.0
  0
LINE
  5
12C9
100
AcDbEntity
  8
10000_FRONT
370
    25
390
0
  6
CONTINUOUS
 62
     7
100
AcDbLine
 10
335.838397
 20
714.4
 30
0.0
 11
334.338397
 21
714.4
 31
0.0
  0
LINE
  5
12CA
100
AcDbEntity
  8
10000_FRONT
370
    25
390
0
  6
CONTINUOUS
 62
     7
100
AcDbLine
 10
335.838397
 20
714.4
 30
0.0
 11
335.838397
 21
727.850001
 31
0.0
  0
LINE
  5
12CB
100
AcDbEntity
  8
10000_FRONT
370
    25
390
0
  6
CONTINUOUS
 62
     7
100
AcDbLine
 10
335.838397
 20
727.850001
 30
0.0
 11
337.938397
 21
727.850001
 31
0.0
  0
LINE
  5
12CC
100
AcDbEntity
  8
10000_FRONT
370
    25
390
0
  6
CONTINUOUS
 62
     7
100
AcDbLine
 10
337.938397
 20
727.850001
 30
0.0
 11
337.938397
 21
714.4
 31
0.0
  0
LINE
  5
12CD
100
AcDbEntity
  8
10000_FRONT
370
    25
390
0
  6
CONTINUOUS
 62
     7
100
AcDbLine
 10
339.438397
 20
714.4
 30
0.0
 11
337.938397
 21
714.4
 31
0.0
  0
LINE
  5
12CE
100
AcDbEntity
  8
10000_FRONT
370
    25
390
0
  6
CONTINUOUS
 62
     7
100
AcDbLine
 10
339.438397
 20
714.4
 30
0.0
 11
339.438397
 21
727.850001
 31
0.0
  0
LINE
  5
12CF
100
AcDbEntity
  8
10000_FRONT
370
    25
390
0
  6
CONTINUOUS
 62
     7
100
AcDbLine
 10
339.438397
 20
727.850001
 30
0.0
 11
341.538397
 21
727.850001
 31
0.0
  0
LINE
  5
12D0
100
AcDbEntity
  8
10000_FRONT
370
    25
390
0
  6
CONTINUOUS
 62
     7
100
AcDbLine
 10
341.538397
 20
727.850001
 30
0.0
 11
341.538397
 21
714.4
 31
0.0
  0
LINE
  5
12D1
100
AcDbEntity
  8
10000_FRONT
370
    25
390
0
  6
CONTINUOUS
 62
     7
100
AcDbLine
 10
343.038397
 20
714.4
 30
0.0
 11
341.538397
 21
714.4
 31
0.0
  0
LINE
  5
12D2
100
AcDbEntity
  8
10000_FRONT
370
    25
390
0
  6
CONTINUOUS
 62
     7
100
AcDbLine
 10
343.038397
 20
714.4
 30
0.0
 11
343.038397
 21
727.850001
 31
0.0
  0
LINE
  5
12D3
100
AcDbEntity
  8
10000_FRONT
370
    25
390
0
  6
CONTINUOUS
 62
     7
100
AcDbLine
 10
343.038397
 20
727.850001
 30
0.0
 11
345.138397
 21
727.850001
 31
0.0
  0
LINE
  5
12D4
100
AcDbEntity
  8
10000_FRONT
370
    25
390
0
  6
CONTINUOUS
 62
     7
100
AcDbLine
 10
345.138397
 20
727.850001
 30
0.0
 11
345.138397
 21
714.4
 31
0.0
  0
LINE
  5
12D5
100
AcDbEntity
  8
10000_FRONT
370
    25
390
0
  6
CONTINUOUS
 62
     7
100
AcDbLine
 10
346.638398
 20
714.4
 30
0.0
 11
345.138397
 21
714.4
 31
0.0
  0
LINE
  5
12D6
100
AcDbEntity
  8
10000_FRONT
370
    25
390
0
  6
CONTINUOUS
 62
     7
100
AcDbLine
 10
346.638398
 20
714.4
 30
0.0
 11
346.638398
 21
727.850001
 31
0.0
  0
LINE
  5
12D7
100
AcDbEntity
  8
10000_FRONT
370
    25
390
0
  6
CONTINUOUS
 62
     7
100
AcDbLine
 10
346.638398
 20
727.850001
 30
0.0
 11
348.738396
 21
727.850001
 31
0.0
  0
LINE
  5
12D8
100
AcDbEntity
  8
10000_FRONT
370
    25
390
0
  6
CONTINUOUS
 62
     7
100
AcDbLine
 10
348.738396
 20
727.850001
 30
0.0
 11
348.738396
 21
714.4
 31
0.0
  0
LINE
  5
12D9
100
AcDbEntity
  8
10000_FRONT
370
    25
390
0
  6
CONTINUOUS
 62
     7
100
AcDbLine
 10
350.238396
 20
714.4
 30
0.0
 11
348.738396
 21
714.4
 31
0.0
  0
LINE
  5
12DA
100
AcDbEntity
  8
10000_FRONT
370
    25
390
0
  6
CONTINUOUS
 62
     7
100
AcDbLine
 10
350.238396
 20
714.4
 30
0.0
 11
350.238396
 21
727.850001
 31
0.0
  0
LINE
  5
12DB
100
AcDbEntity
  8
10000_FRONT
370
    25
390
0
  6
CONTINUOUS
 62
     7
100
AcDbLine
 10
350.238396
 20
727.850001
 30
0.0
 11
352.338397
 21
727.850001
 31
0.0
  0
LINE
  5
12DC
100
AcDbEntity
  8
10000_FRONT
370
    25
390
0
  6
CONTINUOUS
 62
     7
100
AcDbLine
 10
352.338397
 20
727.850001
 30
0.0
 11
352.338397
 21
714.4
 31
0.0
  0
LINE
  5
12DD
100
AcDbEntity
  8
10000_FRONT
370
    25
390
0
  6
CONTINUOUS
 62
     7
100
AcDbLine
 10
353.838397
 20
714.4
 30
0.0
 11
352.338397
 21
714.4
 31
0.0
  0
LINE
  5
12DE
100
AcDbEntity
  8
10000_FRONT
370
    25
390
0
  6
CONTINUOUS
 62
     7
100
AcDbLine
 10
353.838397
 20
714.4
 30
0.0
 11
353.838397
 21
727.850001
 31
0.0
  0
LINE
  5
12DF
100
AcDbEntity
  8
10000_FRONT
370
    25
390
0
  6
CONTINUOUS
 62
     7
100
AcDbLine
 10
353.838397
 20
727.850001
 30
0.0
 11
355.938397
 21
727.850001
 31
0.0
  0
LINE
  5
12E0
100
AcDbEntity
  8
10000_FRONT
370
    25
390
0
  6
CONTINUOUS
 62
     7
100
AcDbLine
 10
355.938397
 20
727.850001
 30
0.0
 11
355.938397
 21
714.4
 31
0.0
  0
LINE
  5
12E1
100
AcDbEntity
  8
10000_FRONT
370
    25
390
0
  6
CONTINUOUS
 62
     7
100
AcDbLine
 10
357.188397
 20
714.4
 30
0.0
 11
355.938397
 21
714.4
 31
0.0
  0
LINE
  5
12E2
100
AcDbEntity
  8
10000_FRONT
370
    25
390
0
  6
CONTINUOUS
 62
     7
100
AcDbLine
 10
357.188397
 20
742.699999
 30
0.0
 11
357.188397
 21
714.4
 31
0.0
  0
LINE
  5
12E3
100
AcDbEntity
  8
10000_FRONT
370
    25
390
0
  6
CONTINUOUS
 62
     7
100
AcDbLine
 10
357.188397
 20
742.699999
 30
0.0
 11
339.588397
 21
742.699999
 31
0.0
  0
LINE
  5
12E4
100
AcDbEntity
  8
10000_FRONT
370
    25
390
0
  6
CONTINUOUS
 62
     7
100
AcDbLine
 10
307.038397
 20
714.199999
 30
0.0
 11
305.538397
 21
714.199999
 31
0.0
  0
LINE
  5
12E5
100
AcDbEntity
  8
10000_FRONT
370
    25
390
0
  6
CONTINUOUS
 62
     7
100
AcDbLine
 10
307.038397
 20
714.199999
 30
0.0
 11
307.038397
 21
714.4
 31
0.0
  0
LINE
  5
12E6
100
AcDbEntity
  8
10000_FRONT
370
    25
390
0
  6
CONTINUOUS
 62
     7
100
AcDbLine
 10
303.438397
 20
714.199999
 30
0.0
 11
302.188397
 21
714.199999
 31
0.0
  0
LINE
  5
12E7
100
AcDbEntity
  8
10000_FRONT
370
    25
390
0
  6
CONTINUOUS
 62
     7
100
AcDbLine
 10
309.138398
 20
714.199999
 30
0.0
 11
309.138398
 21
714.4
 31
0.0
  0
LINE
  5
12E8
100
AcDbEntity
  8
10000_FRONT
370
    25
390
0
  6
CONTINUOUS
 62
     7
100
AcDbLine
 10
309.138398
 20
714.199999
 30
0.0
 11
307.038397
 21
714.199999
 31
0.0
  0
LINE
  5
12E9
100
AcDbEntity
  8
10000_FRONT
370
    25
390
0
  6
CONTINUOUS
 62
     7
100
AcDbLine
 10
310.638398
 20
714.199999
 30
0.0
 11
309.138398
 21
714.199999
 31
0.0
  0
LINE
  5
12EA
100
AcDbEntity
  8
10000_FRONT
370
    25
390
0
  6
CONTINUOUS
 62
     7
100
AcDbLine
 10
310.638398
 20
714.199999
 30
0.0
 11
310.638398
 21
714.4
 31
0.0
  0
LINE
  5
12EB
100
AcDbEntity
  8
10000_FRONT
370
    25
390
0
  6
CONTINUOUS
 62
     7
100
AcDbLine
 10
312.738396
 20
714.199999
 30
0.0
 11
312.738396
 21
714.4
 31
0.0
  0
LINE
  5
12EC
100
AcDbEntity
  8
10000_FRONT
370
    25
390
0
  6
CONTINUOUS
 62
     7
100
AcDbLine
 10
312.738396
 20
714.199999
 30
0.0
 11
310.638398
 21
714.199999
 31
0.0
  0
LINE
  5
12ED
100
AcDbEntity
  8
10000_FRONT
370
    25
390
0
  6
CONTINUOUS
 62
     7
100
AcDbLine
 10
314.238397
 20
714.199999
 30
0.0
 11
312.738396
 21
714.199999
 31
0.0
  0
LINE
  5
12EE
100
AcDbEntity
  8
10000_FRONT
370
    25
390
0
  6
CONTINUOUS
 62
     7
100
AcDbLine
 10
314.238397
 20
714.199999
 30
0.0
 11
314.238397
 21
714.4
 31
0.0
  0
LINE
  5
12EF
100
AcDbEntity
  8
10000_FRONT
370
    25
390
0
  6
CONTINUOUS
 62
     7
100
AcDbLine
 10
316.338397
 20
714.199999
 30
0.0
 11
316.338397
 21
714.4
 31
0.0
  0
LINE
  5
12F0
100
AcDbEntity
  8
10000_FRONT
370
    25
390
0
  6
CONTINUOUS
 62
     7
100
AcDbLine
 10
316.338397
 20
714.199999
 30
0.0
 11
314.238397
 21
714.199999
 31
0.0
  0
LINE
  5
12F1
100
AcDbEntity
  8
10000_FRONT
370
    25
390
0
  6
CONTINUOUS
 62
     7
100
AcDbLine
 10
317.838397
 20
714.199999
 30
0.0
 11
316.338397
 21
714.199999
 31
0.0
  0
LINE
  5
12F2
100
AcDbEntity
  8
10000_FRONT
370
    25
390
0
  6
CONTINUOUS
 62
     7
100
AcDbLine
 10
317.838397
 20
714.199999
 30
0.0
 11
317.838397
 21
714.4
 31
0.0
  0
LINE
  5
12F3
100
AcDbEntity
  8
10000_FRONT
370
    25
390
0
  6
CONTINUOUS
 62
     7
100
AcDbLine
 10
319.938397
 20
714.199999
 30
0.0
 11
319.938397
 21
714.4
 31
0.0
  0
LINE
  5
12F4
100
AcDbEntity
  8
10000_FRONT
370
    25
390
0
  6
CONTINUOUS
 62
     7
100
AcDbLine
 10
319.938397
 20
714.199999
 30
0.0
 11
317.838397
 21
714.199999
 31
0.0
  0
LINE
  5
12F5
100
AcDbEntity
  8
10000_FRONT
370
    25
390
0
  6
CONTINUOUS
 62
     7
100
AcDbLine
 10
321.438397
 20
714.199999
 30
0.0
 11
319.938397
 21
714.199999
 31
0.0
  0
LINE
  5
12F6
100
AcDbEntity
  8
10000_FRONT
370
    25
390
0
  6
CONTINUOUS
 62
     7
100
AcDbLine
 10
321.438397
 20
714.199999
 30
0.0
 11
321.438397
 21
714.4
 31
0.0
  0
LINE
  5
12F7
100
AcDbEntity
  8
10000_FRONT
370
    25
390
0
  6
CONTINUOUS
 62
     7
100
AcDbLine
 10
323.538397
 20
714.199999
 30
0.0
 11
323.538397
 21
714.4
 31
0.0
  0
LINE
  5
12F8
100
AcDbEntity
  8
10000_FRONT
370
    25
390
0
  6
CONTINUOUS
 62
     7
100
AcDbLine
 10
323.538397
 20
714.199999
 30
0.0
 11
321.438397
 21
714.199999
 31
0.0
  0
LINE
  5
12F9
100
AcDbEntity
  8
10000_FRONT
370
    25
390
0
  6
CONTINUOUS
 62
     7
100
AcDbLine
 10
325.038397
 20
714.199999
 30
0.0
 11
323.538397
 21
714.199999
 31
0.0
  0
LINE
  5
12FA
100
AcDbEntity
  8
10000_FRONT
370
    25
390
0
  6
CONTINUOUS
 62
     7
100
AcDbLine
 10
325.038397
 20
714.199999
 30
0.0
 11
325.038397
 21
714.4
 31
0.0
  0
LINE
  5
12FB
100
AcDbEntity
  8
10000_FRONT
370
    25
390
0
  6
CONTINUOUS
 62
     7
100
AcDbLine
 10
327.138397
 20
714.199999
 30
0.0
 11
327.138397
 21
714.4
 31
0.0
  0
LINE
  5
12FC
100
AcDbEntity
  8
10000_FRONT
370
    25
390
0
  6
CONTINUOUS
 62
     7
100
AcDbLine
 10
327.138397
 20
714.199999
 30
0.0
 11
325.038397
 21
714.199999
 31
0.0
  0
LINE
  5
12FD
100
AcDbEntity
  8
10000_FRONT
370
    25
390
0
  6
CONTINUOUS
 62
     7
100
AcDbLine
 10
328.638397
 20
714.199999
 30
0.0
 11
327.138397
 21
714.199999
 31
0.0
  0
LINE
  5
12FE
100
AcDbEntity
  8
10000_FRONT
370
    25
390
0
  6
CONTINUOUS
 62
     7
100
AcDbLine
 10
328.638397
 20
714.199999
 30
0.0
 11
328.638397
 21
714.4
 31
0.0
  0
LINE
  5
12FF
100
AcDbEntity
  8
10000_FRONT
370
    25
390
0
  6
CONTINUOUS
 62
     7
100
AcDbLine
 10
330.738397
 20
714.199999
 30
0.0
 11
330.738397
 21
714.4
 31
0.0
  0
LINE
  5
1300
100
AcDbEntity
  8
10000_FRONT
370
    25
390
0
  6
CONTINUOUS
 62
     7
100
AcDbLine
 10
330.738397
 20
714.199999
 30
0.0
 11
328.638397
 21
714.199999
 31
0.0
  0
LINE
  5
1301
100
AcDbEntity
  8
10000_FRONT
370
    25
390
0
  6
CONTINUOUS
 62
     7
100
AcDbLine
 10
332.238397
 20
714.199999
 30
0.0
 11
330.738397
 21
714.199999
 31
0.0
  0
LINE
  5
1302
100
AcDbEntity
  8
10000_FRONT
370
    25
390
0
  6
CONTINUOUS
 62
     7
100
AcDbLine
 10
332.238397
 20
714.199999
 30
0.0
 11
332.238397
 21
714.4
 31
0.0
  0
LINE
  5
1303
100
AcDbEntity
  8
10000_FRONT
370
    25
390
0
  6
CONTINUOUS
 62
     7
100
AcDbLine
 10
334.338397
 20
714.199999
 30
0.0
 11
334.338397
 21
714.4
 31
0.0
  0
LINE
  5
1304
100
AcDbEntity
  8
10000_FRONT
370
    25
390
0
  6
CONTINUOUS
 62
     7
100
AcDbLine
 10
334.338397
 20
714.199999
 30
0.0
 11
332.238397
 21
714.199999
 31
0.0
  0
LINE
  5
1305
100
AcDbEntity
  8
10000_FRONT
370
    25
390
0
  6
CONTINUOUS
 62
     7
100
AcDbLine
 10
335.838397
 20
714.199999
 30
0.0
 11
334.338397
 21
714.199999
 31
0.0
  0
LINE
  5
1306
100
AcDbEntity
  8
10000_FRONT
370
    25
390
0
  6
CONTINUOUS
 62
     7
100
AcDbLine
 10
335.838397
 20
714.199999
 30
0.0
 11
335.838397
 21
714.4
 31
0.0
  0
LINE
  5
1307
100
AcDbEntity
  8
10000_FRONT
370
    25
390
0
  6
CONTINUOUS
 62
     7
100
AcDbLine
 10
337.938397
 20
714.199999
 30
0.0
 11
337.938397
 21
714.4
 31
0.0
  0
LINE
  5
1308
100
AcDbEntity
  8
10000_FRONT
370
    25
390
0
  6
CONTINUOUS
 62
     7
100
AcDbLine
 10
337.938397
 20
714.199999
 30
0.0
 11
335.838397
 21
714.199999
 31
0.0
  0
LINE
  5
1309
100
AcDbEntity
  8
10000_FRONT
370
    25
390
0
  6
CONTINUOUS
 62
     7
100
AcDbLine
 10
339.438397
 20
714.199999
 30
0.0
 11
337.938397
 21
714.199999
 31
0.0
  0
LINE
  5
130A
100
AcDbEntity
  8
10000_FRONT
370
    25
390
0
  6
CONTINUOUS
 62
     7
100
AcDbLine
 10
339.438397
 20
714.199999
 30
0.0
 11
339.438397
 21
714.4
 31
0.0
  0
LINE
  5
130B
100
AcDbEntity
  8
10000_FRONT
370
    25
390
0
  6
CONTINUOUS
 62
     7
100
AcDbLine
 10
341.538397
 20
714.199999
 30
0.0
 11
341.538397
 21
714.4
 31
0.0
  0
LINE
  5
130C
100
AcDbEntity
  8
10000_FRONT
370
    25
390
0
  6
CONTINUOUS
 62
     7
100
AcDbLine
 10
341.538397
 20
714.199999
 30
0.0
 11
339.438397
 21
714.199999
 31
0.0
  0
LINE
  5
130D
100
AcDbEntity
  8
10000_FRONT
370
    25
390
0
  6
CONTINUOUS
 62
     7
100
AcDbLine
 10
343.038397
 20
714.199999
 30
0.0
 11
341.538397
 21
714.199999
 31
0.0
  0
LINE
  5
130E
100
AcDbEntity
  8
10000_FRONT
370
    25
390
0
  6
CONTINUOUS
 62
     7
100
AcDbLine
 10
343.038397
 20
714.199999
 30
0.0
 11
343.038397
 21
714.4
 31
0.0
  0
LINE
  5
130F
100
AcDbEntity
  8
10000_FRONT
370
    25
390
0
  6
CONTINUOUS
 62
     7
100
AcDbLine
 10
345.138397
 20
714.199999
 30
0.0
 11
345.138397
 21
714.4
 31
0.0
  0
LINE
  5
1310
100
AcDbEntity
  8
10000_FRONT
370
    25
390
0
  6
CONTINUOUS
 62
     7
100
AcDbLine
 10
345.138397
 20
714.199999
 30
0.0
 11
343.038397
 21
714.199999
 31
0.0
  0
LINE
  5
1311
100
AcDbEntity
  8
10000_FRONT
370
    25
390
0
  6
CONTINUOUS
 62
     7
100
AcDbLine
 10
346.638398
 20
714.199999
 30
0.0
 11
345.138397
 21
714.199999
 31
0.0
  0
LINE
  5
1312
100
AcDbEntity
  8
10000_FRONT
370
    25
390
0
  6
CONTINUOUS
 62
     7
100
AcDbLine
 10
346.638398
 20
714.199999
 30
0.0
 11
346.638398
 21
714.4
 31
0.0
  0
LINE
  5
1313
100
AcDbEntity
  8
10000_FRONT
370
    25
390
0
  6
CONTINUOUS
 62
     7
100
AcDbLine
 10
348.738396
 20
714.199999
 30
0.0
 11
348.738396
 21
714.4
 31
0.0
  0
LINE
  5
1314
100
AcDbEntity
  8
10000_FRONT
370
    25
390
0
  6
CONTINUOUS
 62
     7
100
AcDbLine
 10
348.738396
 20
714.199999
 30
0.0
 11
346.638398
 21
714.199999
 31
0.0
  0
LINE
  5
1315
100
AcDbEntity
  8
10000_FRONT
370
    25
390
0
  6
CONTINUOUS
 62
     7
100
AcDbLine
 10
350.238396
 20
714.199999
 30
0.0
 11
348.738396
 21
714.199999
 31
0.0
  0
LINE
  5
1316
100
AcDbEntity
  8
10000_FRONT
370
    25
390
0
  6
CONTINUOUS
 62
     7
100
AcDbLine
 10
350.238396
 20
714.199999
 30
0.0
 11
350.238396
 21
714.4
 31
0.0
  0
LINE
  5
1317
100
AcDbEntity
  8
10000_FRONT
370
    25
390
0
  6
CONTINUOUS
 62
     7
100
AcDbLine
 10
352.338397
 20
714.199999
 30
0.0
 11
352.338397
 21
714.4
 31
0.0
  0
LINE
  5
1318
100
AcDbEntity
  8
10000_FRONT
370
    25
390
0
  6
CONTINUOUS
 62
     7
100
AcDbLine
 10
352.338397
 20
714.199999
 30
0.0
 11
350.238396
 21
714.199999
 31
0.0
  0
LINE
  5
1319
100
AcDbEntity
  8
10000_FRONT
370
    25
390
0
  6
CONTINUOUS
 62
     7
100
AcDbLine
 10
353.838397
 20
714.199999
 30
0.0
 11
352.338397
 21
714.199999
 31
0.0
  0
LINE
  5
131A
100
AcDbEntity
  8
10000_FRONT
370
    25
390
0
  6
CONTINUOUS
 62
     7
100
AcDbLine
 10
353.838397
 20
714.199999
 30
0.0
 11
353.838397
 21
714.4
 31
0.0
  0
LINE
  5
131B
100
AcDbEntity
  8
10000_FRONT
370
    25
390
0
  6
CONTINUOUS
 62
     7
100
AcDbLine
 10
355.938397
 20
714.199999
 30
0.0
 11
355.938397
 21
714.4
 31
0.0
  0
LINE
  5
131C
100
AcDbEntity
  8
10000_FRONT
370
    25
390
0
  6
CONTINUOUS
 62
     7
100
AcDbLine
 10
355.938397
 20
714.199999
 30
0.0
 11
353.838397
 21
714.199999
 31
0.0
  0
LINE
  5
131D
100
AcDbEntity
  8
10000_FRONT
370
    25
390
0
  6
CONTINUOUS
 62
     7
100
AcDbLine
 10
357.188397
 20
714.199999
 30
0.0
 11
355.938397
 21
714.199999
 31
0.0
  0
LINE
  5
131E
100
AcDbEntity
  8
10000_FRONT
370
    25
390
0
  6
CONTINUOUS
 62
     7
100
AcDbLine
 10
357.188397
 20
714.199999
 30
0.0
 11
357.188397
 21
714.4
 31
0.0
  0
ARC
  5
131F
100
AcDbEntity
  8
10000_FRONT
370
    25
390
0
  6
CONTINUOUS
 62
     7
100
AcDbCircle
 10
312.188397
 20
829.3
 30
0.0
 40
4.0
100
AcDbArc
 50
180.0
 51
0.0
  0
ARC
  5
1320
100
AcDbEntity
  8
10000_FRONT
370
    25
390
0
  6
CONTINUOUS
 62
     7
100
AcDbCircle
 10
312.188397
 20
708.6
 30
0.0
 40
4.0
100
AcDbArc
 50
180.0
 51
0.0
  0
ARC
  5
1321
100
AcDbEntity
  8
10000_FRONT
370
    25
390
0
  6
CONTINUOUS
 62
     7
100
AcDbCircle
 10
329.688397
 20
829.3
 30
0.0
 40
4.0
100
AcDbArc
 50
180.0
 51
0.0
  0
ARC
  5
1322
100
AcDbEntity
  8
10000_FRONT
370
    25
390
0
  6
CONTINUOUS
 62
     7
100
AcDbCircle
 10
329.688397
 20
708.6
 30
0.0
 40
4.0
100
AcDbArc
 50
180.0
 51
0.0
  0
ARC
  5
1323
100
AcDbEntity
  8
10000_FRONT
370
    25
390
0
  6
CONTINUOUS
 62
     7
100
AcDbCircle
 10
347.188397
 20
829.3
 30
0.0
 40
4.0
100
AcDbArc
 50
180.0
 51
0.0
  0
ARC
  5
1324
100
AcDbEntity
  8
10000_FRONT
370
    25
390
0
  6
CONTINUOUS
 62
     7
100
AcDbCircle
 10
347.188397
 20
708.6
 30
0.0
 40
4.0
100
AcDbArc
 50
180.0
 51
0.0
  0
LINE
  5
1325
100
AcDbEntity
  8
10000_FRONT
370
    25
390
0
  6
CONTINUOUS
 62
     7
100
AcDbLine
 10
324.788397
 20
819.699999
 30
0.0
 11
324.688418
 21
819.699999
 31
0.0
  0
LINE
  5
1326
100
AcDbEntity
  8
10000_FRONT
370
    25
390
0
  6
CONTINUOUS
 62
     7
100
AcDbLine
 10
322.588397
 20
810.199999
 30
0.0
 11
302.188397
 21
810.199999
 31
0.0
  0
LINE
  5
1327
100
AcDbEntity
  8
10000_FRONT
370
    25
390
0
  6
CONTINUOUS
 62
     7
100
AcDbLine
 10
334.588397
 20
823.199999
 30
0.0
 11
334.188397
 21
823.199999
 31
0.0
  0
LINE
  5
1328
100
AcDbEntity
  8
10000_FRONT
370
    25
390
0
  6
CONTINUOUS
 62
     7
100
AcDbLine
 10
334.588397
 20
823.199999
 30
0.0
 11
334.688418
 21
823.199999
 31
0.0
  0
LINE
  5
1329
100
AcDbEntity
  8
10000_FRONT
370
    25
390
0
  6
CONTINUOUS
 62
     7
100
AcDbLine
 10
334.588397
 20
822.999998
 30
0.0
 11
334.588397
 21
823.199999
 31
0.0
  0
LINE
  5
132A
100
AcDbEntity
  8
10000_FRONT
370
    25
390
0
  6
CONTINUOUS
 62
     7
100
AcDbLine
 10
334.588397
 20
815.199999
 30
0.0
 11
332.238397
 21
815.199999
 31
0.0
  0
LINE
  5
132B
100
AcDbEntity
  8
10000_FRONT
370
    25
390
0
  6
CONTINUOUS
 62
     7
100
AcDbLine
 10
334.588397
 20
814.300002
 30
0.0
 11
334.588397
 21
815.199999
 31
0.0
  0
LINE
  5
132C
100
AcDbEntity
  8
10000_FRONT
370
    25
390
0
  6
CONTINUOUS
 62
     7
100
AcDbLine
 10
334.688418
 20
819.699999
 30
0.0
 11
334.588397
 21
819.699999
 31
0.0
  0
LINE
  5
132D
100
AcDbEntity
  8
10000_FRONT
370
    25
390
0
  6
CONTINUOUS
 62
     7
100
AcDbLine
 10
357.188397
 20
802.199999
 30
0.0
 11
357.188397
 21
787.699999
 31
0.0
  0
LINE
  5
132E
100
AcDbEntity
  8
10000_FRONT
370
    25
390
0
  6
CONTINUOUS
 62
     7
100
AcDbLine
 10
357.188397
 20
742.699999
 30
0.0
 11
357.188397
 21
787.699999
 31
0.0
  0
LINE
  5
132F
100
AcDbEntity
  8
10000_FRONT
370
    25
390
0
  6
CONTINUOUS
 62
     7
100
AcDbLine
 10
357.188397
 20
714.199999
 30
0.0
 11
357.188397
 21
699.200003
 31
0.0
  0
LINE
  5
1330
100
AcDbEntity
  8
10000_FRONT
370
    25
390
0
  6
CONTINUOUS
 62
     7
100
AcDbLine
 10
357.188397
 20
839.200003
 30
0.0
 11
357.188397
 21
824.4
 31
0.0
  0
LINE
  5
1331
100
AcDbEntity
  8
10000_FRONT
370
    25
390
0
  6
CONTINUOUS
 62
     7
100
AcDbLine
 10
357.188397
 20
824.4
 30
0.0
 11
357.188397
 21
824.199999
 31
0.0
  0
LINE
  5
1332
100
AcDbEntity
  8
10000_FRONT
370
    25
390
0
  6
CONTINUOUS
 62
     7
100
AcDbLine
 10
357.188397
 20
824.199999
 30
0.0
 11
357.188397
 21
824.002905
 31
0.0
  0
LINE
  5
1333
100
AcDbEntity
  8
10000_FRONT
370
    25
390
0
  6
CONTINUOUS
 62
     7
100
AcDbLine
 10
357.188397
 20
839.200003
 30
0.0
 11
302.188397
 21
839.200003
 31
0.0
  0
LINE
  5
1334
100
AcDbEntity
  8
10000_FRONT
370
    25
390
0
  6
CONTINUOUS
 62
     7
100
AcDbLine
 10
357.188397
 20
824.4
 30
0.0
 11
302.188397
 21
824.4
 31
0.0
  0
LINE
  5
1335
100
AcDbEntity
  8
10000_FRONT
370
    25
390
0
  6
CONTINUOUS
 62
     7
100
AcDbLine
 10
357.188397
 20
824.199999
 30
0.0
 11
356.99128
 21
824.199999
 31
0.0
  0
LINE
  5
1336
100
AcDbEntity
  8
10000_FRONT
370
    25
390
0
  6
CONTINUOUS
 62
     7
100
AcDbLine
 10
355.338418
 20
824.199999
 30
0.0
 11
350.938418
 21
824.199999
 31
0.0
  0
LINE
  5
1337
100
AcDbEntity
  8
10000_FRONT
370
    25
390
0
  6
CONTINUOUS
 62
     7
100
AcDbLine
 10
348.138419
 20
824.199999
 30
0.0
 11
343.738418
 21
824.199999
 31
0.0
  0
LINE
  5
1338
100
AcDbEntity
  8
10000_FRONT
370
    25
390
0
  6
CONTINUOUS
 62
     7
100
AcDbLine
 10
340.938418
 20
824.199999
 30
0.0
 11
336.538418
 21
824.199999
 31
0.0
  0
LINE
  5
1339
100
AcDbEntity
  8
10000_FRONT
370
    25
390
0
  6
CONTINUOUS
 62
     7
100
AcDbLine
 10
334.885556
 20
824.199999
 30
0.0
 11
332.238397
 21
824.199999
 31
0.0
  0
LINE
  5
133A
100
AcDbEntity
  8
10000_FRONT
370
    25
390
0
  6
CONTINUOUS
 62
     7
100
AcDbLine
 10
357.188397
 20
787.699999
 30
0.0
 11
302.188397
 21
787.699999
 31
0.0
  0
LINE
  5
133B
100
AcDbEntity
  8
10000_FRONT
370
    25
390
0
  6
CONTINUOUS
 62
     7
100
AcDbLine
 10
357.188397
 20
699.200003
 30
0.0
 11
302.188397
 21
699.200003
 31
0.0
  0
LINE
  5
133C
100
AcDbEntity
  8
10000_FRONT
370
    25
390
0
  6
CONTINUOUS
 62
     7
100
AcDbLine
 10
357.188397
 20
699.200056
 30
0.0
 11
357.188397
 21
689.249998
 31
0.0
  0
LINE
  5
133D
100
AcDbEntity
  8
10000_FRONT
370
    25
390
0
  6
CONTINUOUS
 62
     7
100
AcDbLine
 10
357.188397
 20
849.249998
 30
0.0
 11
357.188397
 21
839.249998
 31
0.0
  0
LINE
  5
133E
100
AcDbEntity
  8
10000_FRONT
370
    25
390
0
  6
CONTINUOUS
 62
     7
100
AcDbLine
 10
357.188397
 20
839.249998
 30
0.0
 11
357.188397
 21
839.200041
 31
0.0
  0
ARC
  5
133F
100
AcDbEntity
  8
10000_FRONT
370
    25
390
0
  6
CONTINUOUS
 62
     7
100
AcDbCircle
 10
314.188397
 20
694.2
 30
0.0
 40
2.5
100
AcDbArc
 50
0.00007
 51
179.99993
  0
LINE
  5
1340
100
AcDbEntity
  8
10000_FRONT
370
    25
390
0
  6
CONTINUOUS
 62
     7
100
AcDbLine
 10
348.288397
 20
689.249998
 30
0.0
 11
348.288397
 21
697.200034
 31
0.0
  0
LINE
  5
1341
100
AcDbEntity
  8
10000_FRONT
370
    25
390
0
  6
CONTINUOUS
 62
     7
100
AcDbLine
 10
357.188397
 20
689.249998
 30
0.0
 11
348.288397
 21
689.249998
 31
0.0
  0
LINE
  5
1342
100
AcDbEntity
  8
10000_FRONT
370
    25
390
0
  6
CONTINUOUS
 62
     7
100
AcDbLine
 10
348.288397
 20
689.249998
 30
0.0
 11
302.188397
 21
689.249998
 31
0.0
  0
LINE
  5
1343
100
AcDbEntity
  8
10000_FRONT
370
    25
390
0
  6
CONTINUOUS
 62
     7
100
AcDbLine
 10
302.188397
 20
712.949999
 30
0.0
 11
302.188397
 21
689.249998
 31
0.0
  0
ARC
  5
1344
100
AcDbEntity
  8
10000_FRONT
370
    25
390
0
  6
CONTINUOUS
 62
     7
100
AcDbCircle
 10
314.188397
 20
694.2
 30
0.0
 40
2.5
100
AcDbArc
 50
179.99993
 51
0.00007
  0
ARC
  5
1345
100
AcDbEntity
  8
10000_FRONT
370
    25
390
0
  6
CONTINUOUS
 62
     7
100
AcDbCircle
 10
344.188397
 20
844.2
 30
0.0
 40
2.5
100
AcDbArc
 50
219.791869
 51
320.208117
  0
ARC
  5
1346
100
AcDbEntity
  8
10000_FRONT
370
    25
390
0
  6
CONTINUOUS
 62
     7
100
AcDbCircle
 10
344.188397
 20
844.2
 30
0.0
 40
2.5
100
AcDbArc
 50
2.292478
 51
177.707522
  0
LINE
  5
1347
100
AcDbEntity
  8
10000_FRONT
370
    25
390
0
  6
CONTINUOUS
 62
     7
100
AcDbLine
 10
341.688406
 20
844.206473
 30
0.0
 11
341.688416
 21
844.2097
 31
0.0
  0
LINE
  5
1348
100
AcDbEntity
  8
10000_FRONT
370
    25
390
0
  6
CONTINUOUS
 62
     7
100
AcDbLine
 10
341.688416
 20
844.2097
 30
0.0
 11
341.688434
 21
844.213522
 31
0.0
  0
LINE
  5
1349
100
AcDbEntity
  8
10000_FRONT
370
    25
390
0
  6
CONTINUOUS
 62
     7
100
AcDbLine
 10
341.688434
 20
844.213522
 30
0.0
 11
341.688462
 21
844.217886
 31
0.0
  0
LINE
  5
134A
100
AcDbEntity
  8
10000_FRONT
370
    25
390
0
  6
CONTINUOUS
 62
     7
100
AcDbLine
 10
341.688462
 20
844.217886
 30
0.0
 11
341.6885
 21
844.222716
 31
0.0
  0
LINE
  5
134B
100
AcDbEntity
  8
10000_FRONT
370
    25
390
0
  6
CONTINUOUS
 62
     7
100
AcDbLine
 10
341.6885
 20
844.222716
 30
0.0
 11
341.688553
 21
844.227934
 31
0.0
  0
LINE
  5
134C
100
AcDbEntity
  8
10000_FRONT
370
    25
390
0
  6
CONTINUOUS
 62
     7
100
AcDbLine
 10
341.688553
 20
844.227934
 30
0.0
 11
341.688622
 21
844.233557
 31
0.0
  0
LINE
  5
134D
100
AcDbEntity
  8
10000_FRONT
370
    25
390
0
  6
CONTINUOUS
 62
     7
100
AcDbLine
 10
341.688622
 20
844.233557
 30
0.0
 11
341.688713
 21
844.239714
 31
0.0
  0
LINE
  5
134E
100
AcDbEntity
  8
10000_FRONT
370
    25
390
0
  6
CONTINUOUS
 62
     7
100
AcDbLine
 10
341.688713
 20
844.239714
 30
0.0
 11
341.688827
 21
844.246352
 31
0.0
  0
LINE
  5
134F
100
AcDbEntity
  8
10000_FRONT
370
    25
390
0
  6
CONTINUOUS
 62
     7
100
AcDbLine
 10
341.688827
 20
844.246352
 30
0.0
 11
341.688967
 21
844.253401
 31
0.0
  0
LINE
  5
1350
100
AcDbEntity
  8
10000_FRONT
370
    25
390
0
  6
CONTINUOUS
 62
     7
100
AcDbLine
 10
341.688967
 20
844.253401
 30
0.0
 11
341.689136
 21
844.260794
 31
0.0
  0
LINE
  5
1351
100
AcDbEntity
  8
10000_FRONT
370
    25
390
0
  6
CONTINUOUS
 62
     7
100
AcDbLine
 10
341.689136
 20
844.260794
 30
0.0
 11
341.689335
 21
844.268469
 31
0.0
  0
LINE
  5
1352
100
AcDbEntity
  8
10000_FRONT
370
    25
390
0
  6
CONTINUOUS
 62
     7
100
AcDbLine
 10
341.689335
 20
844.268469
 30
0.0
 11
341.689564
 21
844.27632
 31
0.0
  0
LINE
  5
1353
100
AcDbEntity
  8
10000_FRONT
370
    25
390
0
  6
CONTINUOUS
 62
     7
100
AcDbLine
 10
341.689564
 20
844.27632
 30
0.0
 11
341.689819
 21
844.284262
 31
0.0
  0
LINE
  5
1354
100
AcDbEntity
  8
10000_FRONT
370
    25
390
0
  6
CONTINUOUS
 62
     7
100
AcDbLine
 10
341.689819
 20
844.284262
 30
0.0
 11
341.690098
 21
844.292189
 31
0.0
  0
LINE
  5
1355
100
AcDbEntity
  8
10000_FRONT
370
    25
390
0
  6
CONTINUOUS
 62
     7
100
AcDbLine
 10
341.690098
 20
844.292189
 30
0.0
 11
341.690398
 21
844.300002
 31
0.0
  0
ARC
  5
1356
100
AcDbEntity
  8
10000_FRONT
370
    25
390
0
  6
CONTINUOUS
 62
     7
100
AcDbCircle
 10
344.188397
 20
844.2
 30
0.0
 40
2.5
100
AcDbArc
 50
179.851655
 51
179.99993
  0
ARC
  5
1357
100
AcDbEntity
  8
10000_FRONT
370
    25
390
0
  6
CONTINUOUS
 62
     7
100
AcDbCircle
 10
344.188397
 20
844.2
 30
0.0
 40
2.5
100
AcDbArc
 50
0.00007
 51
0.148345
  0
LINE
  5
1358
100
AcDbEntity
  8
10000_FRONT
370
    25
390
0
  6
CONTINUOUS
 62
     7
100
AcDbLine
 10
346.686396
 20
844.300002
 30
0.0
 11
346.686696
 21
844.292189
 31
0.0
  0
LINE
  5
1359
100
AcDbEntity
  8
10000_FRONT
370
    25
390
0
  6
CONTINUOUS
 62
     7
100
AcDbLine
 10
346.686696
 20
844.292189
 30
0.0
 11
346.686974
 21
844.284262
 31
0.0
  0
LINE
  5
135A
100
AcDbEntity
  8
10000_FRONT
370
    25
390
0
  6
CONTINUOUS
 62
     7
100
AcDbLine
 10
346.686974
 20
844.284262
 30
0.0
 11
346.68723
 21
844.27632
 31
0.0
  0
LINE
  5
135B
100
AcDbEntity
  8
10000_FRONT
370
    25
390
0
  6
CONTINUOUS
 62
     7
100
AcDbLine
 10
346.68723
 20
844.27632
 30
0.0
 11
346.687459
 21
844.268469
 31
0.0
  0
LINE
  5
135C
100
AcDbEntity
  8
10000_FRONT
370
    25
390
0
  6
CONTINUOUS
 62
     7
100
AcDbLine
 10
346.687459
 20
844.268469
 30
0.0
 11
346.687657
 21
844.260794
 31
0.0
  0
LINE
  5
135D
100
AcDbEntity
  8
10000_FRONT
370
    25
390
0
  6
CONTINUOUS
 62
     7
100
AcDbLine
 10
346.687657
 20
844.260794
 30
0.0
 11
346.687827
 21
844.253401
 31
0.0
  0
LINE
  5
135E
100
AcDbEntity
  8
10000_FRONT
370
    25
390
0
  6
CONTINUOUS
 62
     7
100
AcDbLine
 10
346.687827
 20
844.253401
 30
0.0
 11
346.687966
 21
844.246352
 31
0.0
  0
LINE
  5
135F
100
AcDbEntity
  8
10000_FRONT
370
    25
390
0
  6
CONTINUOUS
 62
     7
100
AcDbLine
 10
346.687966
 20
844.246352
 30
0.0
 11
346.68808
 21
844.239714
 31
0.0
  0
LINE
  5
1360
100
AcDbEntity
  8
10000_FRONT
370
    25
390
0
  6
CONTINUOUS
 62
     7
100
AcDbLine
 10
346.68808
 20
844.239714
 30
0.0
 11
346.688172
 21
844.233557
 31
0.0
  0
LINE
  5
1361
100
AcDbEntity
  8
10000_FRONT
370
    25
390
0
  6
CONTINUOUS
 62
     7
100
AcDbLine
 10
346.688172
 20
844.233557
 30
0.0
 11
346.688241
 21
844.227934
 31
0.0
  0
LINE
  5
1362
100
AcDbEntity
  8
10000_FRONT
370
    25
390
0
  6
CONTINUOUS
 62
     7
100
AcDbLine
 10
346.688241
 20
844.227934
 30
0.0
 11
346.688294
 21
844.222716
 31
0.0
  0
LINE
  5
1363
100
AcDbEntity
  8
10000_FRONT
370
    25
390
0
  6
CONTINUOUS
 62
     7
100
AcDbLine
 10
346.688294
 20
844.222716
 30
0.0
 11
346.688332
 21
844.217886
 31
0.0
  0
LINE
  5
1364
100
AcDbEntity
  8
10000_FRONT
370
    25
390
0
  6
CONTINUOUS
 62
     7
100
AcDbLine
 10
346.688332
 20
844.217886
 30
0.0
 11
346.688361
 21
844.213522
 31
0.0
  0
LINE
  5
1365
100
AcDbEntity
  8
10000_FRONT
370
    25
390
0
  6
CONTINUOUS
 62
     7
100
AcDbLine
 10
346.688361
 20
844.213522
 30
0.0
 11
346.688378
 21
844.2097
 31
0.0
  0
LINE
  5
1366
100
AcDbEntity
  8
10000_FRONT
370
    25
390
0
  6
CONTINUOUS
 62
     7
100
AcDbLine
 10
346.688378
 20
844.2097
 30
0.0
 11
346.688389
 21
844.206473
 31
0.0
  0
LINE
  5
1367
100
AcDbEntity
  8
10000_FRONT
370
    25
390
0
  6
CONTINUOUS
 62
     7
100
AcDbLine
 10
341.690398
 20
844.300002
 30
0.0
 11
341.688397
 21
844.300002
 31
0.0
  0
LINE
  5
1368
100
AcDbEntity
  8
10000_FRONT
370
    25
390
0
  6
CONTINUOUS
 62
     7
100
AcDbLine
 10
346.688397
 20
844.300002
 30
0.0
 11
346.686396
 21
844.300002
 31
0.0
  0
LINE
  5
1369
100
AcDbEntity
  8
10000_FRONT
370
    25
390
0
  6
CONTINUOUS
 62
     7
100
AcDbLine
 10
346.688397
 20
844.300002
 30
0.0
 11
346.688397
 21
847.099997
 31
0.0
  0
LINE
  5
136A
100
AcDbEntity
  8
10000_FRONT
370
    25
390
0
  6
CONTINUOUS
 62
     7
100
AcDbLine
 10
346.688397
 20
847.099997
 30
0.0
 11
341.688397
 21
847.099997
 31
0.0
  0
LINE
  5
136B
100
AcDbEntity
  8
10000_FRONT
370
    25
390
0
  6
CONTINUOUS
 62
     7
100
AcDbLine
 10
341.688397
 20
847.099997
 30
0.0
 11
341.688397
 21
844.300002
 31
0.0
  0
LINE
  5
136C
100
AcDbEntity
  8
10000_FRONT
370
    25
390
0
  6
CONTINUOUS
 62
     7
100
AcDbLine
 10
346.688397
 20
844.206473
 30
0.0
 11
346.688397
 21
844.300002
 31
0.0
  0
LINE
  5
136D
100
AcDbEntity
  8
10000_FRONT
370
    25
390
0
  6
CONTINUOUS
 62
     7
100
AcDbLine
 10
341.688397
 20
844.206473
 30
0.0
 11
341.688397
 21
844.300002
 31
0.0
  0
LINE
  5
136E
100
AcDbEntity
  8
10000_FRONT
370
    25
390
0
  6
CONTINUOUS
 62
     7
100
AcDbLine
 10
346.688397
 20
844.206473
 30
0.0
 11
346.688397
 21
844.200003
 31
0.0
  0
LINE
  5
136F
100
AcDbEntity
  8
10000_FRONT
370
    25
390
0
  6
CONTINUOUS
 62
     7
100
AcDbLine
 10
346.688397
 20
844.200003
 30
0.0
 11
355.188397
 21
844.200003
 31
0.0
  0
LINE
  5
1370
100
AcDbEntity
  8
10000_FRONT
370
    25
390
0
  6
CONTINUOUS
 62
     7
100
AcDbLine
 10
357.188397
 20
849.249998
 30
0.0
 11
302.188397
 21
849.249998
 31
0.0
  0
LINE
  5
1371
100
AcDbEntity
  8
10000_FRONT
370
    25
390
0
  6
CONTINUOUS
 62
     7
100
AcDbLine
 10
302.188397
 20
849.249998
 30
0.0
 11
302.188397
 21
839.249998
 31
0.0
  0
LINE
  5
1372
100
AcDbEntity
  8
10000_FRONT
370
    25
390
0
  6
CONTINUOUS
 62
     7
100
AcDbLine
 10
355.188397
 20
842.599997
 30
0.0
 11
346.109334
 21
842.599997
 31
0.0
  0
LINE
  5
1373
100
AcDbEntity
  8
10000_FRONT
370
    25
390
0
  6
CONTINUOUS
 62
     7
100
AcDbLine
 10
342.267459
 20
842.599997
 30
0.0
 11
333.188397
 21
842.599997
 31
0.0
  0
LINE
  5
1374
100
AcDbEntity
  8
10000_FRONT
370
    25
390
0
  6
CONTINUOUS
 62
     7
100
AcDbLine
 10
333.188397
 20
842.599997
 30
0.0
 11
333.188397
 21
846.599997
 31
0.0
  0
LINE
  5
1375
100
AcDbEntity
  8
10000_FRONT
370
    25
390
0
  6
CONTINUOUS
 62
     7
100
AcDbLine
 10
333.188397
 20
846.599997
 30
0.0
 11
338.188397
 21
846.599997
 31
0.0
  0
LINE
  5
1376
100
AcDbEntity
  8
10000_FRONT
370
    25
390
0
  6
CONTINUOUS
 62
     7
100
AcDbLine
 10
338.188397
 20
846.599997
 30
0.0
 11
338.188397
 21
847.200003
 31
0.0
  0
LINE
  5
1377
100
AcDbEntity
  8
10000_FRONT
370
    25
390
0
  6
CONTINUOUS
 62
     7
100
AcDbLine
 10
338.188397
 20
847.200003
 30
0.0
 11
341.688397
 21
847.200003
 31
0.0
  0
LINE
  5
1378
100
AcDbEntity
  8
10000_FRONT
370
    25
390
0
  6
CONTINUOUS
 62
     7
100
AcDbLine
 10
346.688397
 20
847.200003
 30
0.0
 11
350.188397
 21
847.200003
 31
0.0
  0
LINE
  5
1379
100
AcDbEntity
  8
10000_FRONT
370
    25
390
0
  6
CONTINUOUS
 62
     7
100
AcDbLine
 10
350.188397
 20
847.200003
 30
0.0
 11
350.188397
 21
846.599997
 31
0.0
  0
LINE
  5
137A
100
AcDbEntity
  8
10000_FRONT
370
    25
390
0
  6
CONTINUOUS
 62
     7
100
AcDbLine
 10
350.188397
 20
846.599997
 30
0.0
 11
355.188397
 21
846.599997
 31
0.0
  0
LINE
  5
137B
100
AcDbEntity
  8
10000_FRONT
370
    25
390
0
  6
CONTINUOUS
 62
     7
100
AcDbLine
 10
355.188397
 20
846.599997
 30
0.0
 11
355.188397
 21
842.599997
 31
0.0
  0
LINE
  5
137C
100
AcDbEntity
  8
10000_FRONT
370
    25
390
0
  6
CONTINUOUS
 62
     7
100
AcDbLine
 10
346.688397
 20
847.200003
 30
0.0
 11
341.688397
 21
847.200003
 31
0.0
  0
LINE
  5
137D
100
AcDbEntity
  8
10000_FRONT
370
    25
390
0
  6
CONTINUOUS
 62
     7
100
AcDbLine
 10
346.688397
 20
847.099997
 30
0.0
 11
346.688397
 21
847.200003
 31
0.0
  0
LINE
  5
137E
100
AcDbEntity
  8
10000_FRONT
370
    25
390
0
  6
CONTINUOUS
 62
     7
100
AcDbLine
 10
341.688397
 20
847.099997
 30
0.0
 11
341.688397
 21
847.200003
 31
0.0
  0
LINE
  5
137F
100
AcDbEntity
  8
10000_FRONT
370
    25
390
0
  6
CONTINUOUS
 62
     7
100
AcDbLine
 10
346.688397
 20
845.200003
 30
0.0
 11
355.188397
 21
845.200003
 31
0.0
  0
LINE
  5
1380
100
AcDbEntity
  8
10000_FRONT
370
    25
390
0
  6
CONTINUOUS
 62
     7
100
AcDbLine
 10
333.188397
 20
845.200003
 30
0.0
 11
341.688397
 21
845.200003
 31
0.0
  0
LINE
  5
1381
100
AcDbEntity
  8
10000_FRONT
370
    25
390
0
  6
CONTINUOUS
 62
     7
100
AcDbLine
 10
333.188397
 20
844.200003
 30
0.0
 11
341.688397
 21
844.200003
 31
0.0
  0
LINE
  5
1382
100
AcDbEntity
  8
10000_FRONT
370
    25
390
0
  6
CONTINUOUS
 62
     7
100
AcDbLine
 10
341.688397
 20
844.206473
 30
0.0
 11
341.688397
 21
844.200003
 31
0.0
  0
LINE
  5
1383
100
AcDbEntity
  8
10000_FRONT
370
    25
390
0
  6
CONTINUOUS
 62
     7
100
AcDbLine
 10
357.188397
 20
839.249998
 30
0.0
 11
355.438416
 21
839.249998
 31
0.0
  0
LINE
  5
1384
100
AcDbEntity
  8
10000_FRONT
370
    25
390
0
  6
CONTINUOUS
 62
     7
100
AcDbLine
 10
340.738416
 20
839.249998
 30
0.0
 11
336.138416
 21
839.249998
 31
0.0
  0
LINE
  5
1385
100
AcDbEntity
  8
10000_FRONT
370
    25
390
0
  6
CONTINUOUS
 62
     7
100
AcDbLine
 10
323.238416
 20
839.249998
 30
0.0
 11
318.638417
 21
839.249998
 31
0.0
  0
LINE
  5
1386
100
AcDbEntity
  8
10000_FRONT
370
    25
390
0
  6
CONTINUOUS
 62
     7
100
AcDbLine
 10
303.938416
 20
839.249998
 30
0.0
 11
302.188397
 21
839.249998
 31
0.0
  0
LINE
  5
1387
100
AcDbEntity
  8
10000_FRONT
370
    25
390
0
  6
CONTINUOUS
 62
     7
100
AcDbLine
 10
302.188397
 20
839.249998
 30
0.0
 11
302.188397
 21
824.949999
 31
0.0
  0
LINE
  5
1388
100
AcDbEntity
  8
10000_FRONT
370
    25
390
0
  6
CONTINUOUS
 62
     7
100
AcDbLine
 10
302.188397
 20
824.949999
 30
0.0
 11
302.188397
 21
824.000052
 31
0.0
  0
LINE
  5
1389
100
AcDbEntity
  8
10000_FRONT
370
    25
390
0
  6
CONTINUOUS
 62
     7
100
AcDbLine
 10
302.188397
 20
806.100027
 30
0.0
 11
302.188397
 21
713.449999
 31
0.0
  0
LINE
  5
138A
100
AcDbEntity
  8
10000_FRONT
370
    25
390
0
  6
CONTINUOUS
 62
     7
100
AcDbLine
 10
302.188397
 20
713.449999
 30
0.0
 11
302.188397
 21
712.949999
 31
0.0
  0
LINE
  5
138B
100
AcDbEntity
  8
10100_FRONT_DIM
370
    13
390
0
  6
CONTINUOUS
 62
     7
100
AcDbLine
 10
302.188397
 20
689.25
 30
0.0
 11
291.188387
 21
689.25
 31
0.0
  0
TEXT
  5
138C
100
AcDbEntity
  8
10100_FRONT_DIM
370
    13
390
0
  6
CONTINUOUS
 62
     7
100
AcDbText
 10
291.188387
 20
767.083333
 30
0.0
 40
2.0
  1
160
 50
90.0
 51
360.0
 72
     1
 11
291.188387
 21
769.25
 31
0.0
100
AcDbText
  0
LINE
  5
138D
100
AcDbEntity
  8
10100_FRONT_DIM
370
    13
390
0
  6
CONTINUOUS
 62
     7
100
AcDbLine
 10
292.188387
 20
689.25
 30
0.0
 11
292.188387
 21
849.25
 31
0.0
  0
LINE
  5
138E
100
AcDbEntity
  8
10100_FRONT_DIM
370
    13
390
0
  6
CONTINUOUS
 62
     7
100
AcDbLine
 10
291.188387
 20
849.25
 30
0.0
 11
302.188397
 21
849.25
 31
0.0
  0
LINE
  5
138F
100
AcDbEntity
  8
10100_FRONT_DIM
370
    13
390
0
  6
CONTINUOUS
 62
     7
100
AcDbLine
 10
302.188397
 20
849.25001
 30
0.0
 11
302.188397
 21
860.25001
 31
0.0
  0
TEXT
  5
1390
100
AcDbEntity
  8
10100_FRONT_DIM
370
    13
390
0
  6
CONTINUOUS
 62
     7
100
AcDbText
 10
328.02173
 20
860.25001
 30
0.0
 40
2.0
  1
55
 72
     1
 11
329.688397
 21
860.25001
 31
0.0
100
AcDbText
  0
LINE
  5
1391
100
AcDbEntity
  8
10100_FRONT_DIM
370
    13
390
0
  6
CONTINUOUS
 62
     7
100
AcDbLine
 10
302.188397
 20
859.25001
 30
0.0
 11
357.188397
 21
859.25001
 31
0.0
  0
LINE
  5
1392
100
AcDbEntity
  8
10100_FRONT_DIM
370
    13
390
0
  6
CONTINUOUS
 62
     7
100
AcDbLine
 10
357.188397
 20
860.25001
 30
0.0
 11
357.188397
 21
849.25001
 31
0.0
  0
SOLID
  5
1393
100
AcDbEntity
  8
10100_FRONT_DIM
370
    13
390
0
  6
CONTINUOUS
 62
     7
100
AcDbTrace
 10
291.188387
 20
694.25
 30
0.0
 11
292.188387
 21
689.25
 31
0.0
 12
293.188387
 22
694.25
 32
0.0
 13
292.188387
 23
689.25
 33
0.0
  0
SOLID
  5
1394
100
AcDbEntity
  8
10100_FRONT_DIM
370
    13
390
0
  6
CONTINUOUS
 62
     7
100
AcDbTrace
 10
293.188387
 20
844.25
 30
0.0
 11
292.188387
 21
849.25
 31
0.0
 12
291.188387
 22
844.25
 32
0.0
 13
292.188387
 23
849.25
 33
0.0
  0
SOLID
  5
1395
100
AcDbEntity
  8
10100_FRONT_DIM
370
    13
390
0
  6
CONTINUOUS
 62
     7
100
AcDbTrace
 10
307.188397
 20
860.25001
 30
0.0
 11
302.188397
 21
859.25001
 31
0.0
 12
307.188397
 22
858.25001
 32
0.0
 13
302.188397
 23
859.25001
 33
0.0
  0
SOLID
  5
1396
100
AcDbEntity
  8
10100_FRONT_DIM
370
    13
390
0
  6
CONTINUOUS
 62
     7
100
AcDbTrace
 10
352.188397
 20
858.25001
 30
0.0
 11
357.188397
 21
859.25001
 31
0.0
 12
352.188397
 22
860.25001
 32
0.0
 13
357.188397
 23
859.25001
 33
0.0
  0
LINE
  5
1397
100
AcDbEntity
  8
11000_LEFT
370
    25
390
0
  6
CONTINUOUS
 62
     7
100
AcDbLine
 10
491.588399
 20
699.200003
 30
0.0
 11
491.588399
 21
700.700003
 31
0.0
  0
LINE
  5
1398
100
AcDbEntity
  8
11000_LEFT
370
    25
390
0
  6
CONTINUOUS
 62
     7
100
AcDbLine
 10
491.588399
 20
713.249998
 30
0.0
 11
491.588399
 21
700.700003
 31
0.0
  0
LINE
  5
1399
100
AcDbEntity
  8
11000_LEFT
370
    25
390
0
  6
CONTINUOUS
 62
     7
100
AcDbLine
 10
543.9884
 20
699.200003
 30
0.0
 11
491.588399
 21
699.200003
 31
0.0
  0
LINE
  5
139A
100
AcDbEntity
  8
11000_LEFT
370
    25
390
0
  6
CONTINUOUS
 62
     7
100
AcDbLine
 10
518.788395
 20
697.200003
 30
0.0
 11
518.788395
 21
699.200003
 31
0.0
  0
LINE
  5
139B
100
AcDbEntity
  8
11000_LEFT
370
    25
390
0
  6
CONTINUOUS
 62
     7
100
AcDbLine
 10
506.288395
 20
699.200003
 30
0.0
 11
506.288395
 21
697.200003
 31
0.0
  0
LINE
  5
139C
100
AcDbEntity
  8
11000_LEFT
370
    25
390
0
  6
CONTINUOUS
 62
     7
100
AcDbLine
 10
506.288395
 20
697.200003
 30
0.0
 11
518.788395
 21
697.200003
 31
0.0
  0
LINE
  5
139D
100
AcDbEntity
  8
11000_LEFT
370
    25
390
0
  6
CONTINUOUS
 62
     7
100
AcDbLine
 10
543.9884
 20
713.449999
 30
0.0
 11
491.988396
 21
713.449999
 31
0.0
  0
LINE
  5
139E
100
AcDbEntity
  8
11000_LEFT
370
    25
390
0
  6
CONTINUOUS
 62
     7
100
AcDbLine
 10
543.9884
 20
713.249998
 30
0.0
 11
491.588399
 21
713.249998
 31
0.0
  0
LINE
  5
139F
100
AcDbEntity
  8
11000_LEFT
370
    25
390
0
  6
CONTINUOUS
 62
     7
100
AcDbLine
 10
543.9884
 20
713.249998
 30
0.0
 11
543.9884
 21
713.449999
 31
0.0
  0
LINE
  5
13A0
100
AcDbEntity
  8
11000_LEFT
370
    25
390
0
  6
CONTINUOUS
 62
     7
100
AcDbLine
 10
543.9884
 20
700.700003
 30
0.0
 11
491.588399
 21
700.700003
 31
0.0
  0
LINE
  5
13A1
100
AcDbEntity
  8
11000_LEFT
370
    25
390
0
  6
CONTINUOUS
 62
     7
100
AcDbLine
 10
543.9884
 20
700.700003
 30
0.0
 11
543.9884
 21
713.249998
 31
0.0
  0
LINE
  5
13A2
100
AcDbEntity
  8
11000_LEFT
370
    25
390
0
  6
CONTINUOUS
 62
     7
100
AcDbLine
 10
543.9884
 20
699.200003
 30
0.0
 11
543.9884
 21
700.700003
 31
0.0
  0
LINE
  5
13A3
100
AcDbEntity
  8
11000_LEFT
370
    25
390
0
  6
CONTINUOUS
 62
     7
100
AcDbLine
 10
491.588399
 20
837.700003
 30
0.0
 11
491.588399
 21
825.15
 31
0.0
  0
LINE
  5
13A4
100
AcDbEntity
  8
11000_LEFT
370
    25
390
0
  6
CONTINUOUS
 62
     7
100
AcDbLine
 10
506.288395
 20
841.200003
 30
0.0
 11
506.288395
 21
839.200003
 31
0.0
  0
LINE
  5
13A5
100
AcDbEntity
  8
11000_LEFT
370
    25
390
0
  6
CONTINUOUS
 62
     7
100
AcDbLine
 10
518.788395
 20
839.200003
 30
0.0
 11
518.788395
 21
841.200003
 31
0.0
  0
LINE
  5
13A6
100
AcDbEntity
  8
11000_LEFT
370
    25
390
0
  6
CONTINUOUS
 62
     7
100
AcDbLine
 10
506.288395
 20
841.200003
 30
0.0
 11
518.788395
 21
841.200003
 31
0.0
  0
LINE
  5
13A7
100
AcDbEntity
  8
11000_LEFT
370
    25
390
0
  6
CONTINUOUS
 62
     7
100
AcDbLine
 10
543.9884
 20
839.200003
 30
0.0
 11
491.588399
 21
839.200003
 31
0.0
  0
LINE
  5
13A8
100
AcDbEntity
  8
11000_LEFT
370
    25
390
0
  6
CONTINUOUS
 62
     7
100
AcDbLine
 10
543.9884
 20
837.700003
 30
0.0
 11
491.588399
 21
837.700003
 31
0.0
  0
LINE
  5
13A9
100
AcDbEntity
  8
11000_LEFT
370
    25
390
0
  6
CONTINUOUS
 62
     7
100
AcDbLine
 10
543.9884
 20
837.700003
 30
0.0
 11
543.9884
 21
839.200003
 31
0.0
  0
LINE
  5
13AA
100
AcDbEntity
  8
11000_LEFT
370
    25
390
0
  6
CONTINUOUS
 62
     7
100
AcDbLine
 10
543.9884
 20
825.15
 30
0.0
 11
491.588399
 21
825.15
 31
0.0
  0
LINE
  5
13AB
100
AcDbEntity
  8
11000_LEFT
370
    25
390
0
  6
CONTINUOUS
 62
     7
100
AcDbLine
 10
543.9884
 20
825.15
 30
0.0
 11
543.9884
 21
837.700003
 31
0.0
  0
LINE
  5
13AC
100
AcDbEntity
  8
11000_LEFT
370
    25
390
0
  6
CONTINUOUS
 62
     7
100
AcDbLine
 10
543.9884
 20
824.949999
 30
0.0
 11
543.9884
 21
825.15
 31
0.0
  0
LINE
  5
13AD
100
AcDbEntity
  8
11000_LEFT
370
    25
390
0
  6
CONTINUOUS
 62
     7
100
AcDbLine
 10
603.688397
 20
823.999998
 30
0.0
 11
603.688397
 21
824.199999
 31
0.0
  0
LINE
  5
13AE
100
AcDbEntity
  8
11000_LEFT
370
    25
390
0
  6
CONTINUOUS
 62
     7
100
AcDbLine
 10
603.688397
 20
810.4
 30
0.0
 11
603.688397
 21
823.999998
 31
0.0
  0
LINE
  5
13AF
100
AcDbEntity
  8
11000_LEFT
370
    25
390
0
  6
CONTINUOUS
 62
     7
100
AcDbLine
 10
603.688397
 20
810.199999
 30
0.0
 11
603.688397
 21
810.4
 31
0.0
  0
LINE
  5
13B0
100
AcDbEntity
  8
11000_LEFT
370
    25
390
0
  6
CONTINUOUS
 62
     7
100
AcDbLine
 10
595.9884
 20
810.4
 30
0.0
 11
595.9884
 21
806.100001
 31
0.0
  0
LINE
  5
13B1
100
AcDbEntity
  8
11000_LEFT
370
    25
390
0
  6
CONTINUOUS
 62
     7
100
AcDbLine
 10
570.9884
 20
806.100001
 30
0.0
 11
595.9884
 21
806.100001
 31
0.0
  0
LINE
  5
13B2
100
AcDbEntity
  8
11000_LEFT
370
    25
390
0
  6
CONTINUOUS
 62
     7
100
AcDbLine
 10
570.9884
 20
819.699999
 30
0.0
 11
570.9884
 21
806.100001
 31
0.0
  0
LINE
  5
13B3
100
AcDbEntity
  8
11000_LEFT
370
    25
390
0
  6
CONTINUOUS
 62
     7
100
AcDbLine
 10
574.4884
 20
823.999998
 30
0.0
 11
574.4884
 21
819.699999
 31
0.0
  0
LINE
  5
13B4
100
AcDbEntity
  8
11000_LEFT
370
    25
390
0
  6
CONTINUOUS
 62
     7
100
AcDbLine
 10
574.4884
 20
819.699999
 30
0.0
 11
570.9884
 21
819.699999
 31
0.0
  0
LINE
  5
13B5
100
AcDbEntity
  8
11000_LEFT
370
    25
390
0
  6
CONTINUOUS
 62
     7
100
AcDbLine
 10
575.638394
 20
823.999998
 30
0.0
 11
575.638394
 21
824.199999
 31
0.0
  0
LINE
  5
13B6
100
AcDbEntity
  8
11000_LEFT
370
    25
390
0
  6
CONTINUOUS
 62
     7
100
AcDbLine
 10
575.638394
 20
822.199999
 30
0.0
 11
575.638394
 21
823.999998
 31
0.0
  0
LINE
  5
13B7
100
AcDbEntity
  8
11000_LEFT
370
    25
390
0
  6
CONTINUOUS
 62
     7
100
AcDbLine
 10
602.538403
 20
823.999998
 30
0.0
 11
602.538403
 21
822.199999
 31
0.0
  0
LINE
  5
13B8
100
AcDbEntity
  8
11000_LEFT
370
    25
390
0
  6
CONTINUOUS
 62
     7
100
AcDbLine
 10
602.538403
 20
823.999998
 30
0.0
 11
602.538403
 21
824.199999
 31
0.0
  0
LINE
  5
13B9
100
AcDbEntity
  8
11000_LEFT
370
    25
390
0
  6
CONTINUOUS
 62
     7
100
AcDbLine
 10
575.638394
 20
824.199999
 30
0.0
 11
602.538403
 21
824.199999
 31
0.0
  0
LINE
  5
13BA
100
AcDbEntity
  8
11000_LEFT
370
    25
390
0
  6
CONTINUOUS
 62
     7
100
AcDbLine
 10
602.538403
 20
822.199999
 30
0.0
 11
575.638394
 21
822.199999
 31
0.0
  0
LINE
  5
13BB
100
AcDbEntity
  8
11000_LEFT
370
    25
390
0
  6
CONTINUOUS
 62
     7
100
AcDbLine
 10
603.688397
 20
824.199999
 30
0.0
 11
602.538403
 21
824.199999
 31
0.0
  0
LINE
  5
13BC
100
AcDbEntity
  8
11000_LEFT
370
    25
390
0
  6
CONTINUOUS
 62
     7
100
AcDbLine
 10
603.688397
 20
823.999998
 30
0.0
 11
602.538403
 21
823.999998
 31
0.0
  0
LINE
  5
13BD
100
AcDbEntity
  8
11000_LEFT
370
    25
390
0
  6
CONTINUOUS
 62
     7
100
AcDbLine
 10
575.638394
 20
824.199999
 30
0.0
 11
574.4884
 21
824.199999
 31
0.0
  0
LINE
  5
13BE
100
AcDbEntity
  8
11000_LEFT
370
    25
390
0
  6
CONTINUOUS
 62
     7
100
AcDbLine
 10
575.638394
 20
823.999998
 30
0.0
 11
574.4884
 21
823.999998
 31
0.0
  0
LINE
  5
13BF
100
AcDbEntity
  8
11000_LEFT
370
    25
390
0
  6
CONTINUOUS
 62
     7
100
AcDbLine
 10
603.688397
 20
810.4
 30
0.0
 11
595.9884
 21
810.4
 31
0.0
  0
LINE
  5
13C0
100
AcDbEntity
  8
11000_LEFT
370
    25
390
0
  6
CONTINUOUS
 62
     7
100
AcDbLine
 10
603.688397
 20
810.199999
 30
0.0
 11
603.588803
 21
810.199999
 31
0.0
  0
LINE
  5
13C1
100
AcDbEntity
  8
11000_LEFT
370
    25
390
0
  6
CONTINUOUS
 62
     7
100
AcDbLine
 10
602.288403
 20
810.199999
 30
0.0
 11
595.9884
 21
810.199999
 31
0.0
  0
LINE
  5
13C2
100
AcDbEntity
  8
11000_LEFT
370
    25
390
0
  6
CONTINUOUS
 62
     7
100
AcDbLine
 10
572.688397
 20
819.699999
 30
0.0
 11
574.888394
 21
819.699999
 31
0.0
  0
LINE
  5
13C3
100
AcDbEntity
  8
11000_LEFT
370
    25
390
0
  6
CONTINUOUS
 62
     7
100
AcDbLine
 10
574.888394
 20
819.699999
 30
0.0
 11
574.888394
 21
823.199999
 31
0.0
  0
LINE
  5
13C4
100
AcDbEntity
  8
11000_LEFT
370
    25
390
0
  6
CONTINUOUS
 62
     7
100
AcDbLine
 10
574.4884
 20
823.199999
 30
0.0
 11
574.888394
 21
823.199999
 31
0.0
  0
LINE
  5
13C5
100
AcDbEntity
  8
11000_LEFT
370
    25
390
0
  6
CONTINUOUS
 62
     7
100
AcDbLine
 10
574.4884
 20
824.199999
 30
0.0
 11
574.4884
 21
823.199999
 31
0.0
  0
LINE
  5
13C6
100
AcDbEntity
  8
11000_LEFT
370
    25
390
0
  6
CONTINUOUS
 62
     7
100
AcDbLine
 10
550.638394
 20
824.199999
 30
0.0
 11
574.4884
 21
824.199999
 31
0.0
  0
LINE
  5
13C7
100
AcDbEntity
  8
11000_LEFT
370
    25
390
0
  6
CONTINUOUS
 62
     7
100
AcDbLine
 10
550.438397
 20
824.4
 30
0.0
 11
550.638394
 21
824.199999
 31
0.0
  0
LINE
  5
13C8
100
AcDbEntity
  8
11000_LEFT
370
    25
390
0
  6
CONTINUOUS
 62
     7
100
AcDbLine
 10
550.438397
 20
839.200003
 30
0.0
 11
550.438397
 21
824.4
 31
0.0
  0
LINE
  5
13C9
100
AcDbEntity
  8
11000_LEFT
370
    25
390
0
  6
CONTINUOUS
 62
     7
100
AcDbLine
 10
543.9884
 20
839.200003
 30
0.0
 11
550.438397
 21
839.200003
 31
0.0
  0
LINE
  5
13CA
100
AcDbEntity
  8
11000_LEFT
370
    25
390
0
  6
CONTINUOUS
 62
     7
100
AcDbLine
 10
543.9884
 20
824.949999
 30
0.0
 11
543.9884
 21
839.200003
 31
0.0
  0
LINE
  5
13CB
100
AcDbEntity
  8
11000_LEFT
370
    25
390
0
  6
CONTINUOUS
 62
     7
100
AcDbLine
 10
529.888394
 20
824.949999
 30
0.0
 11
543.9884
 21
824.949999
 31
0.0
  0
LINE
  5
13CC
100
AcDbEntity
  8
11000_LEFT
370
    25
390
0
  6
CONTINUOUS
 62
     7
100
AcDbLine
 10
529.888394
 20
713.449999
 30
0.0
 11
529.888394
 21
824.949999
 31
0.0
  0
LINE
  5
13CD
100
AcDbEntity
  8
11000_LEFT
370
    25
390
0
  6
CONTINUOUS
 62
     7
100
AcDbLine
 10
544.038395
 20
713.449999
 30
0.0
 11
529.888394
 21
713.449999
 31
0.0
  0
LINE
  5
13CE
100
AcDbEntity
  8
11000_LEFT
370
    25
390
0
  6
CONTINUOUS
 62
     7
100
AcDbLine
 10
544.038395
 20
699.200003
 30
0.0
 11
544.038395
 21
713.449999
 31
0.0
  0
LINE
  5
13CF
100
AcDbEntity
  8
11000_LEFT
370
    25
390
0
  6
CONTINUOUS
 62
     7
100
AcDbLine
 10
550.4884
 20
699.200003
 30
0.0
 11
544.038395
 21
699.200003
 31
0.0
  0
LINE
  5
13D0
100
AcDbEntity
  8
11000_LEFT
370
    25
390
0
  6
CONTINUOUS
 62
     7
100
AcDbLine
 10
550.4884
 20
714.199999
 30
0.0
 11
550.4884
 21
699.200003
 31
0.0
  0
LINE
  5
13D1
100
AcDbEntity
  8
11000_LEFT
370
    25
390
0
  6
CONTINUOUS
 62
     7
100
AcDbLine
 10
603.4884
 20
714.199999
 30
0.0
 11
550.4884
 21
714.199999
 31
0.0
  0
ARC
  5
13D2
100
AcDbEntity
  8
11000_LEFT
370
    25
390
0
  6
CONTINUOUS
 62
     7
100
AcDbCircle
 10
603.488397
 20
714.4
 30
0.0
 40
0.2
100
AcDbArc
 50
270.000874
 51
0.0
  0
LINE
  5
13D3
100
AcDbEntity
  8
11000_LEFT
370
    25
390
0
  6
CONTINUOUS
 62
     7
100
AcDbLine
 10
603.688397
 20
742.699999
 30
0.0
 11
603.688397
 21
714.4
 31
0.0
  0
ARC
  5
13D4
100
AcDbEntity
  8
11000_LEFT
370
    25
390
0
  6
CONTINUOUS
 62
     7
100
AcDbCircle
 10
485.816667
 20
765.2
 30
0.0
 40
119.999978
100
AcDbArc
 50
349.193075
 51
10.806925
  0
LINE
  5
13D5
100
AcDbEntity
  8
11000_LEFT
370
    25
390
0
  6
CONTINUOUS
 62
     7
100
AcDbLine
 10
603.688397
 20
802.199999
 30
0.0
 11
603.688397
 21
787.699999
 31
0.0
  0
LINE
  5
13D6
100
AcDbEntity
  8
11000_LEFT
370
    25
390
0
  6
CONTINUOUS
 62
     7
100
AcDbLine
 10
603.088391
 20
802.199999
 30
0.0
 11
603.688397
 21
802.199999
 31
0.0
  0
LINE
  5
13D7
100
AcDbEntity
  8
11000_LEFT
370
    25
390
0
  6
CONTINUOUS
 62
     7
100
AcDbLine
 10
603.088391
 20
802.499998
 30
0.0
 11
603.088391
 21
802.199999
 31
0.0
  0
LINE
  5
13D8
100
AcDbEntity
  8
11000_LEFT
370
    25
390
0
  6
CONTINUOUS
 62
     7
100
AcDbLine
 10
603.688397
 20
802.499998
 30
0.0
 11
603.088391
 21
802.499998
 31
0.0
  0
LINE
  5
13D9
100
AcDbEntity
  8
11000_LEFT
370
    25
390
0
  6
CONTINUOUS
 62
     7
100
AcDbLine
 10
603.688397
 20
810.191607
 30
0.0
 11
603.688397
 21
802.499998
 31
0.0
  0
ARC
  5
13DA
100
AcDbEntity
  8
11000_LEFT
370
    25
390
0
  6
CONTINUOUS
 62
     7
100
AcDbCircle
 10
603.588397
 20
809.6
 30
0.0
 40
0.6
100
AcDbArc
 50
80.405915
 51
90.000583
  0
LINE
  5
13DB
100
AcDbEntity
  8
11000_LEFT
370
    25
390
0
  6
CONTINUOUS
 62
     7
100
AcDbLine
 10
603.588391
 20
810.199999
 30
0.0
 11
602.288403
 21
810.199999
 31
0.0
  0
LINE
  5
13DC
100
AcDbEntity
  8
11000_LEFT
370
    25
390
0
  6
CONTINUOUS
 62
     7
100
AcDbLine
 10
602.288403
 20
810.199999
 30
0.0
 11
598.188397
 21
806.100001
 31
0.0
  0
LINE
  5
13DD
100
AcDbEntity
  8
11000_LEFT
370
    25
390
0
  6
CONTINUOUS
 62
     7
100
AcDbLine
 10
598.188397
 20
806.100001
 30
0.0
 11
571.188397
 21
806.100001
 31
0.0
  0
LINE
  5
13DE
100
AcDbEntity
  8
11000_LEFT
370
    25
390
0
  6
CONTINUOUS
 62
     7
100
AcDbLine
 10
571.188397
 20
806.100001
 30
0.0
 11
571.188397
 21
819.499998
 31
0.0
  0
LINE
  5
13DF
100
AcDbEntity
  8
11000_LEFT
370
    25
390
0
  6
CONTINUOUS
 62
     7
100
AcDbLine
 10
571.188397
 20
819.499998
 30
0.0
 11
572.4884
 21
819.499998
 31
0.0
  0
LINE
  5
13E0
100
AcDbEntity
  8
11000_LEFT
370
    25
390
0
  6
CONTINUOUS
 62
     7
100
AcDbLine
 10
572.4884
 20
819.499998
 30
0.0
 11
572.688397
 21
819.699999
 31
0.0
  0
LINE
  5
13E1
100
AcDbEntity
  8
11000_LEFT
370
    25
390
0
  6
CONTINUOUS
 62
     7
100
AcDbLine
 10
605.588391
 20
757.0
 30
0.0
 11
605.588391
 21
757.791218
 31
0.0
  0
LINE
  5
13E2
100
AcDbEntity
  8
11000_LEFT
370
    25
390
0
  6
CONTINUOUS
 62
     7
100
AcDbLine
 10
605.588391
 20
772.604056
 30
0.0
 11
605.588391
 21
774.4
 31
0.0
  0
LINE
  5
13E3
100
AcDbEntity
  8
11000_LEFT
370
    25
390
0
  6
CONTINUOUS
 62
     7
100
AcDbLine
 10
605.688397
 20
771.2
 30
0.0
 11
605.688397
 21
774.3
 31
0.0
  0
LINE
  5
13E4
100
AcDbEntity
  8
11000_LEFT
370
    25
390
0
  6
CONTINUOUS
 62
     7
100
AcDbLine
 10
603.388394
 20
802.199999
 30
0.0
 11
603.388394
 21
802.350001
 31
0.0
  0
LINE
  5
13E5
100
AcDbEntity
  8
11000_LEFT
370
    25
390
0
  6
CONTINUOUS
 62
     7
100
AcDbLine
 10
603.388394
 20
802.350001
 30
0.0
 11
603.088406
 21
802.350001
 31
0.0
  0
LINE
  5
13E6
100
AcDbEntity
  8
11000_LEFT
370
    25
390
0
  6
CONTINUOUS
 62
     7
100
AcDbLine
 10
603.688412
 20
799.196295
 30
0.0
 11
603.788403
 21
799.196295
 31
0.0
  0
LINE
  5
13E7
100
AcDbEntity
  8
11000_LEFT
370
    25
390
0
  6
CONTINUOUS
 62
     7
100
AcDbLine
 10
603.788403
 20
799.196295
 30
0.0
 11
603.788403
 21
799.634552
 31
0.0
  0
LINE
  5
13E8
100
AcDbEntity
  8
11000_LEFT
370
    25
390
0
  6
CONTINUOUS
 62
     7
100
AcDbLine
 10
603.688412
 20
799.634552
 30
0.0
 11
603.788403
 21
799.634552
 31
0.0
  0
LINE
  5
13E9
100
AcDbEntity
  8
11000_LEFT
370
    25
390
0
  6
CONTINUOUS
 62
     7
100
AcDbLine
 10
603.788403
 20
799.634554
 30
0.0
 11
603.788403
 21
799.690108
 31
0.0
  0
LINE
  5
13EA
100
AcDbEntity
  8
11000_LEFT
370
    25
390
0
  6
CONTINUOUS
 62
     7
100
AcDbLine
 10
603.688412
 20
799.690108
 30
0.0
 11
603.788403
 21
799.690108
 31
0.0
  0
LINE
  5
13EB
100
AcDbEntity
  8
11000_LEFT
370
    25
390
0
  6
CONTINUOUS
 62
     7
100
AcDbLine
 10
603.788403
 20
799.690108
 30
0.0
 11
603.788403
 21
799.84751
 31
0.0
  0
LINE
  5
13EC
100
AcDbEntity
  8
11000_LEFT
370
    25
390
0
  6
CONTINUOUS
 62
     7
100
AcDbLine
 10
603.688412
 20
799.84751
 30
0.0
 11
603.788403
 21
799.84751
 31
0.0
  0
LINE
  5
13ED
100
AcDbEntity
  8
11000_LEFT
370
    25
390
0
  6
CONTINUOUS
 62
     7
100
AcDbLine
 10
603.788403
 20
799.84751
 30
0.0
 11
603.788403
 21
800.075898
 31
0.0
  0
LINE
  5
13EE
100
AcDbEntity
  8
11000_LEFT
370
    25
390
0
  6
CONTINUOUS
 62
     7
100
AcDbLine
 10
603.688412
 20
800.075898
 30
0.0
 11
603.788403
 21
800.075898
 31
0.0
  0
LINE
  5
13EF
100
AcDbEntity
  8
11000_LEFT
370
    25
390
0
  6
CONTINUOUS
 62
     7
100
AcDbLine
 10
603.788403
 20
800.075898
 30
0.0
 11
603.788403
 21
800.416937
 31
0.0
  0
LINE
  5
13F0
100
AcDbEntity
  8
11000_LEFT
370
    25
390
0
  6
CONTINUOUS
 62
     7
100
AcDbLine
 10
603.688412
 20
800.416937
 30
0.0
 11
603.788403
 21
800.416937
 31
0.0
  0
LINE
  5
13F1
100
AcDbEntity
  8
11000_LEFT
370
    25
390
0
  6
CONTINUOUS
 62
     7
100
AcDbLine
 10
603.788403
 20
800.416937
 30
0.0
 11
603.788403
 21
800.950871
 31
0.0
  0
LINE
  5
13F2
100
AcDbEntity
  8
11000_LEFT
370
    25
390
0
  6
CONTINUOUS
 62
     7
100
AcDbLine
 10
603.688412
 20
800.950871
 30
0.0
 11
603.788403
 21
800.950871
 31
0.0
  0
LINE
  5
13F3
100
AcDbEntity
  8
11000_LEFT
370
    25
390
0
  6
CONTINUOUS
 62
     7
100
AcDbLine
 10
603.788403
 20
800.950871
 30
0.0
 11
603.788403
 21
801.28728
 31
0.0
  0
LINE
  5
13F4
100
AcDbEntity
  8
11000_LEFT
370
    25
390
0
  6
CONTINUOUS
 62
     7
100
AcDbLine
 10
603.688412
 20
801.28728
 30
0.0
 11
603.788403
 21
801.28728
 31
0.0
  0
LINE
  5
13F5
100
AcDbEntity
  8
11000_LEFT
370
    25
390
0
  6
CONTINUOUS
 62
     7
100
AcDbLine
 10
603.788403
 20
801.28728
 30
0.0
 11
603.788403
 21
801.335804
 31
0.0
  0
LINE
  5
13F6
100
AcDbEntity
  8
11000_LEFT
370
    25
390
0
  6
CONTINUOUS
 62
     7
100
AcDbLine
 10
603.788403
 20
799.113821
 30
0.0
 11
603.788403
 21
799.196295
 31
0.0
  0
LINE
  5
13F7
100
AcDbEntity
  8
11000_LEFT
370
    25
390
0
  6
CONTINUOUS
 62
     7
100
AcDbLine
 10
605.688397
 20
770.745728
 30
0.0
 11
605.688397
 21
771.2
 31
0.0
  0
LINE
  5
13F8
100
AcDbEntity
  8
11000_LEFT
370
    25
390
0
  6
CONTINUOUS
 62
     7
100
AcDbLine
 10
605.688397
 20
757.1
 30
0.0
 11
605.688397
 21
759.652435
 31
0.0
  0
LINE
  5
13F9
100
AcDbEntity
  8
11000_LEFT
370
    25
390
0
  6
CONTINUOUS
 62
     7
100
AcDbLine
 10
603.888394
 20
736.100001
 30
0.0
 11
603.688412
 21
736.100001
 31
0.0
  0
LINE
  5
13FA
100
AcDbEntity
  8
11000_LEFT
370
    25
390
0
  6
CONTINUOUS
 62
     7
100
AcDbLine
 10
603.888394
 20
735.9
 30
0.0
 11
603.688412
 21
735.9
 31
0.0
  0
LINE
  5
13FB
100
AcDbEntity
  8
11000_LEFT
370
    25
390
0
  6
CONTINUOUS
 62
     7
100
AcDbLine
 10
603.888394
 20
735.9
 30
0.0
 11
603.888394
 21
736.100001
 31
0.0
  0
LINE
  5
13FC
100
AcDbEntity
  8
11000_LEFT
370
    25
390
0
  6
CONTINUOUS
 62
     7
100
AcDbLine
 10
603.888394
 20
742.5
 30
0.0
 11
603.688412
 21
742.5
 31
0.0
  0
LINE
  5
13FD
100
AcDbEntity
  8
11000_LEFT
370
    25
390
0
  6
CONTINUOUS
 62
     7
100
AcDbLine
 10
603.888394
 20
742.3
 30
0.0
 11
603.688412
 21
742.3
 31
0.0
  0
LINE
  5
13FE
100
AcDbEntity
  8
11000_LEFT
370
    25
390
0
  6
CONTINUOUS
 62
     7
100
AcDbLine
 10
603.888394
 20
742.3
 30
0.0
 11
603.888394
 21
742.5
 31
0.0
  0
LINE
  5
13FF
100
AcDbEntity
  8
11000_LEFT
370
    25
390
0
  6
CONTINUOUS
 62
     7
100
AcDbLine
 10
603.888394
 20
736.100001
 30
0.0
 11
603.888394
 21
742.3
 31
0.0
  0
LINE
  5
1400
100
AcDbEntity
  8
11000_LEFT
370
    25
390
0
  6
CONTINUOUS
 62
     7
100
AcDbLine
 10
603.688397
 20
810.200003
 30
0.0
 11
603.688397
 21
810.191622
 31
0.0
  0
LINE
  5
1401
100
AcDbEntity
  8
11000_LEFT
370
    25
390
0
  6
CONTINUOUS
 62
     7
100
AcDbLine
 10
603.878399
 20
806.100001
 30
0.0
 11
603.688397
 21
806.100001
 31
0.0
  0
LINE
  5
1402
100
AcDbEntity
  8
11000_LEFT
370
    25
390
0
  6
CONTINUOUS
 62
     7
100
AcDbLine
 10
603.878399
 20
806.100001
 30
0.0
 11
603.878399
 21
824.199999
 31
0.0
  0
LINE
  5
1403
100
AcDbEntity
  8
11000_LEFT
370
    25
390
0
  6
CONTINUOUS
 62
     7
100
AcDbLine
 10
603.878399
 20
824.199999
 30
0.0
 11
603.688397
 21
824.199999
 31
0.0
  0
LINE
  5
1404
100
AcDbEntity
  8
11000_LEFT
370
    25
390
0
  6
CONTINUOUS
 62
     7
100
AcDbLine
 10
605.536175
 20
757.0
 30
0.0
 11
605.588391
 21
757.0
 31
0.0
  0
ARC
  5
1405
100
AcDbEntity
  8
11000_LEFT
370
    25
390
0
  6
CONTINUOUS
 62
     7
100
AcDbCircle
 10
605.588397
 20
774.3
 30
0.0
 40
0.1
100
AcDbArc
 50
0.0
 51
90.003497
  0
LINE
  5
1406
100
AcDbEntity
  8
11000_LEFT
370
    25
390
0
  6
CONTINUOUS
 62
     7
100
AcDbLine
 10
603.788403
 20
799.113821
 30
0.0
 11
603.688428
 21
799.113821
 31
0.0
  0
LINE
  5
1407
100
AcDbEntity
  8
11000_LEFT
370
    25
390
0
  6
CONTINUOUS
 62
     7
100
AcDbLine
 10
603.788403
 20
801.335804
 30
0.0
 11
603.688412
 21
801.335802
 31
0.0
  0
LINE
  5
1408
100
AcDbEntity
  8
11000_LEFT
370
    25
390
0
  6
CONTINUOUS
 62
     7
100
AcDbLine
 10
603.788403
 20
799.113821
 30
0.0
 11
603.688412
 21
799.113821
 31
0.0
  0
LINE
  5
1409
100
AcDbEntity
  8
11000_LEFT
370
    25
390
0
  6
CONTINUOUS
 62
     7
100
AcDbLine
 10
605.463482
 20
774.4
 30
0.0
 11
605.588391
 21
774.4
 31
0.0
  0
ARC
  5
140A
100
AcDbEntity
  8
11000_LEFT
370
    25
390
0
  6
CONTINUOUS
 62
     7
100
AcDbCircle
 10
605.588397
 20
757.1
 30
0.0
 40
0.1
100
AcDbArc
 50
269.996503
 51
359.999891
  0
LINE
  5
140B
100
AcDbEntity
  8
11000_LEFT
370
    25
390
0
  6
CONTINUOUS
 62
     7
100
AcDbLine
 10
491.588429
 20
707.449999
 30
0.0
 11
467.688397
 21
707.449999
 31
0.0
  0
LINE
  5
140C
100
AcDbEntity
  8
11000_LEFT
370
    25
390
0
  6
CONTINUOUS
 62
     7
100
AcDbLine
 10
467.688397
 20
689.249998
 30
0.0
 11
467.688397
 21
707.449999
 31
0.0
  0
LINE
  5
140D
100
AcDbEntity
  8
11000_LEFT
370
    25
390
0
  6
CONTINUOUS
 62
     7
100
AcDbLine
 10
444.688397
 20
689.249998
 30
0.0
 11
467.688397
 21
689.249998
 31
0.0
  0
LINE
  5
140E
100
AcDbEntity
  8
11000_LEFT
370
    25
390
0
  6
CONTINUOUS
 62
     7
100
AcDbLine
 10
444.688397
 20
689.249998
 30
0.0
 11
438.188397
 21
689.249998
 31
0.0
  0
LINE
  5
140F
100
AcDbEntity
  8
11000_LEFT
370
    25
390
0
  6
CONTINUOUS
 62
     7
100
AcDbLine
 10
444.688397
 20
712.949999
 30
0.0
 11
444.688397
 21
689.249998
 31
0.0
  0
LINE
  5
1410
100
AcDbEntity
  8
11000_LEFT
370
    25
390
0
  6
CONTINUOUS
 62
     7
100
AcDbLine
 10
491.988396
 20
712.949999
 30
0.0
 11
444.688397
 21
712.949999
 31
0.0
  0
LINE
  5
1411
100
AcDbEntity
  8
11000_LEFT
370
    25
390
0
  6
CONTINUOUS
 62
     7
100
AcDbLine
 10
441.018914
 20
844.200003
 30
0.0
 11
440.288397
 21
844.200003
 31
0.0
  0
LINE
  5
1412
100
AcDbEntity
  8
11000_LEFT
370
    25
390
0
  6
CONTINUOUS
 62
     7
100
AcDbLine
 10
440.288397
 20
844.200003
 30
0.0
 11
441.018917
 21
844.200003
 31
0.0
  0
LINE
  5
1413
100
AcDbEntity
  8
11000_LEFT
370
    25
390
0
  6
CONTINUOUS
 62
     7
100
AcDbLine
 10
446.688397
 20
847.099997
 30
0.0
 11
446.688397
 21
844.300002
 31
0.0
  0
ARC
  5
1414
100
AcDbEntity
  8
11000_LEFT
370
    25
390
0
  6
CONTINUOUS
 62
     7
100
AcDbCircle
 10
446.588397
 20
844.3
 30
0.0
 40
0.1
100
AcDbArc
 50
290.731631
 51
0.000874
  0
LINE
  5
1415
100
AcDbEntity
  8
11000_LEFT
370
    25
390
0
  6
CONTINUOUS
 62
     7
100
AcDbLine
 10
444.688397
 20
849.249998
 30
0.0
 11
444.688397
 21
839.249998
 31
0.0
  0
LINE
  5
1416
100
AcDbEntity
  8
11000_LEFT
370
    25
390
0
  6
CONTINUOUS
 62
     7
100
AcDbLine
 10
444.688397
 20
847.200003
 30
0.0
 11
446.588397
 21
847.200003
 31
0.0
  0
LINE
  5
1417
100
AcDbEntity
  8
11000_LEFT
370
    25
390
0
  6
CONTINUOUS
 62
     7
100
AcDbLine
 10
440.188397
 20
844.300002
 30
0.0
 11
440.188397
 21
847.099997
 31
0.0
  0
ARC
  5
1418
100
AcDbEntity
  8
11000_LEFT
370
    25
390
0
  6
CONTINUOUS
 62
     7
100
AcDbCircle
 10
440.288397
 20
847.1
 30
0.0
 40
0.1
100
AcDbArc
 50
90.000055
 51
180.001749
  0
LINE
  5
1419
100
AcDbEntity
  8
11000_LEFT
370
    25
390
0
  6
CONTINUOUS
 62
     7
100
AcDbLine
 10
440.288397
 20
847.200003
 30
0.0
 11
441.416617
 21
847.200003
 31
0.0
  0
ARC
  5
141A
100
AcDbEntity
  8
11000_LEFT
370
    25
390
0
  6
CONTINUOUS
 62
     7
100
AcDbCircle
 10
446.588397
 20
847.1
 30
0.0
 40
0.1
100
AcDbArc
 50
359.998251
 51
90.000219
  0
ARC
  5
141B
100
AcDbEntity
  8
11000_LEFT
370
    25
390
0
  6
CONTINUOUS
 62
     7
100
AcDbCircle
 10
440.288397
 20
844.3
 30
0.0
 40
0.1
100
AcDbArc
 50
179.999126
 51
269.999945
  0
LINE
  5
141C
100
AcDbEntity
  8
11000_LEFT
370
    25
390
0
  6
CONTINUOUS
 62
     7
100
AcDbLine
 10
446.623797
 20
845.200003
 30
0.0
 11
446.623797
 21
844.206473
 31
0.0
  0
LINE
  5
141D
100
AcDbEntity
  8
11000_LEFT
370
    25
390
0
  6
CONTINUOUS
 62
     7
100
AcDbLine
 10
444.688419
 20
845.200003
 30
0.0
 11
446.623797
 21
845.200003
 31
0.0
  0
LINE
  5
141E
100
AcDbEntity
  8
11000_LEFT
370
    25
390
0
  6
CONTINUOUS
 62
     7
100
AcDbLine
 10
444.688419
 20
844.200003
 30
0.0
 11
446.623797
 21
844.200003
 31
0.0
  0
LINE
  5
141F
100
AcDbEntity
  8
11000_LEFT
370
    25
390
0
  6
CONTINUOUS
 62
     7
100
AcDbLine
 10
446.623797
 20
844.206473
 30
0.0
 11
446.623797
 21
844.200003
 31
0.0
  0
LINE
  5
1420
100
AcDbEntity
  8
11000_LEFT
370
    25
390
0
  6
CONTINUOUS
 62
     7
100
AcDbLine
 10
438.188397
 20
822.850001
 30
0.0
 11
441.688397
 21
849.249998
 31
0.0
  0
LINE
  5
1421
100
AcDbEntity
  8
11000_LEFT
370
    25
390
0
  6
CONTINUOUS
 62
     7
100
AcDbLine
 10
441.688397
 20
849.249998
 30
0.0
 11
444.688397
 21
849.249998
 31
0.0
  0
LINE
  5
1422
100
AcDbEntity
  8
11000_LEFT
370
    25
390
0
  6
CONTINUOUS
 62
     7
100
AcDbLine
 10
444.688397
 20
839.249998
 30
0.0
 11
491.588399
 21
839.249998
 31
0.0
  0
LINE
  5
1423
100
AcDbEntity
  8
11000_LEFT
370
    25
390
0
  6
CONTINUOUS
 62
     7
100
AcDbLine
 10
491.588399
 20
839.249998
 30
0.0
 11
491.588399
 21
824.949999
 31
0.0
  0
LINE
  5
1424
100
AcDbEntity
  8
11000_LEFT
370
    25
390
0
  6
CONTINUOUS
 62
     7
100
AcDbLine
 10
491.588399
 20
824.949999
 30
0.0
 11
529.888394
 21
824.949999
 31
0.0
  0
LINE
  5
1425
100
AcDbEntity
  8
11000_LEFT
370
    25
390
0
  6
CONTINUOUS
 62
     7
100
AcDbLine
 10
529.888394
 20
824.949999
 30
0.0
 11
529.888394
 21
713.449999
 31
0.0
  0
LINE
  5
1426
100
AcDbEntity
  8
11000_LEFT
370
    25
390
0
  6
CONTINUOUS
 62
     7
100
AcDbLine
 10
529.888394
 20
713.449999
 30
0.0
 11
491.988396
 21
713.449999
 31
0.0
  0
LINE
  5
1427
100
AcDbEntity
  8
11000_LEFT
370
    25
390
0
  6
CONTINUOUS
 62
     7
100
AcDbLine
 10
491.988396
 20
713.449999
 30
0.0
 11
491.988396
 21
712.949999
 31
0.0
  0
LINE
  5
1428
100
AcDbEntity
  8
11000_LEFT
370
    25
390
0
  6
CONTINUOUS
 62
     7
100
AcDbLine
 10
438.188397
 20
689.249998
 30
0.0
 11
438.188397
 21
750.75
 31
0.0
  0
LINE
  5
1429
100
AcDbEntity
  8
11000_LEFT
370
    25
390
0
  6
CONTINUOUS
 62
     7
100
AcDbLine
 10
438.188397
 20
750.75
 30
0.0
 11
440.788397
 21
753.85
 31
0.0
  0
LINE
  5
142A
100
AcDbEntity
  8
11000_LEFT
370
    25
390
0
  6
CONTINUOUS
 62
     7
100
AcDbLine
 10
440.788397
 20
753.85
 30
0.0
 11
441.388397
 21
753.85
 31
0.0
  0
LINE
  5
142B
100
AcDbEntity
  8
11000_LEFT
370
    25
390
0
  6
CONTINUOUS
 62
     7
100
AcDbLine
 10
441.388397
 20
753.85
 30
0.0
 11
441.738397
 21
751.850001
 31
0.0
  0
LINE
  5
142C
100
AcDbEntity
  8
11000_LEFT
370
    25
390
0
  6
CONTINUOUS
 62
     7
100
AcDbLine
 10
441.738397
 20
751.850001
 30
0.0
 11
443.138397
 21
751.850001
 31
0.0
  0
LINE
  5
142D
100
AcDbEntity
  8
11000_LEFT
370
    25
390
0
  6
CONTINUOUS
 62
     7
100
AcDbLine
 10
443.138397
 20
751.850001
 30
0.0
 11
443.138397
 21
786.850001
 31
0.0
  0
LINE
  5
142E
100
AcDbEntity
  8
11000_LEFT
370
    25
390
0
  6
CONTINUOUS
 62
     7
100
AcDbLine
 10
443.138397
 20
786.850001
 30
0.0
 11
442.088397
 21
786.850001
 31
0.0
  0
LINE
  5
142F
100
AcDbEntity
  8
11000_LEFT
370
    25
390
0
  6
CONTINUOUS
 62
     7
100
AcDbLine
 10
442.088397
 20
786.850001
 30
0.0
 11
441.838397
 21
786.15
 31
0.0
  0
LINE
  5
1430
100
AcDbEntity
  8
11000_LEFT
370
    25
390
0
  6
CONTINUOUS
 62
     7
100
AcDbLine
 10
441.838397
 20
786.15
 30
0.0
 11
439.988397
 21
784.85
 31
0.0
  0
LINE
  5
1431
100
AcDbEntity
  8
11000_LEFT
370
    25
390
0
  6
CONTINUOUS
 62
     7
100
AcDbLine
 10
439.988397
 20
784.85
 30
0.0
 11
438.188397
 21
784.85
 31
0.0
  0
LINE
  5
1432
100
AcDbEntity
  8
11000_LEFT
370
    25
390
0
  6
CONTINUOUS
 62
     7
100
AcDbLine
 10
438.188397
 20
784.85
 30
0.0
 11
438.188397
 21
822.850001
 31
0.0
  0
LINE
  5
1433
100
AcDbEntity
  8
11000_LEFT
370
    13
390
0
  6
CENTER
 62
     7
100
AcDbLine
 10
550.662397
 20
708.6
 30
0.0
 11
543.662397
 21
708.6
 31
0.0
  0
LINE
  5
1434
100
AcDbEntity
  8
11000_LEFT
370
    13
390
0
  6
CENTER
 62
     7
100
AcDbLine
 10
550.662397
 20
829.3
 30
0.0
 11
543.662397
 21
829.3
 31
0.0
  0
LINE
  5
1435
100
AcDbEntity
  8
11000_LEFT
370
    13
390
0
  6
CENTER
 62
     7
100
AcDbLine
 10
550.662397
 20
708.6
 30
0.0
 11
543.662397
 21
708.6
 31
0.0
  0
LINE
  5
1436
100
AcDbEntity
  8
11000_LEFT
370
    13
390
0
  6
CENTER
 62
     7
100
AcDbLine
 10
550.662397
 20
829.3
 30
0.0
 11
543.662397
 21
829.3
 31
0.0
  0
LINE
  5
1437
100
AcDbEntity
  8
11000_LEFT
370
    13
390
0
  6
CENTER
 62
     7
100
AcDbLine
 10
550.662397
 20
708.6
 30
0.0
 11
543.662397
 21
708.6
 31
0.0
  0
LINE
  5
1438
100
AcDbEntity
  8
11000_LEFT
370
    13
390
0
  6
CENTER
 62
     7
100
AcDbLine
 10
550.662397
 20
829.3
 30
0.0
 11
543.662397
 21
829.3
 31
0.0
  0
LINE
  5
1439
100
AcDbEntity
  8
11100_LEFT_DIM
370
    13
390
0
  6
CONTINUOUS
 62
     7
100
AcDbLine
 10
438.188397
 20
689.24999
 30
0.0
 11
438.188397
 21
678.24999
 31
0.0
  0
TEXT
  5
143A
100
AcDbEntity
  8
11100_LEFT_DIM
370
    13
390
0
  6
CONTINUOUS
 62
     7
100
AcDbText
 10
440.02173
 20
680.24999
 30
0.0
 40
2.0
  1
5
 72
     1
 11
440.688397
 21
680.24999
 31
0.0
100
AcDbText
  0
LINE
  5
143B
100
AcDbEntity
  8
11100_LEFT_DIM
370
    13
390
0
  6
CONTINUOUS
 62
     7
100
AcDbLine
 10
453.188397
 20
679.24999
 30
0.0
 11
428.188397
 21
679.24999
 31
0.0
  0
LINE
  5
143C
100
AcDbEntity
  8
11100_LEFT_DIM
370
    13
390
0
  6
CONTINUOUS
 62
     7
100
AcDbLine
 10
443.188397
 20
678.24999
 30
0.0
 11
443.188397
 21
751.89999
 31
0.0
  0
LINE
  5
143D
100
AcDbEntity
  8
11100_LEFT_DIM
370
    13
390
0
  6
CONTINUOUS
 62
     7
100
AcDbLine
 10
443.188397
 20
689.2
 30
0.0
 11
443.188397
 21
670.24999
 31
0.0
  0
TEXT
  5
143E
100
AcDbEntity
  8
11100_LEFT_DIM
370
    13
390
0
  6
CONTINUOUS
 62
     7
100
AcDbText
 10
452.438397
 20
672.24999
 30
0.0
 40
2.0
  1
24.5
 72
     1
 11
455.438397
 21
672.24999
 31
0.0
100
AcDbText
  0
LINE
  5
143F
100
AcDbEntity
  8
11100_LEFT_DIM
370
    13
390
0
  6
CONTINUOUS
 62
     7
100
AcDbLine
 10
443.188397
 20
671.24999
 30
0.0
 11
467.688397
 21
671.24999
 31
0.0
  0
LINE
  5
1440
100
AcDbEntity
  8
11100_LEFT_DIM
370
    13
390
0
  6
CONTINUOUS
 62
     7
100
AcDbLine
 10
467.688397
 20
670.24999
 30
0.0
 11
467.688397
 21
689.2
 31
0.0
  0
LINE
  5
1441
100
AcDbEntity
  8
11100_LEFT_DIM
370
    13
390
0
  6
CONTINUOUS
 62
     7
100
AcDbLine
 10
443.188397
 20
689.24999
 30
0.0
 11
443.188397
 21
662.24999
 31
0.0
  0
TEXT
  5
1442
100
AcDbEntity
  8
11100_LEFT_DIM
370
    13
390
0
  6
CONTINUOUS
 62
     7
100
AcDbText
 10
492.313397
 20
664.24999
 30
0.0
 40
2.0
  1
107.25
 72
     1
 11
496.813397
 21
664.24999
 31
0.0
100
AcDbText
  0
LINE
  5
1443
100
AcDbEntity
  8
11100_LEFT_DIM
370
    13
390
0
  6
CONTINUOUS
 62
     7
100
AcDbLine
 10
443.188397
 20
663.24999
 30
0.0
 11
550.438397
 21
663.24999
 31
0.0
  0
LINE
  5
1444
100
AcDbEntity
  8
11100_LEFT_DIM
370
    13
390
0
  6
CONTINUOUS
 62
     7
100
AcDbLine
 10
550.438397
 20
662.24999
 30
0.0
 11
550.438397
 21
699.24999
 31
0.0
  0
LINE
  5
1445
100
AcDbEntity
  8
11100_LEFT_DIM
370
    13
390
0
  6
CONTINUOUS
 62
     7
100
AcDbLine
 10
443.188397
 20
689.24999
 30
0.0
 11
443.188397
 21
654.24999
 31
0.0
  0
TEXT
  5
1446
100
AcDbEntity
  8
11100_LEFT_DIM
370
    13
390
0
  6
CONTINUOUS
 62
     7
100
AcDbText
 10
522.855064
 20
656.24999
 30
0.0
 40
2.0
  1
164
 72
     1
 11
525.188397
 21
656.24999
 31
0.0
100
AcDbText
  0
LINE
  5
1447
100
AcDbEntity
  8
11100_LEFT_DIM
370
    13
390
0
  6
CONTINUOUS
 62
     7
100
AcDbLine
 10
443.188397
 20
655.24999
 30
0.0
 11
607.188397
 21
655.24999
 31
0.0
  0
LINE
  5
1448
100
AcDbEntity
  8
11100_LEFT_DIM
370
    13
390
0
  6
CONTINUOUS
 62
     7
100
AcDbLine
 10
607.188397
 20
654.24999
 30
0.0
 11
607.188397
 21
768.59999
 31
0.0
  0
LINE
  5
1449
100
AcDbEntity
  8
11100_LEFT_DIM
370
    13
390
0
  6
CONTINUOUS
 62
     7
100
AcDbLine
 10
603.988397
 20
714.2
 30
0.0
 11
616.811613
 21
714.2
 31
0.0
  0
TEXT
  5
144A
100
AcDbEntity
  8
11100_LEFT_DIM
370
    13
390
0
  6
CONTINUOUS
 62
     7
100
AcDbText
 10
614.811613
 20
767.366667
 30
0.0
 40
2.0
  1
110
 50
90.0
 51
360.0
 72
     1
 11
614.811613
 21
769.2
 31
0.0
100
AcDbText
  0
LINE
  5
144B
100
AcDbEntity
  8
11100_LEFT_DIM
370
    13
390
0
  6
CONTINUOUS
 62
     7
100
AcDbLine
 10
615.811613
 20
714.2
 30
0.0
 11
615.811613
 21
824.2
 31
0.0
  0
LINE
  5
144C
100
AcDbEntity
  8
11100_LEFT_DIM
370
    13
390
0
  6
CONTINUOUS
 62
     7
100
AcDbLine
 10
616.811613
 20
824.2
 30
0.0
 11
603.988397
 21
824.2
 31
0.0
  0
SOLID
  5
144D
100
AcDbEntity
  8
11100_LEFT_DIM
370
    13
390
0
  6
CONTINUOUS
 62
     7
100
AcDbTrace
 10
433.188397
 20
678.24999
 30
0.0
 11
438.188397
 21
679.24999
 31
0.0
 12
433.188397
 22
680.24999
 32
0.0
 13
438.188397
 23
679.24999
 33
0.0
  0
SOLID
  5
144E
100
AcDbEntity
  8
11100_LEFT_DIM
370
    13
390
0
  6
CONTINUOUS
 62
     7
100
AcDbTrace
 10
448.188397
 20
680.24999
 30
0.0
 11
443.188397
 21
679.24999
 31
0.0
 12
448.188397
 22
678.24999
 32
0.0
 13
443.188397
 23
679.24999
 33
0.0
  0
SOLID
  5
144F
100
AcDbEntity
  8
11100_LEFT_DIM
370
    13
390
0
  6
CONTINUOUS
 62
     7
100
AcDbTrace
 10
448.188397
 20
672.24999
 30
0.0
 11
443.188397
 21
671.24999
 31
0.0
 12
448.188397
 22
670.24999
 32
0.0
 13
443.188397
 23
671.24999
 33
0.0
  0
SOLID
  5
1450
100
AcDbEntity
  8
11100_LEFT_DIM
370
    13
390
0
  6
CONTINUOUS
 62
     7
100
AcDbTrace
 10
462.688397
 20
670.24999
 30
0.0
 11
467.688397
 21
671.24999
 31
0.0
 12
462.688397
 22
672.24999
 32
0.0
 13
467.688397
 23
671.24999
 33
0.0
  0
SOLID
  5
1451
100
AcDbEntity
  8
11100_LEFT_DIM
370
    13
390
0
  6
CONTINUOUS
 62
     7
100
AcDbTrace
 10
448.188397
 20
664.24999
 30
0.0
 11
443.188397
 21
663.24999
 31
0.0
 12
448.188397
 22
662.24999
 32
0.0
 13
443.188397
 23
663.24999
 33
0.0
  0
SOLID
  5
1452
100
AcDbEntity
  8
11100_LEFT_DIM
370
    13
390
0
  6
CONTINUOUS
 62
     7
100
AcDbTrace
 10
545.438397
 20
662.24999
 30
0.0
 11
550.438397
 21
663.24999
 31
0.0
 12
545.438397
 22
664.24999
 32
0.0
 13
550.438397
 23
663.24999
 33
0.0
  0
SOLID
  5
1453
100
AcDbEntity
  8
11100_LEFT_DIM
370
    13
390
0
  6
CONTINUOUS
 62
     7
100
AcDbTrace
 10
448.188397
 20
656.24999
 30
0.0
 11
443.188397
 21
655.24999
 31
0.0
 12
448.188397
 22
654.24999
 32
0.0
 13
443.188397
 23
655.24999
 33
0.0
  0
SOLID
  5
1454
100
AcDbEntity
  8
11100_LEFT_DIM
370
    13
390
0
  6
CONTINUOUS
 62
     7
100
AcDbTrace
 10
602.188397
 20
654.24999
 30
0.0
 11
607.188397
 21
655.24999
 31
0.0
 12
602.188397
 22
656.24999
 32
0.0
 13
607.188397
 23
655.24999
 33
0.0
  0
SOLID
  5
1455
100
AcDbEntity
  8
11100_LEFT_DIM
370
    13
390
0
  6
CONTINUOUS
 62
     7
100
AcDbTrace
 10
614.811613
 20
719.2
 30
0.0
 11
615.811613
 21
714.2
 31
0.0
 12
616.811613
 22
719.2
 32
0.0
 13
615.811613
 23
714.2
 33
0.0
  0
SOLID
  5
1456
100
AcDbEntity
  8
11100_LEFT_DIM
370
    13
390
0
  6
CONTINUOUS
 62
     7
100
AcDbTrace
 10
616.811613
 20
819.2
 30
0.0
 11
615.811613
 21
824.2
 31
0.0
 12
614.811613
 22
819.2
 32
0.0
 13
615.811613
 23
824.2
 33
0.0
  0
LINE
  5
1457
100
AcDbEntity
  8
15000_BACK
370
    25
390
0
  6
CENTER
 62
     7
100
AcDbLine
 10
333.188396
 20
566.649994
 30
0.0
 11
342.267456
 21
566.649994
 31
0.0
  0
ARC
  5
1458
100
AcDbEntity
  8
15000_BACK
370
    25
390
0
  6
CENTER
 62
     7
100
AcDbCircle
 10
344.188397
 20
568.24999
 30
0.0
 40
2.5
100
AcDbArc
 50
219.791698
 51
320.208302
  0
LINE
  5
1459
100
AcDbEntity
  8
15000_BACK
370
    25
390
0
  6
CENTER
 62
     7
100
AcDbLine
 10
346.109337
 20
566.649994
 30
0.0
 11
355.188395
 21
566.649994
 31
0.0
  0
LINE
  5
145A
100
AcDbEntity
  8
15000_BACK
370
    25
390
0
  6
CENTER
 62
     7
100
AcDbLine
 10
355.188395
 20
566.649994
 30
0.0
 11
355.188395
 21
568.24999
 31
0.0
  0
LINE
  5
145B
100
AcDbEntity
  8
15000_BACK
370
    25
390
0
  6
CENTER
 62
     7
100
AcDbLine
 10
355.188396
 20
568.24999
 30
0.0
 11
346.688397
 21
568.24999
 31
0.0
  0
LINE
  5
145C
100
AcDbEntity
  8
15000_BACK
370
    25
390
0
  6
CENTER
 62
     7
100
AcDbLine
 10
346.688396
 20
568.24999
 30
0.0
 11
346.688396
 21
568.250084
 31
0.0
  0
LINE
  5
145D
100
AcDbEntity
  8
15000_BACK
370
    25
390
0
  6
CENTER
 62
     7
100
AcDbLine
 10
346.688396
 20
568.250084
 30
0.0
 11
346.688396
 21
568.250371
 31
0.0
  0
LINE
  5
145E
100
AcDbEntity
  8
15000_BACK
370
    25
390
0
  6
CENTER
 62
     7
100
AcDbLine
 10
346.688396
 20
568.250371
 30
0.0
 11
346.688396
 21
568.250857
 31
0.0
  0
LINE
  5
145F
100
AcDbEntity
  8
15000_BACK
370
    25
390
0
  6
CENTER
 62
     7
100
AcDbLine
 10
346.688396
 20
568.250857
 30
0.0
 11
346.688396
 21
568.251546
 31
0.0
  0
LINE
  5
1460
100
AcDbEntity
  8
15000_BACK
370
    25
390
0
  6
CENTER
 62
     7
100
AcDbLine
 10
346.688396
 20
568.251546
 30
0.0
 11
346.688395
 21
568.252439
 31
0.0
  0
LINE
  5
1461
100
AcDbEntity
  8
15000_BACK
370
    25
390
0
  6
CENTER
 62
     7
100
AcDbLine
 10
346.688395
 20
568.252439
 30
0.0
 11
346.688393
 21
568.253539
 31
0.0
  0
LINE
  5
1462
100
AcDbEntity
  8
15000_BACK
370
    25
390
0
  6
CENTER
 62
     7
100
AcDbLine
 10
346.688393
 20
568.253539
 30
0.0
 11
346.688391
 21
568.254842
 31
0.0
  0
LINE
  5
1463
100
AcDbEntity
  8
15000_BACK
370
    25
390
0
  6
CENTER
 62
     7
100
AcDbLine
 10
346.688391
 20
568.254842
 30
0.0
 11
346.688388
 21
568.256347
 31
0.0
  0
LINE
  5
1464
100
AcDbEntity
  8
15000_BACK
370
    25
390
0
  6
CENTER
 62
     7
100
AcDbLine
 10
346.688388
 20
568.256347
 30
0.0
 11
346.688383
 21
568.258048
 31
0.0
  0
LINE
  5
1465
100
AcDbEntity
  8
15000_BACK
370
    25
390
0
  6
CENTER
 62
     7
100
AcDbLine
 10
346.688383
 20
568.258048
 30
0.0
 11
346.688376
 21
568.259941
 31
0.0
  0
LINE
  5
1466
100
AcDbEntity
  8
15000_BACK
370
    25
390
0
  6
CENTER
 62
     7
100
AcDbLine
 10
346.688376
 20
568.259941
 30
0.0
 11
346.688367
 21
568.262019
 31
0.0
  0
LINE
  5
1467
100
AcDbEntity
  8
15000_BACK
370
    25
390
0
  6
CENTER
 62
     7
100
AcDbLine
 10
346.688367
 20
568.262019
 30
0.0
 11
346.688355
 21
568.264274
 31
0.0
  0
LINE
  5
1468
100
AcDbEntity
  8
15000_BACK
370
    25
390
0
  6
CENTER
 62
     7
100
AcDbLine
 10
346.688355
 20
568.264274
 30
0.0
 11
346.68834
 21
568.266694
 31
0.0
  0
LINE
  5
1469
100
AcDbEntity
  8
15000_BACK
370
    25
390
0
  6
CENTER
 62
     7
100
AcDbLine
 10
346.68834
 20
568.266694
 30
0.0
 11
346.688322
 21
568.269269
 31
0.0
  0
LINE
  5
146A
100
AcDbEntity
  8
15000_BACK
370
    25
390
0
  6
CENTER
 62
     7
100
AcDbLine
 10
346.688322
 20
568.269269
 30
0.0
 11
346.688299
 21
568.271984
 31
0.0
  0
LINE
  5
146B
100
AcDbEntity
  8
15000_BACK
370
    25
390
0
  6
CENTER
 62
     7
100
AcDbLine
 10
346.688299
 20
568.271984
 30
0.0
 11
346.688273
 21
568.274826
 31
0.0
  0
LINE
  5
146C
100
AcDbEntity
  8
15000_BACK
370
    25
390
0
  6
CENTER
 62
     7
100
AcDbLine
 10
346.688273
 20
568.274826
 30
0.0
 11
346.688242
 21
568.277777
 31
0.0
  0
LINE
  5
146D
100
AcDbEntity
  8
15000_BACK
370
    25
390
0
  6
CENTER
 62
     7
100
AcDbLine
 10
346.688242
 20
568.277777
 30
0.0
 11
346.688206
 21
568.280833
 31
0.0
  0
LINE
  5
146E
100
AcDbEntity
  8
15000_BACK
370
    25
390
0
  6
CENTER
 62
     7
100
AcDbLine
 10
346.688206
 20
568.280833
 30
0.0
 11
346.688164
 21
568.284052
 31
0.0
  0
LINE
  5
146F
100
AcDbEntity
  8
15000_BACK
370
    25
390
0
  6
CENTER
 62
     7
100
AcDbLine
 10
346.688164
 20
568.284052
 30
0.0
 11
346.688116
 21
568.287438
 31
0.0
  0
LINE
  5
1470
100
AcDbEntity
  8
15000_BACK
370
    25
390
0
  6
CENTER
 62
     7
100
AcDbLine
 10
346.688116
 20
568.287438
 30
0.0
 11
346.68806
 21
568.290984
 31
0.0
  0
LINE
  5
1471
100
AcDbEntity
  8
15000_BACK
370
    25
390
0
  6
CENTER
 62
     7
100
AcDbLine
 10
346.68806
 20
568.290984
 30
0.0
 11
346.687997
 21
568.294677
 31
0.0
  0
LINE
  5
1472
100
AcDbEntity
  8
15000_BACK
370
    25
390
0
  6
CENTER
 62
     7
100
AcDbLine
 10
346.687997
 20
568.294677
 30
0.0
 11
346.687925
 21
568.298506
 31
0.0
  0
LINE
  5
1473
100
AcDbEntity
  8
15000_BACK
370
    25
390
0
  6
CENTER
 62
     7
100
AcDbLine
 10
346.687925
 20
568.298506
 30
0.0
 11
346.687845
 21
568.302459
 31
0.0
  0
LINE
  5
1474
100
AcDbEntity
  8
15000_BACK
370
    25
390
0
  6
CENTER
 62
     7
100
AcDbLine
 10
346.687845
 20
568.302459
 30
0.0
 11
346.687757
 21
568.306522
 31
0.0
  0
LINE
  5
1475
100
AcDbEntity
  8
15000_BACK
370
    25
390
0
  6
CENTER
 62
     7
100
AcDbLine
 10
346.687757
 20
568.306522
 30
0.0
 11
346.687659
 21
568.310681
 31
0.0
  0
LINE
  5
1476
100
AcDbEntity
  8
15000_BACK
370
    25
390
0
  6
CENTER
 62
     7
100
AcDbLine
 10
346.687659
 20
568.310681
 30
0.0
 11
346.687553
 21
568.314923
 31
0.0
  0
LINE
  5
1477
100
AcDbEntity
  8
15000_BACK
370
    25
390
0
  6
CENTER
 62
     7
100
AcDbLine
 10
346.687553
 20
568.314923
 30
0.0
 11
346.687437
 21
568.319235
 31
0.0
  0
LINE
  5
1478
100
AcDbEntity
  8
15000_BACK
370
    25
390
0
  6
CENTER
 62
     7
100
AcDbLine
 10
346.687437
 20
568.319235
 30
0.0
 11
346.687312
 21
568.323601
 31
0.0
  0
LINE
  5
1479
100
AcDbEntity
  8
15000_BACK
370
    25
390
0
  6
CENTER
 62
     7
100
AcDbLine
 10
346.687312
 20
568.323601
 30
0.0
 11
346.687178
 21
568.328006
 31
0.0
  0
LINE
  5
147A
100
AcDbEntity
  8
15000_BACK
370
    25
390
0
  6
CENTER
 62
     7
100
AcDbLine
 10
346.687178
 20
568.328006
 30
0.0
 11
346.687036
 21
568.332432
 31
0.0
  0
LINE
  5
147B
100
AcDbEntity
  8
15000_BACK
370
    25
390
0
  6
CENTER
 62
     7
100
AcDbLine
 10
346.687036
 20
568.332432
 30
0.0
 11
346.686886
 21
568.336861
 31
0.0
  0
LINE
  5
147C
100
AcDbEntity
  8
15000_BACK
370
    25
390
0
  6
CENTER
 62
     7
100
AcDbLine
 10
346.686886
 20
568.336861
 30
0.0
 11
346.686729
 21
568.341275
 31
0.0
  0
LINE
  5
147D
100
AcDbEntity
  8
15000_BACK
370
    25
390
0
  6
CENTER
 62
     7
100
AcDbLine
 10
346.686729
 20
568.341275
 30
0.0
 11
346.686565
 21
568.345657
 31
0.0
  0
LINE
  5
147E
100
AcDbEntity
  8
15000_BACK
370
    25
390
0
  6
CENTER
 62
     7
100
AcDbLine
 10
346.686565
 20
568.345657
 30
0.0
 11
346.686395
 21
568.34999
 31
0.0
  0
LINE
  5
147F
100
AcDbEntity
  8
15000_BACK
370
    25
390
0
  6
CENTER
 62
     7
100
AcDbLine
 10
346.688396
 20
568.34999
 30
0.0
 11
346.688396
 21
568.24999
 31
0.0
  0
ARC
  5
1480
100
AcDbEntity
  8
15000_BACK
370
    25
390
0
  6
CENTER
 62
     7
100
AcDbCircle
 10
344.188396
 20
568.24999
 30
0.0
 40
2.5
100
AcDbArc
 50
0.0
 51
177.707557
  0
ARC
  5
1481
100
AcDbEntity
  8
15000_BACK
370
    25
390
0
  6
CENTER
 62
     7
100
AcDbCircle
 10
344.188396
 20
568.24999
 30
0.0
 40
2.5
100
AcDbArc
 50
177.707557
 51
180.0
  0
LINE
  5
1482
100
AcDbEntity
  8
15000_BACK
370
    25
390
0
  6
CENTER
 62
     7
100
AcDbLine
 10
341.688396
 20
568.24999
 30
0.0
 11
341.688396
 21
568.250084
 31
0.0
  0
LINE
  5
1483
100
AcDbEntity
  8
15000_BACK
370
    25
390
0
  6
CENTER
 62
     7
100
AcDbLine
 10
341.688396
 20
568.250084
 30
0.0
 11
341.688396
 21
568.250371
 31
0.0
  0
LINE
  5
1484
100
AcDbEntity
  8
15000_BACK
370
    25
390
0
  6
CENTER
 62
     7
100
AcDbLine
 10
341.688396
 20
568.250371
 30
0.0
 11
341.688396
 21
568.250857
 31
0.0
  0
LINE
  5
1485
100
AcDbEntity
  8
15000_BACK
370
    25
390
0
  6
CENTER
 62
     7
100
AcDbLine
 10
341.688396
 20
568.250857
 30
0.0
 11
341.688396
 21
568.251546
 31
0.0
  0
LINE
  5
1486
100
AcDbEntity
  8
15000_BACK
370
    25
390
0
  6
CENTER
 62
     7
100
AcDbLine
 10
341.688396
 20
568.251546
 30
0.0
 11
341.688397
 21
568.252439
 31
0.0
  0
LINE
  5
1487
100
AcDbEntity
  8
15000_BACK
370
    25
390
0
  6
CENTER
 62
     7
100
AcDbLine
 10
341.688397
 20
568.252439
 30
0.0
 11
341.688399
 21
568.253539
 31
0.0
  0
LINE
  5
1488
100
AcDbEntity
  8
15000_BACK
370
    25
390
0
  6
CENTER
 62
     7
100
AcDbLine
 10
341.688399
 20
568.253539
 30
0.0
 11
341.688401
 21
568.254842
 31
0.0
  0
LINE
  5
1489
100
AcDbEntity
  8
15000_BACK
370
    25
390
0
  6
CENTER
 62
     7
100
AcDbLine
 10
341.688401
 20
568.254842
 30
0.0
 11
341.688404
 21
568.256347
 31
0.0
  0
LINE
  5
148A
100
AcDbEntity
  8
15000_BACK
370
    25
390
0
  6
CENTER
 62
     7
100
AcDbLine
 10
341.688404
 20
568.256347
 30
0.0
 11
341.688409
 21
568.258048
 31
0.0
  0
LINE
  5
148B
100
AcDbEntity
  8
15000_BACK
370
    25
390
0
  6
CENTER
 62
     7
100
AcDbLine
 10
341.688409
 20
568.258048
 30
0.0
 11
341.688416
 21
568.259941
 31
0.0
  0
LINE
  5
148C
100
AcDbEntity
  8
15000_BACK
370
    25
390
0
  6
CENTER
 62
     7
100
AcDbLine
 10
341.688416
 20
568.259941
 30
0.0
 11
341.688425
 21
568.262019
 31
0.0
  0
LINE
  5
148D
100
AcDbEntity
  8
15000_BACK
370
    25
390
0
  6
CENTER
 62
     7
100
AcDbLine
 10
341.688425
 20
568.262019
 30
0.0
 11
341.688437
 21
568.264274
 31
0.0
  0
LINE
  5
148E
100
AcDbEntity
  8
15000_BACK
370
    25
390
0
  6
CENTER
 62
     7
100
AcDbLine
 10
341.688437
 20
568.264274
 30
0.0
 11
341.688452
 21
568.266694
 31
0.0
  0
LINE
  5
148F
100
AcDbEntity
  8
15000_BACK
370
    25
390
0
  6
CENTER
 62
     7
100
AcDbLine
 10
341.688452
 20
568.266694
 30
0.0
 11
341.68847
 21
568.269269
 31
0.0
  0
LINE
  5
1490
100
AcDbEntity
  8
15000_BACK
370
    25
390
0
  6
CENTER
 62
     7
100
AcDbLine
 10
341.68847
 20
568.269269
 30
0.0
 11
341.688493
 21
568.271984
 31
0.0
  0
LINE
  5
1491
100
AcDbEntity
  8
15000_BACK
370
    25
390
0
  6
CENTER
 62
     7
100
AcDbLine
 10
341.688493
 20
568.271984
 30
0.0
 11
341.688519
 21
568.274826
 31
0.0
  0
LINE
  5
1492
100
AcDbEntity
  8
15000_BACK
370
    25
390
0
  6
CENTER
 62
     7
100
AcDbLine
 10
341.688519
 20
568.274826
 30
0.0
 11
341.68855
 21
568.277777
 31
0.0
  0
LINE
  5
1493
100
AcDbEntity
  8
15000_BACK
370
    25
390
0
  6
CENTER
 62
     7
100
AcDbLine
 10
341.68855
 20
568.277777
 30
0.0
 11
341.688586
 21
568.280833
 31
0.0
  0
LINE
  5
1494
100
AcDbEntity
  8
15000_BACK
370
    25
390
0
  6
CENTER
 62
     7
100
AcDbLine
 10
341.688586
 20
568.280833
 30
0.0
 11
341.688628
 21
568.284052
 31
0.0
  0
LINE
  5
1495
100
AcDbEntity
  8
15000_BACK
370
    25
390
0
  6
CENTER
 62
     7
100
AcDbLine
 10
341.688628
 20
568.284052
 30
0.0
 11
341.688676
 21
568.287438
 31
0.0
  0
LINE
  5
1496
100
AcDbEntity
  8
15000_BACK
370
    25
390
0
  6
CENTER
 62
     7
100
AcDbLine
 10
341.688676
 20
568.287438
 30
0.0
 11
341.688732
 21
568.290984
 31
0.0
  0
LINE
  5
1497
100
AcDbEntity
  8
15000_BACK
370
    25
390
0
  6
CENTER
 62
     7
100
AcDbLine
 10
341.688732
 20
568.290984
 30
0.0
 11
341.688795
 21
568.294677
 31
0.0
  0
LINE
  5
1498
100
AcDbEntity
  8
15000_BACK
370
    25
390
0
  6
CENTER
 62
     7
100
AcDbLine
 10
341.688795
 20
568.294677
 30
0.0
 11
341.688867
 21
568.298506
 31
0.0
  0
LINE
  5
1499
100
AcDbEntity
  8
15000_BACK
370
    25
390
0
  6
CENTER
 62
     7
100
AcDbLine
 10
341.688867
 20
568.298506
 30
0.0
 11
341.688947
 21
568.302459
 31
0.0
  0
LINE
  5
149A
100
AcDbEntity
  8
15000_BACK
370
    25
390
0
  6
CENTER
 62
     7
100
AcDbLine
 10
341.688947
 20
568.302459
 30
0.0
 11
341.689035
 21
568.306522
 31
0.0
  0
LINE
  5
149B
100
AcDbEntity
  8
15000_BACK
370
    25
390
0
  6
CENTER
 62
     7
100
AcDbLine
 10
341.689035
 20
568.306522
 30
0.0
 11
341.689133
 21
568.310681
 31
0.0
  0
LINE
  5
149C
100
AcDbEntity
  8
15000_BACK
370
    25
390
0
  6
CENTER
 62
     7
100
AcDbLine
 10
341.689133
 20
568.310681
 30
0.0
 11
341.689239
 21
568.314923
 31
0.0
  0
LINE
  5
149D
100
AcDbEntity
  8
15000_BACK
370
    25
390
0
  6
CENTER
 62
     7
100
AcDbLine
 10
341.689239
 20
568.314923
 30
0.0
 11
341.689355
 21
568.319235
 31
0.0
  0
LINE
  5
149E
100
AcDbEntity
  8
15000_BACK
370
    25
390
0
  6
CENTER
 62
     7
100
AcDbLine
 10
341.689355
 20
568.319235
 30
0.0
 11
341.68948
 21
568.323601
 31
0.0
  0
LINE
  5
149F
100
AcDbEntity
  8
15000_BACK
370
    25
390
0
  6
CENTER
 62
     7
100
AcDbLine
 10
341.68948
 20
568.323601
 30
0.0
 11
341.689614
 21
568.328006
 31
0.0
  0
LINE
  5
14A0
100
AcDbEntity
  8
15000_BACK
370
    25
390
0
  6
CENTER
 62
     7
100
AcDbLine
 10
341.689614
 20
568.328006
 30
0.0
 11
341.689756
 21
568.332432
 31
0.0
  0
LINE
  5
14A1
100
AcDbEntity
  8
15000_BACK
370
    25
390
0
  6
CENTER
 62
     7
100
AcDbLine
 10
341.689756
 20
568.332432
 30
0.0
 11
341.689906
 21
568.336861
 31
0.0
  0
LINE
  5
14A2
100
AcDbEntity
  8
15000_BACK
370
    25
390
0
  6
CENTER
 62
     7
100
AcDbLine
 10
341.689906
 20
568.336861
 30
0.0
 11
341.690063
 21
568.341275
 31
0.0
  0
LINE
  5
14A3
100
AcDbEntity
  8
15000_BACK
370
    25
390
0
  6
CENTER
 62
     7
100
AcDbLine
 10
341.690063
 20
568.341275
 30
0.0
 11
341.690227
 21
568.345657
 31
0.0
  0
LINE
  5
14A4
100
AcDbEntity
  8
15000_BACK
370
    25
390
0
  6
CENTER
 62
     7
100
AcDbLine
 10
341.690227
 20
568.345657
 30
0.0
 11
341.690397
 21
568.34999
 31
0.0
  0
LINE
  5
14A5
100
AcDbEntity
  8
15000_BACK
370
    25
390
0
  6
CENTER
 62
     7
100
AcDbLine
 10
341.688396
 20
568.34999
 30
0.0
 11
341.688396
 21
568.24999
 31
0.0
  0
LINE
  5
14A6
100
AcDbEntity
  8
15000_BACK
370
    25
390
0
  6
CENTER
 62
     7
100
AcDbLine
 10
341.688396
 20
568.24999
 30
0.0
 11
333.188396
 21
568.24999
 31
0.0
  0
LINE
  5
14A7
100
AcDbEntity
  8
15000_BACK
370
    25
390
0
  6
CENTER
 62
     7
100
AcDbLine
 10
333.188395
 20
568.24999
 30
0.0
 11
333.188395
 21
566.649994
 31
0.0
  0
LINE
  5
14A8
100
AcDbEntity
  8
15000_BACK
370
    25
390
0
  6
CENTER
 62
     7
100
AcDbLine
 10
357.188396
 20
573.249987
 30
0.0
 11
357.188396
 21
413.24999
 31
0.0
  0
LINE
  5
14A9
100
AcDbEntity
  8
15000_BACK
370
    25
390
0
  6
CENTER
 62
     7
100
AcDbLine
 10
357.188396
 20
413.24999
 30
0.0
 11
302.188396
 21
413.24999
 31
0.0
  0
LINE
  5
14AA
100
AcDbEntity
  8
15000_BACK
370
    25
390
0
  6
CENTER
 62
     7
100
AcDbLine
 10
302.188396
 20
413.24999
 30
0.0
 11
302.188396
 21
573.249987
 31
0.0
  0
LINE
  5
14AB
100
AcDbEntity
  8
15000_BACK
370
    25
390
0
  6
CENTER
 62
     7
100
AcDbLine
 10
302.188396
 20
573.249987
 30
0.0
 11
357.188396
 21
573.249987
 31
0.0
  0
CIRCLE
  5
14AC
100
AcDbEntity
  8
15000_BACK
370
    25
390
0
  6
CENTER
 62
     7
100
AcDbCircle
 10
314.188396
 20
418.24999
 30
0.0
 40
2.5
  0
LINE
  5
14AD
100
AcDbEntity
  8
15100_BACK_DIM
370
    13
390
0
  6
CONTINUOUS
 62
     7
100
AcDbLine
 10
344.188397
 20
568.24999
 30
0.0
 11
344.188397
 21
592.24999
 31
0.0
  0
TEXT
  5
14AE
100
AcDbEntity
  8
15100_BACK_DIM
370
    13
390
0
  6
CONTINUOUS
 62
     7
100
AcDbText
 10
349.355064
 20
592.24999
 30
0.0
 40
2.0
  1
13
 72
     1
 11
350.688397
 21
592.24999
 31
0.0
100
AcDbText
  0
LINE
  5
14AF
100
AcDbEntity
  8
15100_BACK_DIM
370
    13
390
0
  6
CONTINUOUS
 62
     7
100
AcDbLine
 10
367.188397
 20
591.24999
 30
0.0
 11
334.188397
 21
591.24999
 31
0.0
  0
LINE
  5
14B0
100
AcDbEntity
  8
15100_BACK_DIM
370
    13
390
0
  6
CONTINUOUS
 62
     7
100
AcDbLine
 10
357.188397
 20
592.24999
 30
0.0
 11
357.188397
 21
573.24999
 31
0.0
  0
LINE
  5
14B1
100
AcDbEntity
  8
15100_BACK_DIM
370
    13
390
0
  6
CONTINUOUS
 62
     7
100
AcDbLine
 10
314.188397
 20
418.24999
 30
0.0
 11
314.188397
 21
584.24999
 31
0.0
  0
TEXT
  5
14B2
100
AcDbEntity
  8
15100_BACK_DIM
370
    13
390
0
  6
CONTINUOUS
 62
     7
100
AcDbText
 10
327.688397
 20
584.24999
 30
0.0
 40
2.0
  1
30
 72
     1
 11
329.188397
 21
584.24999
 31
0.0
100
AcDbText
  0
LINE
  5
14B3
100
AcDbEntity
  8
15100_BACK_DIM
370
    13
390
0
  6
CONTINUOUS
 62
     7
100
AcDbLine
 10
314.188397
 20
583.24999
 30
0.0
 11
344.188397
 21
583.24999
 31
0.0
  0
LINE
  5
14B4
100
AcDbEntity
  8
15100_BACK_DIM
370
    13
390
0
  6
CONTINUOUS
 62
     7
100
AcDbLine
 10
344.188397
 20
584.24999
 30
0.0
 11
344.188397
 21
568.24999
 31
0.0
  0
LINE
  5
14B5
100
AcDbEntity
  8
15100_BACK_DIM
370
    13
390
0
  6
CONTINUOUS
 62
     7
100
AcDbLine
 10
344.188397
 20
568.24999
 30
0.0
 11
368.188397
 21
568.24999
 31
0.0
  0
TEXT
  5
14B6
100
AcDbEntity
  8
15100_BACK_DIM
370
    13
390
0
  6
CONTINUOUS
 62
     7
100
AcDbText
 10
366.188397
 20
570.083323
 30
0.0
 40
2.0
  1
5
 50
90.0
 51
360.0
 72
     1
 11
366.188397
 21
570.74999
 31
0.0
100
AcDbText
  0
LINE
  5
14B7
100
AcDbEntity
  8
15100_BACK_DIM
370
    13
390
0
  6
CONTINUOUS
 62
     7
100
AcDbLine
 10
367.188397
 20
583.24999
 30
0.0
 11
367.188397
 21
558.24999
 31
0.0
  0
LINE
  5
14B8
100
AcDbEntity
  8
15100_BACK_DIM
370
    13
390
0
  6
CONTINUOUS
 62
     7
100
AcDbLine
 10
368.188397
 20
573.24999
 30
0.0
 11
357.188397
 21
573.24999
 31
0.0
  0
LINE
  5
14B9
100
AcDbEntity
  8
15100_BACK_DIM
370
    13
390
0
  6
CONTINUOUS
 62
     7
100
AcDbLine
 10
314.188397
 20
418.24999
 30
0.0
 11
368.188397
 21
418.24999
 31
0.0
  0
TEXT
  5
14BA
100
AcDbEntity
  8
15100_BACK_DIM
370
    13
390
0
  6
CONTINUOUS
 62
     7
100
AcDbText
 10
366.188397
 20
491.083323
 30
0.0
 40
2.0
  1
150
 50
90.0
 51
360.0
 72
     1
 11
366.188397
 21
493.24999
 31
0.0
100
AcDbText
  0
LINE
  5
14BB
100
AcDbEntity
  8
15100_BACK_DIM
370
    13
390
0
  6
CONTINUOUS
 62
     7
100
AcDbLine
 10
367.188397
 20
418.24999
 30
0.0
 11
367.188397
 21
568.24999
 31
0.0
  0
LINE
  5
14BC
100
AcDbEntity
  8
15100_BACK_DIM
370
    13
390
0
  6
CONTINUOUS
 62
     7
100
AcDbLine
 10
368.188397
 20
568.24999
 30
0.0
 11
344.188397
 21
568.24999
 31
0.0
  0
LINE
  5
14BD
100
AcDbEntity
  8
15100_BACK_DIM
370
    13
390
0
  6
CONTINUOUS
 62
     7
100
AcDbLine
 10
314.188397
 20
418.24999
 30
0.0
 11
309.188397
 21
410.24999
 31
0.0
  0
TEXT
  5
14BE
100
AcDbEntity
  8
15100_BACK_DIM
370
    13
390
0
  6
CONTINUOUS
 62
     7
100
AcDbText
 10
309.188397
 20
406.74999
 30
0.0
 40
2.0
  1
5
100
AcDbText
  0
CIRCLE
  5
14BF
100
AcDbEntity
  8
15100_BACK_DIM
370
    13
390
0
  6
CONTINUOUS
 62
     7
100
AcDbCircle
 10
307.788397
 20
407.62499
 30
0.0
 40
0.875
  0
LINE
  5
14C0
100
AcDbEntity
  8
15100_BACK_DIM
370
    13
390
0
  6
CONTINUOUS
 62
     7
100
AcDbLine
 10
306.913397
 20
406.74999
 30
0.0
 11
308.663397
 21
408.49999
 31
0.0
  0
SOLID
  5
14C1
100
AcDbEntity
  8
15100_BACK_DIM
370
    13
390
0
  6
CONTINUOUS
 62
     7
100
AcDbTrace
 10
339.188397
 20
590.24999
 30
0.0
 11
344.188397
 21
591.24999
 31
0.0
 12
339.188397
 22
592.24999
 32
0.0
 13
344.188397
 23
591.24999
 33
0.0
  0
SOLID
  5
14C2
100
AcDbEntity
  8
15100_BACK_DIM
370
    13
390
0
  6
CONTINUOUS
 62
     7
100
AcDbTrace
 10
362.188397
 20
592.24999
 30
0.0
 11
357.188397
 21
591.24999
 31
0.0
 12
362.188397
 22
590.24999
 32
0.0
 13
357.188397
 23
591.24999
 33
0.0
  0
SOLID
  5
14C3
100
AcDbEntity
  8
15100_BACK_DIM
370
    13
390
0
  6
CONTINUOUS
 62
     7
100
AcDbTrace
 10
319.188397
 20
584.24999
 30
0.0
 11
314.188397
 21
583.24999
 31
0.0
 12
319.188397
 22
582.24999
 32
0.0
 13
314.188397
 23
583.24999
 33
0.0
  0
SOLID
  5
14C4
100
AcDbEntity
  8
15100_BACK_DIM
370
    13
390
0
  6
CONTINUOUS
 62
     7
100
AcDbTrace
 10
339.188397
 20
582.24999
 30
0.0
 11
344.188397
 21
583.24999
 31
0.0
 12
339.188397
 22
584.24999
 32
0.0
 13
344.188397
 23
583.24999
 33
0.0
  0
SOLID
  5
14C5
100
AcDbEntity
  8
15100_BACK_DIM
370
    13
390
0
  6
CONTINUOUS
 62
     7
100
AcDbTrace
 10
368.188397
 20
563.24999
 30
0.0
 11
367.188397
 21
568.24999
 31
0.0
 12
366.188397
 22
563.24999
 32
0.0
 13
367.188397
 23
568.24999
 33
0.0
  0
SOLID
  5
14C6
100
AcDbEntity
  8
15100_BACK_DIM
370
    13
390
0
  6
CONTINUOUS
 62
     7
100
AcDbTrace
 10
366.188397
 20
578.24999
 30
0.0
 11
367.188397
 21
573.24999
 31
0.0
 12
368.188397
 22
578.24999
 32
0.0
 13
367.188397
 23
573.24999
 33
0.0
  0
SOLID
  5
14C7
100
AcDbEntity
  8
15100_BACK_DIM
370
    13
390
0
  6
CONTINUOUS
 62
     7
100
AcDbTrace
 10
366.188397
 20
423.24999
 30
0.0
 11
367.188397
 21
418.24999
 31
0.0
 12
368.188397
 22
423.24999
 32
0.0
 13
367.188397
 23
418.24999
 33
0.0
  0
LINE
  5
14C8
100
AcDbEntity
  8
15100_BACK_DIM
370
    13
390
0
  6
CONTINUOUS
 62
     7
100
AcDbLine
 10
366.188397
 20
563.24999
 30
0.0
 11
368.188397
 21
563.24999
 31
0.0
  0
LINE
  5
14C9
100
AcDbEntity
  8
15100_BACK_DIM
370
    13
390
0
  6
CONTINUOUS
 62
     7
100
AcDbLine
 10
368.188397
 20
563.24999
 30
0.0
 11
367.188397
 21
568.24999
 31
0.0
  0
LINE
  5
14CA
100
AcDbEntity
  8
15100_BACK_DIM
370
    13
390
0
  6
CONTINUOUS
 62
     7
100
AcDbLine
 10
366.188397
 20
563.24999
 30
0.0
 11
367.188397
 21
568.24999
 31
0.0
  0
LINE
  5
14CB
100
AcDbEntity
  8
90000_FRAME
370
    13
  6
CONTINUOUS
 62
     7
100
AcDbLine
 10
152.112216
 20
178.490575
 30
0.0
 11
152.112216
 21
988.490575
 31
0.0
  0
LINE
  5
14CC
100
AcDbEntity
  8
90000_FRAME
370
    13
  6
CONTINUOUS
 62
     7
100
AcDbLine
 10
752.112216
 20
988.490575
 30
0.0
 11
152.112216
 21
988.490575
 31
0.0
  0
LINE
  5
14CD
100
AcDbEntity
  8
91000_TIP
370
    13
  6
CONTINUOUS
 62
     7
100
AcDbLine
 10
246.250598
 20
227.120848
 30
0.0
 11
276.250598
 21
234.620848
 31
0.0
  0
LINE
  5
14CE
100
AcDbEntity
  8
91000_TIP
370
    13
  6
CONTINUOUS
 62
     7
100
AcDbLine
 10
242.412067
 20
219.620848
 30
0.0
 11
313.218035
 21
219.620848
 31
0.0
  0
LINE
  5
14CF
100
AcDbEntity
  8
91000_TIP
370
    13
  6
CONTINUOUS
 62
     7
100
AcDbLine
 10
246.250598
 20
212.120848
 30
0.0
 11
276.250598
 21
204.620848
 31
0.0
  0
LINE
  5
14D0
100
AcDbEntity
  8
91000_TIP
370
    13
  6
CONTINUOUS
 62
     7
100
AcDbLine
 10
246.250598
 20
227.120848
 30
0.0
 11
246.250598
 21
212.120848
 31
0.0
  0
LINE
  5
14D1
100
AcDbEntity
  8
91000_TIP
370
    13
  6
CONTINUOUS
 62
     7
100
AcDbLine
 10
276.250598
 20
234.620848
 30
0.0
 11
276.250598
 21
204.620848
 31
0.0
  0
LINE
  5
14D2
100
AcDbEntity
  8
91000_TIP
370
    13
  6
CONTINUOUS
 62
     7
100
AcDbLine
 10
295.750597
 20
202.456404
 30
0.0
 11
295.750597
 21
236.306562
 31
0.0
  0
CIRCLE
  5
14D3
100
AcDbEntity
  8
91000_TIP
370
    13
  6
CONTINUOUS
 62
     7
100
AcDbCircle
 10
295.750597
 20
219.620848
 30
0.0
 40
15.0
  0
CIRCLE
  5
14D4
100
AcDbEntity
  8
91000_TIP
370
    13
  6
CONTINUOUS
 62
     7
100
AcDbCircle
 10
295.750597
 20
219.620848
 30
0.0
 40
7.5
  0
TEXT
  5
14D5
100
AcDbEntity
  8
90000_FRAME
370
    13
  6
CONTINUOUS
 62
     7
100
AcDbText
 10
333.790838
 20
252.823687
 30
0.0
 40
6.6
  1
All dimensions are in millimeters (mm)
 41
0.961374
100
AcDbText
  0
TEXT
  5
14D6
100
AcDbEntity
  8
90000_FRAME
370
    13
  6
CONTINUOUS
 62
     7
100
AcDbText
 10
333.790838
 20
262.210754
 30
0.0
 40
6.6
  1
Alle Bemassungswerte sind in Millimeter (mm) angegeben.
 41
0.825144
100
AcDbText
  0
LINE
  5
14D7
100
AcDbEntity
  8
90000_FRAME
370
    13
  6
CONTINUOUS
 62
     7
100
AcDbLine
 10
752.112216
 20
178.490575
 30
0.0
 11
752.112216
 21
988.490575
 31
0.0
  0
LINE
  5
14D8
100
AcDbEntity
  8
90000_FRAME
370
    13
  6
CONTINUOUS
 62
     7
100
AcDbLine
 10
752.112216
 20
178.490575
 30
0.0
 11
152.112216
 21
178.490575
 31
0.0
  0
TEXT
  5
14D9
100
AcDbEntity
  8
90000_FRAME
370
    13
  6
CONTINUOUS
 62
     7
100
AcDbText
 10
486.456466
 20
231.6
 30
0.0
 40
9.0
  1

 41
0.784213
100
AcDbText
  0
TEXT
  5
14DA
100
AcDbEntity
  8
90000_FRAME
370
    13
  6
CONTINUOUS
 62
     7
100
AcDbText
 10
611.592216
 20
199.190575
 30
0.0
 40
6.6
  1
Massstab/Scale:
 41
0.9
100
AcDbText
  0
TEXT
  5
14DB
100
AcDbEntity
  8
90000_FRAME
370
    13
  6
CONTINUOUS
 62
     7
100
AcDbText
 10
486.0
 20
199.190575
 30
0.0
 40
6.6
  1
Format/Size: DIN A4
 41
0.803258
100
AcDbText
  0
LINE
  5
14DC
100
AcDbEntity
  8
90000_FRAME
370
    13
  6
CONTINUOUS
 62
     7
100
AcDbLine
 10
737.112216
 20
193.490575
 30
0.0
 11
737.112216
 21
247.490575
 31
0.0
  0
LINE
  5
14DD
100
AcDbEntity
  8
90000_FRAME
370
    13
  6
CONTINUOUS
 62
     7
100
AcDbLine
 10
609.612216
 20
193.490575
 30
0.0
 11
609.612216
 21
211.490575
 31
0.0
  0
LINE
  5
14DE
100
AcDbEntity
  8
90000_FRAME
370
    13
  6
CONTINUOUS
 62
     7
100
AcDbLine
 10
482.112216
 20
193.490575
 30
0.0
 11
482.112216
 21
247.490575
 31
0.0
  0
LINE
  5
14DF
100
AcDbEntity
  8
90000_FRAME
370
    13
  6
CONTINUOUS
 62
     7
100
AcDbLine
 10
332.112216
 20
247.490575
 30
0.0
 11
737.112216
 21
247.490575
 31
0.0
  0
LINE
  5
14E0
100
AcDbEntity
  8
90000_FRAME
370
    13
  6
CONTINUOUS
 62
     7
100
AcDbLine
 10
482.112216
 20
211.490575
 30
0.0
 11
737.112216
 21
211.490575
 31
0.0
  0
LINE
  5
14E1
100
AcDbEntity
  8
90000_FRAME
370
    13
  6
CONTINUOUS
 62
     7
100
AcDbLine
 10
332.112216
 20
193.490575
 30
0.0
 11
332.112216
 21
247.490575
 31
0.0
  0
LINE
  5
14E2
100
AcDbEntity
  8
90000_FRAME
370
    13
  6
CONTINUOUS
 62
     7
100
AcDbLine
 10
332.112216
 20
193.490575
 30
0.0
 11
737.112216
 21
193.490575
 31
0.0
  0
LINE
  5
14E3
100
AcDbEntity
  8
90000_FRAME
370
    13
  6
CONTINUOUS
 62
     7
100
AcDbLine
 10
374.670817
 20
227.734219
 30
0.0
 11
374.670817
 21
213.474411
 31
0.0
  0
LINE
  5
14E4
100
AcDbEntity
  8
90000_FRAME
370
    13
  6
CONTINUOUS
 62
     7
100
AcDbLine
 10
378.948759
 20
227.734219
 30
0.0
 11
378.948759
 21
213.474411
 31
0.0
  0
LINE
  5
14E5
100
AcDbEntity
  8
90000_FRAME
370
    13
  6
CONTINUOUS
 62
     7
100
AcDbLine
 10
374.670817
 20
213.474411
 30
0.0
 11
378.948759
 21
213.474411
 31
0.0
  0
LINE
  5
14E6
100
AcDbEntity
  8
90000_FRAME
370
    13
  6
CONTINUOUS
 62
     7
100
AcDbLine
 10
374.670817
 20
227.734219
 30
0.0
 11
378.948759
 21
227.734219
 31
0.0
  0
LINE
  5
14E7
100
AcDbEntity
  8
90000_FRAME
370
    13
  6
CONTINUOUS
 62
     7
100
AcDbLine
 10
382.228515
 20
227.734219
 30
0.0
 11
382.228515
 21
213.474411
 31
0.0
  0
LINE
  5
14E8
100
AcDbEntity
  8
90000_FRAME
370
    13
  6
CONTINUOUS
 62
     7
100
AcDbLine
 10
382.228515
 20
213.474411
 30
0.0
 11
392.923371
 21
213.474411
 31
0.0
  0
LINE
  5
14E9
100
AcDbEntity
  8
90000_FRAME
370
    13
  6
CONTINUOUS
 62
     7
100
AcDbLine
 10
392.923371
 20
216.183775
 30
0.0
 11
386.363859
 21
216.183775
 31
0.0
  0
LINE
  5
14EA
100
AcDbEntity
  8
90000_FRAME
370
    13
  6
CONTINUOUS
 62
     7
100
AcDbLine
 10
392.923371
 20
216.183775
 30
0.0
 11
392.923371
 21
213.474411
 31
0.0
  0
LINE
  5
14EB
100
AcDbEntity
  8
90000_FRAME
370
    13
  6
CONTINUOUS
 62
     7
100
AcDbLine
 10
392.780772
 20
227.734219
 30
0.0
 11
382.228515
 21
227.734219
 31
0.0
  0
LINE
  5
14EC
100
AcDbEntity
  8
90000_FRAME
370
    13
  6
CONTINUOUS
 62
     7
100
AcDbLine
 10
392.780772
 20
225.096154
 30
0.0
 11
386.363859
 21
225.096154
 31
0.0
  0
LINE
  5
14ED
100
AcDbEntity
  8
90000_FRAME
370
    13
  6
CONTINUOUS
 62
     7
100
AcDbLine
 10
392.780772
 20
227.734219
 30
0.0
 11
392.780772
 21
225.096154
 31
0.0
  0
LINE
  5
14EE
100
AcDbEntity
  8
90000_FRAME
370
    13
  6
CONTINUOUS
 62
     7
100
AcDbLine
 10
391.925184
 20
219.534829
 30
0.0
 11
386.363859
 21
219.534829
 31
0.0
  0
LINE
  5
14EF
100
AcDbEntity
  8
90000_FRAME
370
    13
  6
CONTINUOUS
 62
     7
100
AcDbLine
 10
391.925184
 20
221.887698
 30
0.0
 11
391.925184
 21
219.534829
 31
0.0
  0
LINE
  5
14F0
100
AcDbEntity
  8
90000_FRAME
370
    13
  6
CONTINUOUS
 62
     7
100
AcDbLine
 10
391.925184
 20
221.887698
 30
0.0
 11
386.363859
 21
221.887698
 31
0.0
  0
LINE
  5
14F1
100
AcDbEntity
  8
90000_FRAME
370
    13
  6
CONTINUOUS
 62
     7
100
AcDbLine
 10
386.363859
 20
225.096154
 30
0.0
 11
386.363859
 21
221.887698
 31
0.0
  0
LINE
  5
14F2
100
AcDbEntity
  8
90000_FRAME
370
    13
  6
CONTINUOUS
 62
     7
100
AcDbLine
 10
386.363859
 20
219.534829
 30
0.0
 11
386.363859
 21
216.183775
 31
0.0
  0
LINE
  5
14F3
100
AcDbEntity
  8
90000_FRAME
370
    13
  6
CONTINUOUS
 62
     7
100
AcDbLine
 10
395.347538
 20
213.474411
 30
0.0
 11
395.347538
 21
227.734219
 31
0.0
  0
LINE
  5
14F4
100
AcDbEntity
  8
90000_FRAME
370
    13
  6
CONTINUOUS
 62
     7
100
AcDbLine
 10
395.347538
 20
213.474411
 30
0.0
 11
398.199499
 21
213.474411
 31
0.0
  0
LINE
  5
14F5
100
AcDbEntity
  8
90000_FRAME
370
    13
  6
CONTINUOUS
 62
     7
100
AcDbLine
 10
412.887101
 20
227.734219
 30
0.0
 11
412.887101
 21
213.474411
 31
0.0
  0
LINE
  5
14F6
100
AcDbEntity
  8
90000_FRAME
370
    13
  6
CONTINUOUS
 62
     7
100
AcDbLine
 10
412.887101
 20
213.474411
 30
0.0
 11
408.751757
 21
213.474411
 31
0.0
  0
LINE
  5
14F7
100
AcDbEntity
  8
90000_FRAME
370
    13
  6
CONTINUOUS
 62
     7
100
AcDbLine
 10
402.192245
 20
213.331813
 30
0.0
 11
404.759011
 21
213.331813
 31
0.0
  0
LINE
  5
14F8
100
AcDbEntity
  8
90000_FRAME
370
    13
  6
CONTINUOUS
 62
     7
100
AcDbLine
 10
402.192245
 20
213.331813
 30
0.0
 11
398.199499
 21
222.600688
 31
0.0
  0
LINE
  5
14F9
100
AcDbEntity
  8
90000_FRAME
370
    13
  6
CONTINUOUS
 62
     7
100
AcDbLine
 10
398.199499
 20
213.474411
 30
0.0
 11
398.199499
 21
222.600688
 31
0.0
  0
LINE
  5
14FA
100
AcDbEntity
  8
90000_FRAME
370
    13
  6
CONTINUOUS
 62
     7
100
AcDbLine
 10
408.751757
 20
222.743286
 30
0.0
 11
404.759011
 21
213.331813
 31
0.0
  0
LINE
  5
14FB
100
AcDbEntity
  8
90000_FRAME
370
    13
  6
CONTINUOUS
 62
     7
100
AcDbLine
 10
400.481068
 20
227.734219
 30
0.0
 11
395.347538
 21
227.734219
 31
0.0
  0
LINE
  5
14FC
100
AcDbEntity
  8
90000_FRAME
370
    13
  6
CONTINUOUS
 62
     7
100
AcDbLine
 10
412.887101
 20
227.734219
 30
0.0
 11
407.75357
 21
227.734219
 31
0.0
  0
LINE
  5
14FD
100
AcDbEntity
  8
90000_FRAME
370
    13
  6
CONTINUOUS
 62
     7
100
AcDbLine
 10
400.481068
 20
227.734219
 30
0.0
 11
404.188618
 21
219.035736
 31
0.0
  0
LINE
  5
14FE
100
AcDbEntity
  8
90000_FRAME
370
    13
  6
CONTINUOUS
 62
     7
100
AcDbLine
 10
407.75357
 20
227.734219
 30
0.0
 11
404.188618
 21
219.035736
 31
0.0
  0
LINE
  5
14FF
100
AcDbEntity
  8
90000_FRAME
370
    13
  6
CONTINUOUS
 62
     7
100
AcDbLine
 10
408.751757
 20
222.743286
 30
0.0
 11
408.751757
 21
213.474411
 31
0.0
  0
LINE
  5
1500
100
AcDbEntity
  8
90000_FRAME
370
    13
  6
CONTINUOUS
 62
     7
100
AcDbLine
 10
416.166856
 20
227.734219
 30
0.0
 11
416.166856
 21
213.474411
 31
0.0
  0
LINE
  5
1501
100
AcDbEntity
  8
90000_FRAME
370
    13
  6
CONTINUOUS
 62
     7
100
AcDbLine
 10
416.166856
 20
213.474411
 30
0.0
 11
426.861712
 21
213.474411
 31
0.0
  0
LINE
  5
1502
100
AcDbEntity
  8
90000_FRAME
370
    13
  6
CONTINUOUS
 62
     7
100
AcDbLine
 10
426.861712
 20
216.183775
 30
0.0
 11
420.3022
 21
216.183775
 31
0.0
  0
LINE
  5
1503
100
AcDbEntity
  8
90000_FRAME
370
    13
  6
CONTINUOUS
 62
     7
100
AcDbLine
 10
426.861712
 20
216.183775
 30
0.0
 11
426.861712
 21
213.474411
 31
0.0
  0
LINE
  5
1504
100
AcDbEntity
  8
90000_FRAME
370
    13
  6
CONTINUOUS
 62
     7
100
AcDbLine
 10
426.719114
 20
227.734219
 30
0.0
 11
416.166856
 21
227.734219
 31
0.0
  0
LINE
  5
1505
100
AcDbEntity
  8
90000_FRAME
370
    13
  6
CONTINUOUS
 62
     7
100
AcDbLine
 10
426.719114
 20
225.096154
 30
0.0
 11
420.3022
 21
225.096154
 31
0.0
  0
LINE
  5
1506
100
AcDbEntity
  8
90000_FRAME
370
    13
  6
CONTINUOUS
 62
     7
100
AcDbLine
 10
426.719114
 20
227.734219
 30
0.0
 11
426.719114
 21
225.096154
 31
0.0
  0
LINE
  5
1507
100
AcDbEntity
  8
90000_FRAME
370
    13
  6
CONTINUOUS
 62
     7
100
AcDbLine
 10
425.863525
 20
219.534829
 30
0.0
 11
420.3022
 21
219.534829
 31
0.0
  0
LINE
  5
1508
100
AcDbEntity
  8
90000_FRAME
370
    13
  6
CONTINUOUS
 62
     7
100
AcDbLine
 10
425.863525
 20
221.887698
 30
0.0
 11
425.863525
 21
219.534829
 31
0.0
  0
LINE
  5
1509
100
AcDbEntity
  8
90000_FRAME
370
    13
  6
CONTINUOUS
 62
     7
100
AcDbLine
 10
425.863525
 20
221.887698
 30
0.0
 11
420.3022
 21
221.887698
 31
0.0
  0
LINE
  5
150A
100
AcDbEntity
  8
90000_FRAME
370
    13
  6
CONTINUOUS
 62
     7
100
AcDbLine
 10
420.3022
 20
225.096154
 30
0.0
 11
420.3022
 21
221.887698
 31
0.0
  0
LINE
  5
150B
100
AcDbEntity
  8
90000_FRAME
370
    13
  6
CONTINUOUS
 62
     7
100
AcDbLine
 10
420.3022
 20
219.534829
 30
0.0
 11
420.3022
 21
216.183775
 31
0.0
  0
LINE
  5
150C
100
AcDbEntity
  8
90000_FRAME
370
    13
  6
CONTINUOUS
 62
     7
100
AcDbLine
 10
429.21458
 20
213.474411
 30
0.0
 11
429.21458
 21
227.734219
 31
0.0
  0
LINE
  5
150D
100
AcDbEntity
  8
90000_FRAME
370
    13
  6
CONTINUOUS
 62
     7
100
AcDbLine
 10
441.76321
 20
227.734219
 30
0.0
 11
441.76321
 21
213.474411
 31
0.0
  0
LINE
  5
150E
100
AcDbEntity
  8
90000_FRAME
370
    13
  6
CONTINUOUS
 62
     7
100
AcDbLine
 10
429.21458
 20
213.474411
 30
0.0
 11
432.066541
 21
213.474411
 31
0.0
  0
LINE
  5
150F
100
AcDbEntity
  8
90000_FRAME
370
    13
  6
CONTINUOUS
 62
     7
100
AcDbLine
 10
441.76321
 20
227.734219
 30
0.0
 11
438.911249
 21
227.734219
 31
0.0
  0
LINE
  5
1510
100
AcDbEntity
  8
90000_FRAME
370
    13
  6
CONTINUOUS
 62
     7
100
AcDbLine
 10
433.849017
 20
227.734219
 30
0.0
 11
429.21458
 21
227.734219
 31
0.0
  0
LINE
  5
1511
100
AcDbEntity
  8
90000_FRAME
370
    13
  6
CONTINUOUS
 62
     7
100
AcDbLine
 10
441.76321
 20
213.474411
 30
0.0
 11
437.200072
 21
213.474411
 31
0.0
  0
LINE
  5
1512
100
AcDbEntity
  8
90000_FRAME
370
    13
  6
CONTINUOUS
 62
     7
100
AcDbLine
 10
437.200072
 20
213.474411
 30
0.0
 11
432.066541
 21
222.600688
 31
0.0
  0
LINE
  5
1513
100
AcDbEntity
  8
90000_FRAME
370
    13
  6
CONTINUOUS
 62
     7
100
AcDbLine
 10
433.849017
 20
227.734219
 30
0.0
 11
438.911249
 21
218.893138
 31
0.0
  0
LINE
  5
1514
100
AcDbEntity
  8
90000_FRAME
370
    13
  6
CONTINUOUS
 62
     7
100
AcDbLine
 10
438.911249
 20
227.734219
 30
0.0
 11
438.911249
 21
218.893138
 31
0.0
  0
LINE
  5
1515
100
AcDbEntity
  8
90000_FRAME
370
    13
  6
CONTINUOUS
 62
     7
100
AcDbLine
 10
432.066541
 20
213.474411
 30
0.0
 11
432.066541
 21
222.600688
 31
0.0
  0
LINE
  5
1516
100
AcDbEntity
  8
90000_FRAME
370
    13
  6
CONTINUOUS
 62
     7
100
AcDbLine
 10
444.187378
 20
213.759607
 30
0.0
 11
444.187378
 21
216.611569
 31
0.0
  0
LINE
  5
1517
100
AcDbEntity
  8
90000_FRAME
370
    13
  6
CONTINUOUS
 62
     7
100
AcDbLine
 10
454.169243
 20
224.739659
 30
0.0
 11
454.169243
 21
227.591621
 31
0.0
  0
ARC
  5
1518
100
AcDbEntity
  8
90000_FRAME
370
    13
  6
CONTINUOUS
 62
     7
100
AcDbCircle
 10
449.301301
 20
219.345887
 30
0.0
 40
3.334858
100
AcDbArc
 50
277.709996
 51
295.688493
  0
ARC
  5
1519
100
AcDbEntity
  8
90000_FRAME
370
    13
  6
CONTINUOUS
 62
     7
100
AcDbCircle
 10
450.154231
 20
217.17141
 30
0.0
 40
1.020507
100
AcDbArc
 50
305.503221
 51
72.46529
  0
ARC
  5
151A
100
AcDbEntity
  8
90000_FRAME
370
    13
  6
CONTINUOUS
 62
     7
100
AcDbCircle
 10
448.456249
 20
227.37653
 30
0.0
 40
14.270384
100
AcDbArc
 50
252.59392
 51
280.98166
  0
ARC
  5
151B
100
AcDbEntity
  8
90000_FRAME
370
    13
  6
CONTINUOUS
 62
     7
100
AcDbCircle
 10
449.820756
 20
219.522489
 30
0.0
 40
6.30218
100
AcDbArc
 50
282.405836
 51
311.864443
  0
ARC
  5
151C
100
AcDbEntity
  8
90000_FRAME
370
    13
  6
CONTINUOUS
 62
     7
100
AcDbCircle
 10
449.000063
 20
224.347514
 30
0.0
 40
0.908888
100
AcDbArc
 50
154.440035
 51
221.82017
  0
ARC
  5
151D
100
AcDbEntity
  8
90000_FRAME
370
    13
  6
CONTINUOUS
 62
     7
100
AcDbCircle
 10
449.237726
 20
224.109851
 30
0.0
 40
1.230927
100
AcDbArc
 50
102.828783
 51
149.225964
  0
ARC
  5
151E
100
AcDbEntity
  8
90000_FRAME
370
    13
  6
CONTINUOUS
 62
     7
100
AcDbCircle
 10
450.488806
 20
218.882845
 30
0.0
 40
6.60551
100
AcDbArc
 50
84.040006
 51
103.342766
  0
ARC
  5
151F
100
AcDbEntity
  8
90000_FRAME
370
    13
  6
CONTINUOUS
 62
     7
100
AcDbCircle
 10
449.465915
 20
211.630753
 30
0.0
 40
13.927121
100
AcDbArc
 50
70.262586
 51
82.952419
  0
ARC
  5
1520
100
AcDbEntity
  8
90000_FRAME
370
    13
  6
CONTINUOUS
 62
     7
100
AcDbCircle
 10
447.92386
 20
225.645622
 30
0.0
 40
9.776268
100
AcDbArc
 50
247.530021
 51
280.757952
  0
ARC
  5
1521
100
AcDbEntity
  8
90000_FRAME
370
    13
  6
CONTINUOUS
 62
     7
100
AcDbCircle
 10
428.768961
 20
170.891062
 30
0.0
 40
51.994825
100
AcDbArc
 50
65.341467
 51
67.399777
  0
ARC
  5
1522
100
AcDbEntity
  8
90000_FRAME
370
    13
  6
CONTINUOUS
 62
     7
100
AcDbCircle
 10
461.156548
 20
248.268341
 30
0.0
 40
31.887493
100
AcDbArc
 50
242.86201
 51
247.104203
  0
ARC
  5
1523
100
AcDbEntity
  8
90000_FRAME
370
    13
  6
CONTINUOUS
 62
     7
100
AcDbCircle
 10
449.591845
 20
225.666547
 30
0.0
 40
6.498875
100
AcDbArc
 50
227.311928
 51
242.704032
  0
ARC
  5
1524
100
AcDbEntity
  8
90000_FRAME
370
    13
  6
CONTINUOUS
 62
     7
100
AcDbCircle
 10
447.779752
 20
223.549514
 30
0.0
 40
3.715565
100
AcDbArc
 50
194.795219
 51
225.717655
  0
ARC
  5
1525
100
AcDbEntity
  8
90000_FRAME
370
    13
  6
CONTINUOUS
 62
     7
100
AcDbCircle
 10
447.966226
 20
223.670174
 30
0.0
 40
3.927276
100
AcDbArc
 50
164.197486
 51
195.802514
  0
ARC
  5
1526
100
AcDbEntity
  8
90000_FRAME
370
    13
  6
CONTINUOUS
 62
     7
100
AcDbCircle
 10
449.637298
 20
221.005372
 30
0.0
 40
7.100774
100
AcDbArc
 50
86.221802
 51
120.42726
  0
ARC
  5
1527
100
AcDbEntity
  8
90000_FRAME
370
    13
  6
CONTINUOUS
 62
     7
100
AcDbCircle
 10
448.830727
 20
200.916869
 30
0.0
 40
27.203715
100
AcDbArc
 50
78.682705
 51
87.31476
  0
ARC
  5
1528
100
AcDbEntity
  8
90000_FRAME
370
    13
  6
CONTINUOUS
 62
     7
100
AcDbCircle
 10
447.46252
 20
223.992697
 30
0.0
 40
3.359242
100
AcDbArc
 50
142.813918
 51
167.152295
  0
ARC
  5
1529
100
AcDbEntity
  8
90000_FRAME
370
    13
  6
CONTINUOUS
 62
     7
100
AcDbCircle
 10
448.498448
 20
223.072952
 30
0.0
 40
4.74164
100
AcDbArc
 50
121.214095
 51
141.525477
  0
ARC
  5
152A
100
AcDbEntity
  8
90000_FRAME
370
    13
  6
CONTINUOUS
 62
     7
100
AcDbCircle
 10
450.229971
 20
225.506124
 30
0.0
 40
2.598383
100
AcDbArc
 50
222.776039
 51
239.036243
  0
ARC
  5
152B
100
AcDbEntity
  8
90000_FRAME
370
    13
  6
CONTINUOUS
 62
     7
100
AcDbCircle
 10
442.709842
 20
203.515307
 30
0.0
 40
20.576321
100
AcDbArc
 50
59.902027
 51
68.203648
  0
ARC
  5
152C
100
AcDbEntity
  8
90000_FRAME
370
    13
  6
CONTINUOUS
 62
     7
100
AcDbCircle
 10
452.935326
 20
230.292967
 30
0.0
 40
8.096223
100
AcDbArc
 50
240.0482
 51
251.377967
  0
ARC
  5
152D
100
AcDbEntity
  8
90000_FRAME
370
    13
  6
CONTINUOUS
 62
     7
100
AcDbCircle
 10
450.938954
 20
217.822271
 30
0.0
 40
4.300342
100
AcDbArc
 50
315.890455
 51
333.522926
  0
ARC
  5
152E
100
AcDbEntity
  8
90000_FRAME
370
    13
  6
CONTINUOUS
 62
     7
100
AcDbCircle
 10
450.952869
 20
217.662049
 30
0.0
 40
4.218686
100
AcDbArc
 50
335.386797
 51
24.391512
  0
ARC
  5
152F
100
AcDbEntity
  8
90000_FRAME
370
    13
  6
CONTINUOUS
 62
     7
100
AcDbCircle
 10
450.736254
 20
217.428479
 30
0.0
 40
4.514108
100
AcDbArc
 50
25.956292
 51
59.483483
  0
LINE
  5
1530
100
AcDbEntity
  8
90000_FRAME
370
    13
  6
CONTINUOUS
 62
     7
100
AcDbLine
 10
361.409196
 20
213.759607
 30
0.0
 11
361.409196
 21
216.611569
 31
0.0
  0
LINE
  5
1531
100
AcDbEntity
  8
90000_FRAME
370
    13
  6
CONTINUOUS
 62
     7
100
AcDbLine
 10
371.391062
 20
224.739659
 30
0.0
 11
371.391062
 21
227.591621
 31
0.0
  0
ARC
  5
1532
100
AcDbEntity
  8
90000_FRAME
370
    13
  6
CONTINUOUS
 62
     7
100
AcDbCircle
 10
366.52312
 20
219.345887
 30
0.0
 40
3.334858
100
AcDbArc
 50
277.709996
 51
295.688493
  0
ARC
  5
1533
100
AcDbEntity
  8
90000_FRAME
370
    13
  6
CONTINUOUS
 62
     7
100
AcDbCircle
 10
367.37605
 20
217.17141
 30
0.0
 40
1.020507
100
AcDbArc
 50
305.503221
 51
72.46529
  0
ARC
  5
1534
100
AcDbEntity
  8
90000_FRAME
370
    13
  6
CONTINUOUS
 62
     7
100
AcDbCircle
 10
365.678068
 20
227.37653
 30
0.0
 40
14.270384
100
AcDbArc
 50
252.59392
 51
280.98166
  0
ARC
  5
1535
100
AcDbEntity
  8
90000_FRAME
370
    13
  6
CONTINUOUS
 62
     7
100
AcDbCircle
 10
367.042574
 20
219.522489
 30
0.0
 40
6.30218
100
AcDbArc
 50
282.405836
 51
311.864443
  0
ARC
  5
1536
100
AcDbEntity
  8
90000_FRAME
370
    13
  6
CONTINUOUS
 62
     7
100
AcDbCircle
 10
366.221881
 20
224.347514
 30
0.0
 40
0.908888
100
AcDbArc
 50
154.440035
 51
221.82017
  0
ARC
  5
1537
100
AcDbEntity
  8
90000_FRAME
370
    13
  6
CONTINUOUS
 62
     7
100
AcDbCircle
 10
366.459545
 20
224.109851
 30
0.0
 40
1.230927
100
AcDbArc
 50
102.828783
 51
149.225964
  0
ARC
  5
1538
100
AcDbEntity
  8
90000_FRAME
370
    13
  6
CONTINUOUS
 62
     7
100
AcDbCircle
 10
367.710625
 20
218.882845
 30
0.0
 40
6.60551
100
AcDbArc
 50
84.040006
 51
103.342766
  0
ARC
  5
1539
100
AcDbEntity
  8
90000_FRAME
370
    13
  6
CONTINUOUS
 62
     7
100
AcDbCircle
 10
366.687734
 20
211.630753
 30
0.0
 40
13.927121
100
AcDbArc
 50
70.262586
 51
82.952419
  0
ARC
  5
153A
100
AcDbEntity
  8
90000_FRAME
370
    13
  6
CONTINUOUS
 62
     7
100
AcDbCircle
 10
365.145679
 20
225.645622
 30
0.0
 40
9.776268
100
AcDbArc
 50
247.530021
 51
280.757952
  0
ARC
  5
153B
100
AcDbEntity
  8
90000_FRAME
370
    13
  6
CONTINUOUS
 62
     7
100
AcDbCircle
 10
345.99078
 20
170.891062
 30
0.0
 40
51.994825
100
AcDbArc
 50
65.341467
 51
67.399777
  0
ARC
  5
153C
100
AcDbEntity
  8
90000_FRAME
370
    13
  6
CONTINUOUS
 62
     7
100
AcDbCircle
 10
378.378367
 20
248.268341
 30
0.0
 40
31.887493
100
AcDbArc
 50
242.86201
 51
247.104203
  0
ARC
  5
153D
100
AcDbEntity
  8
90000_FRAME
370
    13
  6
CONTINUOUS
 62
     7
100
AcDbCircle
 10
366.813663
 20
225.666547
 30
0.0
 40
6.498875
100
AcDbArc
 50
227.311928
 51
242.704032
  0
ARC
  5
153E
100
AcDbEntity
  8
90000_FRAME
370
    13
  6
CONTINUOUS
 62
     7
100
AcDbCircle
 10
365.001571
 20
223.549514
 30
0.0
 40
3.715565
100
AcDbArc
 50
194.795219
 51
225.717655
  0
ARC
  5
153F
100
AcDbEntity
  8
90000_FRAME
370
    13
  6
CONTINUOUS
 62
     7
100
AcDbCircle
 10
366.859117
 20
221.005372
 30
0.0
 40
7.100774
100
AcDbArc
 50
86.221802
 51
120.42726
  0
ARC
  5
1540
100
AcDbEntity
  8
90000_FRAME
370
    13
  6
CONTINUOUS
 62
     7
100
AcDbCircle
 10
366.052546
 20
200.916869
 30
0.0
 40
27.203715
100
AcDbArc
 50
78.682705
 51
87.31476
  0
ARC
  5
1541
100
AcDbEntity
  8
90000_FRAME
370
    13
  6
CONTINUOUS
 62
     7
100
AcDbCircle
 10
365.720267
 20
223.072952
 30
0.0
 40
4.74164
100
AcDbArc
 50
121.214095
 51
141.525477
  0
ARC
  5
1542
100
AcDbEntity
  8
90000_FRAME
370
    13
  6
CONTINUOUS
 62
     7
100
AcDbCircle
 10
367.45179
 20
225.506124
 30
0.0
 40
2.598383
100
AcDbArc
 50
222.776039
 51
239.036243
  0
ARC
  5
1543
100
AcDbEntity
  8
90000_FRAME
370
    13
  6
CONTINUOUS
 62
     7
100
AcDbCircle
 10
359.931661
 20
203.515307
 30
0.0
 40
20.576321
100
AcDbArc
 50
59.902027
 51
68.203648
  0
ARC
  5
1544
100
AcDbEntity
  8
90000_FRAME
370
    13
  6
CONTINUOUS
 62
     7
100
AcDbCircle
 10
370.157145
 20
230.292967
 30
0.0
 40
8.096223
100
AcDbArc
 50
240.0482
 51
251.377967
  0
ARC
  5
1545
100
AcDbEntity
  8
90000_FRAME
370
    13
  6
CONTINUOUS
 62
     7
100
AcDbCircle
 10
368.160773
 20
217.822271
 30
0.0
 40
4.300342
100
AcDbArc
 50
315.890455
 51
333.522926
  0
ARC
  5
1546
100
AcDbEntity
  8
90000_FRAME
370
    13
  6
CONTINUOUS
 62
     7
100
AcDbCircle
 10
368.174688
 20
217.662049
 30
0.0
 40
4.218686
100
AcDbArc
 50
335.386797
 51
24.391512
  0
ARC
  5
1547
100
AcDbEntity
  8
90000_FRAME
370
    13
  6
CONTINUOUS
 62
     7
100
AcDbCircle
 10
367.958073
 20
217.428479
 30
0.0
 40
4.514108
100
AcDbArc
 50
25.956292
 51
59.483483
  0
LINE
  5
1548
100
AcDbEntity
  8
90000_FRAME
370
    13
  6
CONTINUOUS
 62
     7
100
AcDbLine
 10
361.984682
 20
225.991802
 30
0.0
 11
362.80688
 21
226.814021
 31
0.0
  0
ARC
  5
1549
100
AcDbEntity
  8
90000_FRAME
370
    13
  6
CONTINUOUS
 62
     7
100
AcDbCircle
 10
365.188045
 20
223.670174
 30
0.0
 40
3.927276
100
AcDbArc
 50
164.197486
 51
195.802514
  0
ARC
  5
154A
100
AcDbEntity
  8
90000_FRAME
370
    13
  6
CONTINUOUS
 62
     7
100
AcDbCircle
 10
364.684339
 20
223.992697
 30
0.0
 40
3.359242
100
AcDbArc
 50
142.813918
 51
167.152295
  0
TEXT
  5
154B
100
AcDbEntity
  8
90000_FRAME
370
    13
  6
CONTINUOUS
 62
     7
100
AcDbText
 10
696.0
 20
199.1907
 30
0.0
 40
6.6
  1
1:3
 41
0.9
100
AcDbText
  0
TEXT
  5
154C
100
AcDbEntity
  8
90000_FRAME
370
    13
  6
CONTINUOUS
 62
     7
100
AcDbText
 10
486.0
 20
216.6
 30
0.0
 40
6.6
  1
3RW3036_00002710_002_ALL.dxf
 41
0.784213
100
AcDbText
  0
ENDSEC
  0
SECTION
  2
OBJECTS
  0
DICTIONARY
  5
FE4
100
AcDbDictionary
280
     0
281
     1
  3
ACAD_GROUP
350
FE5
  3
ACAD_MLINESTYLE
350
FE6
  0
DICTIONARY
  5
FE5
102
{ACAD_REACTORS
330
FE4
102
}
100
AcDbDictionary
280
     0
281
     1
  0
DICTIONARY
  5
FE6
102
{ACAD_REACTORS
330
FE4
102
}
100
AcDbDictionary
280
     0
281
     1
  3
Standard
350
FE7
  0
MLINESTYLE
  5
FE7
102
{ACAD_REACTORS
330
FE6
102
}
100
AcDbMlineStyle
  2
Standard
 70
     0
  3

 62
     0
 51
90.0
 52
90.0
 71
     2
 49
0.5
 62
   256
  6
ByLayer
 49
-0.5
 62
   256
  6
ByLayer
  0
ENDSEC
  0
EOF
