  0
SECTION
  2
HEADER
  9
$ACADVER
  1
AC1015
  9
$ACADMAINTVER
 70
     6
  9
$DWGCODEPAGE
  3
ANSI_1252
  9
$INSBASE
 10
0.0
 20
0.0
 30
0.0
  9
$EXTMIN
 10
69.395417
 20
287.976483
 30
-1.0
  9
$EXTMAX
 10
1026.514554
 20
492.804657
 30
0.7
  9
$LIMMIN
 10
0.0
 20
0.0
  9
$LIMMAX
 10
12.0
 20
9.0
  9
$ORTHOMODE
 70
     0
  9
$REGENMODE
 70
     1
  9
$FILLMODE
 70
     1
  9
$QTEXTMODE
 70
     0
  9
$MIRRTEXT
 70
     0
  9
$LTSCALE
 40
60.0
  9
$ATTMODE
 70
     1
  9
$TEXTSIZE
 40
0.2
  9
$TRACEWID
 40
0.05
  9
$TEXTSTYLE
  7
STANDARD
  9
$CLAYER
  8
0
  9
$CELTYPE
  6
ByLayer
  9
$CECOLOR
 62
   256
  9
$CELTSCALE
 40
1.0
  9
$DISPSILH
 70
     0
  9
$DIMSCALE
 40
1.0
  9
$DIMASZ
 40
0.18
  9
$DIMEXO
 40
0.0625
  9
$DIMDLI
 40
0.38
  9
$DIMRND
 40
0.0
  9
$DIMDLE
 40
0.0
  9
$DIMEXE
 40
0.18
  9
$DIMTP
 40
0.0
  9
$DIMTM
 40
0.0
  9
$DIMTXT
 40
0.18
  9
$DIMCEN
 40
0.09
  9
$DIMTSZ
 40
0.0
  9
$DIMTOL
 70
     0
  9
$DIMLIM
 70
     0
  9
$DIMTIH
 70
     1
  9
$DIMTOH
 70
     1
  9
$DIMSE1
 70
     0
  9
$DIMSE2
 70
     0
  9
$DIMTAD
 70
     0
  9
$DIMZIN
 70
     0
  9
$DIMBLK
  1

  9
$DIMASO
 70
     1
  9
$DIMSHO
 70
     1
  9
$DIMPOST
  1

  9
$DIMAPOST
  1

  9
$DIMALT
 70
     0
  9
$DIMALTD
 70
     2
  9
$DIMALTF
 40
25.4
  9
$DIMLFAC
 40
1.0
  9
$DIMTOFL
 70
     0
  9
$DIMTVP
 40
0.0
  9
$DIMTIX
 70
     0
  9
$DIMSOXD
 70
     0
  9
$DIMSAH
 70
     0
  9
$DIMBLK1
  1

  9
$DIMBLK2
  1

  9
$DIMSTYLE
  2
STANDARD
  9
$DIMCLRD
 70
     0
  9
$DIMCLRE
 70
     0
  9
$DIMCLRT
 70
     0
  9
$DIMTFAC
 40
1.0
  9
$DIMGAP
 40
0.09
  9
$DIMJUST
 70
     0
  9
$DIMSD1
 70
     0
  9
$DIMSD2
 70
     0
  9
$DIMTOLJ
 70
     1
  9
$DIMTZIN
 70
     0
  9
$DIMALTZ
 70
     0
  9
$DIMALTTZ
 70
     0
  9
$DIMUPT
 70
     0
  9
$DIMDEC
 70
     4
  9
$DIMTDEC
 70
     4
  9
$DIMALTU
 70
     2
  9
$DIMALTTD
 70
     2
  9
$DIMTXSTY
  7
STANDARD
  9
$DIMAUNIT
 70
     0
  9
$DIMADEC
 70
     0
  9
$DIMALTRND
 40
0.0
  9
$DIMAZIN
 70
     0
  9
$DIMDSEP
 70
     0
  9
$DIMATFIT
 70
     3
  9
$DIMFRAC
 70
     0
  9
$DIMLDRBLK
  1

  9
$DIMLUNIT
 70
     2
  9
$DIMLWD
 70
     0
  9
$DIMLWE
 70
     0
  9
$DIMTMOVE
 70
     0
  9
$LUNITS
 70
     2
  9
$LUPREC
 70
     4
  9
$SKETCHINC
 40
0.1
  9
$FILLETRAD
 40
0.0
  9
$AUNITS
 70
     0
  9
$AUPREC
 70
     0
  9
$MENU
  1
.
  9
$ELEVATION
 40
0.0
  9
$PELEVATION
 40
0.0
  9
$THICKNESS
 40
0.0
  9
$LIMCHECK
 70
     0
  9
$CHAMFERA
 40
0.0
  9
$CHAMFERB
 40
0.0
  9
$CHAMFERC
 40
0.0
  9
$CHAMFERD
 40
0.0
  9
$SKPOLY
 70
     0
  9
$TDCREATE
 40
2453353.758792454
  9
$TDUCREATE
 40
0.000000000
  9
$TDUPDATE
 40
0.000000000
  9
$TDUUPDATE
 40
2447892.958333334
  9
$TDINDWG
 40
78332576.0667047050
  9
$TDUSRTIMER
 40
0.0000000000
  9
$USRTIMER
 70
     1
  9
$ANGBASE
 50
0.0
  9
$ANGDIR
 70
     0
  9
$PDMODE
 70
     0
  9
$PDSIZE
 40
0.0
  9
$PLINEWID
 40
0.0
  9
$SPLFRAME
 70
     0
  9
$SPLINETYPE
 70
     6
  9
$SPLINESEGS
 70
     8
  9
$HANDSEED
  5
1505
  9
$SURFTAB1
 70
     6
  9
$SURFTAB2
 70
     6
  9
$SURFTYPE
 70
     6
  9
$SURFU
 70
     6
  9
$SURFV
 70
     6
  9
$UCSBASE
  2

  9
$UCSNAME
  2

  9
$UCSORG
 10
0.0
 20
0.0
 30
0.0
  9
$UCSXDIR
 10
1.0
 20
0.0
 30
0.0
  9
$UCSYDIR
 10
0.0
 20
1.0
 30
0.0
  9
$UCSORTHOREF
  2

  9
$UCSORTHOVIEW
 70
     0
  9
$UCSORGTOP
 10
0.0
 20
0.0
 30
0.0
  9
$UCSORGBOTTOM
 10
0.0
 20
0.0
 30
0.0
  9
$UCSORGLEFT
 10
0.0
 20
0.0
 30
0.0
  9
$UCSORGRIGHT
 10
0.0
 20
0.0
 30
0.0
  9
$UCSORGFRONT
 10
0.0
 20
0.0
 30
0.0
  9
$UCSORGBACK
 10
0.0
 20
0.0
 30
0.0
  9
$PUCSBASE
  2

  9
$PUCSNAME
  2

  9
$PUCSORG
 10
0.0
 20
0.0
 30
0.0
  9
$PUCSXDIR
 10
1.0
 20
0.0
 30
0.0
  9
$PUCSYDIR
 10
0.0
 20
1.0
 30
0.0
  9
$PUCSORTHOREF
  2

  9
$PUCSORTHOVIEW
 70
     0
  9
$PUCSORGTOP
 10
0.0
 20
0.0
 30
0.0
  9
$PUCSORGBOTTOM
 10
0.0
 20
0.0
 30
0.0
  9
$PUCSORGLEFT
 10
0.0
 20
0.0
 30
0.0
  9
$PUCSORGRIGHT
 10
0.0
 20
0.0
 30
0.0
  9
$PUCSORGFRONT
 10
0.0
 20
0.0
 30
0.0
  9
$PUCSORGBACK
 10
0.0
 20
0.0
 30
0.0
  9
$USERI1
 70
     0
  9
$USERI2
 70
     0
  9
$USERI3
 70
     0
  9
$USERI4
 70
     0
  9
$USERI5
 70
     0
  9
$USERR1
 40
0.0
  9
$USERR2
 40
0.0
  9
$USERR3
 40
0.0
  9
$USERR4
 40
0.0
  9
$USERR5
 40
0.0
  9
$WORLDVIEW
 70
     1
  9
$SHADEDGE
 70
     3
  9
$SHADEDIF
 70
    70
  9
$TILEMODE
 70
     1
  9
$MAXACTVP
 70
    64
  9
$PINSBASE
 10
0.0
 20
0.0
 30
0.0
  9
$PLIMCHECK
 70
     0
  9
$PEXTMIN
 10
0.0
 20
0.0
 30
0.0
  9
$PEXTMAX
 10
0.0
 20
0.0
 30
0.0
  9
$PLIMMIN
 10
0.0
 20
0.0
  9
$PLIMMAX
 10
0.0
 20
0.0
  9
$UNITMODE
 70
     0
  9
$VISRETAIN
 70
     1
  9
$PLINEGEN
 70
     0
  9
$PSLTSCALE
 70
     1
  9
$TREEDEPTH
 70
  3020
  9
$CMLSTYLE
  2
Standard
  9
$CMLJUST
 70
     0
  9
$CMLSCALE
 40
1.0
  9
$PROXYGRAPHICS
 70
     0
  9
$MEASUREMENT
 70
     0
  9
$CELWEIGHT
370
     0
  9
$ENDCAPS
280
     0
  9
$JOINSTYLE
280
     0
  9
$LWDISPLAY
290
     0
  9
$INSUNITS
 70
     0
  9
$HYPERLINKBASE
  1

  9
$STYLESHEET
  1

  9
$XEDIT
290
     1
  9
$CEPSNTYPE
380
     0
  9
$PSTYLEMODE
290
     1
  9
$FINGERPRINTGUID
  2

  9
$VERSIONGUID
  2

  9
$EXTNAMES
290
     1
  9
$PSVPSCALE
 40
0.0
  0
ENDSEC
  0
SECTION
  2
CLASSES
  0
CLASS
  1
LWPOLYLINE
  2
AcDbPolyline
  3
AutoCAD 2000
 90
        0
280
     0
281
     1
  0
CLASS
  1
IMAGE
  2
AcDbRasterImage
  3
ISM
 90
      127
280
     0
281
     1
  0
CLASS
  1
OLE2FRAME
  2
AcDbOle2Frame
  3
AutoCAD 2000
 90
        0
280
     0
281
     1
  0
CLASS
  1
HATCH
  2
AcDbHatch
  3
AutoCAD 2000
 90
        0
280
     0
281
     1
  0
CLASS
  1
DICTIONARYVAR
  2
AcDbDictionaryVar
  3
AutoCAD 2000
 90
        0
280
     0
281
     0
  0
CLASS
  1
RASTERVARIABLES
  2
AcDbRasterVariables
  3
ISM
 90
        0
280
     0
281
     0
  0
CLASS
  1
IMAGEDEF
  2
AcDbRasterImageDef
  3
ISM
 90
        0
280
     0
281
     0
  0
CLASS
  1
IMAGEDEF_REACTOR
  2
AcDbRasterImageDefReactor
  3
ISM
 90
        1
280
     0
281
     0
  0
CLASS
  1
IDBUFFER
  2
AcDbIdBuffer
  3
AutoCAD 2000
 90
        0
280
     0
281
     0
  0
CLASS
  1
SPATIAL_FILTER
  2
AcDbSpatialFilter
  3
AutoCAD 2000
 90
        0
280
     0
281
     0
  0
CLASS
  1
XRECORD
  2
AcDbXrecord
  3
AutoCAD 2000
 90
        0
280
     0
281
     0
  0
CLASS
  1
SORTENTSTABLE
  2
AcDbSortentsTable
  3
AutoCAD 2000
 90
        0
280
     0
281
     0
  0
CLASS
  1
LAYER_INDEX
  2
AcDbLayerIndex
  3
AutoCAD 2000
 90
        0
280
     0
281
     0
  0
CLASS
  1
SPATIAL_INDEX
  2
AcDbSpatialIndex
  3
AutoCAD 2000
 90
        0
280
     0
281
     0
  0
CLASS
  1
OBJECT_PTR
  2
CAseDLPNTableRecord
  3
"ASE-LPNTableRecord"
 90
        1
280
     0
281
     0
  0
CLASS
  1
LAYOUT
  2
AcDbLayout
  3
AutoCAD 2000
 90
        0
280
     0
281
     0
  0
CLASS
  1
PLOTSETTINGS
  2
AcDbPlotSettings
  3
AutoCAD 2000
 90
        0
280
     0
281
     0
  0
CLASS
  1
ACDBDICTIONARYWDFLT
  2
AcDbDictionaryWithDefault
  3
AutoCAD 2000
 90
        0
280
     0
281
     0
  0
CLASS
  1
ACDBPLACEHOLDER
  2
AcDbPlaceHolder
  3
AutoCAD 2000
 90
        0
280
     0
281
     0
  0
CLASS
  1
VBA_PROJECT
  2
AcDbVbaProject
  3
acadvba
 90
        0
280
     0
281
     0
  0
CLASS
  1
WIPEOUT
  2
AcDbWipeout
  3
WipeOut|AutoCAD Express Tool|expresstools@autodesk.com
 90
      127
280
     0
281
     1
  0
CLASS
  1
WIPEOUTVARIABLES
  2
AcDbWipeoutVariables
  3
WipeOut|AutoCAD Express Tool|expresstools@autodesk.com
 90
        0
280
     0
281
     0
  0
CLASS
  1
RTEXT
  2
RText
  3
RText|AutoCAD Express Tool|expresstools@autodesk.com
 90
        0
280
     0
281
     1
  0
CLASS
  1
ARCALIGNEDTEXT
  2
AcDbArcAlignedText
  3
ATEXT|AutoCAD Express Tool|expresstools@autodesk.com
 90
        0
280
     0
281
     1
  0
ENDSEC
  0
SECTION
  2
TABLES
  0
TABLE
  2
VPORT
  5
1094
100
AcDbSymbolTable
 70
     1
  0
VPORT
  5
10BB
100
AcDbSymbolTableRecord
100
AcDbViewportTableRecord
  2
*ACTIVE
 70
     0
 10
0.0
 20
0.0
 11
1.0
 21
1.0
 12
450.328833
 22
266.374849
 13
0.0
 23
0.0
 14
0.5
 24
0.5
 15
0.5
 25
0.5
 16
0.0
 26
0.0
 36
1.0
 17
0.0
 27
0.0
 37
0.0
 40
620.078606
 41
1.701534
 42
50.0
 43
0.0
 44
0.0
 50
0.0
 51
0.0
 71
    16
 72
  1000
 73
     1
 74
     3
 75
     0
 76
     0
 77
     0
 78
     0
281
     0
 65
     0
110
0.0
120
0.0
130
0.0
111
1.0
121
0.0
131
0.0
112
0.0
122
1.0
132
0.0
345
0
346
0
 79
     0
146
0.0
  0
ENDTAB
  0
TABLE
  2
LTYPE
  5
1091
100
AcDbSymbolTable
 70
     6
  0
LTYPE
  5
109A
100
AcDbSymbolTableRecord
100
AcDbLinetypeTableRecord
  2
ByBlock
 70
    64
  3

 72
    65
 73
     0
 40
0.0
  0
LTYPE
  5
109B
100
AcDbSymbolTableRecord
100
AcDbLinetypeTableRecord
  2
ByLayer
 70
    64
  3

 72
    65
 73
     0
 40
0.0
  0
LTYPE
  5
109C
100
AcDbSymbolTableRecord
100
AcDbLinetypeTableRecord
  2
CONTINUOUS
 70
     0
  3
Solid line
 72
    65
 73
     0
 40
0.0
  0
LTYPE
  5
109D
100
AcDbSymbolTableRecord
100
AcDbLinetypeTableRecord
  2
CENTER
 70
     0
  3
____ _ ____ _ ____ _ ____ _ ____ _ ____ _ ____
 72
    65
 73
     4
 40
0.6
 49
0.375
 74
     0
 49
-0.075
 74
     0
 49
0.075
 74
     0
 49
-0.075
 74
     0
  0
LTYPE
  5
109E
100
AcDbSymbolTableRecord
100
AcDbLinetypeTableRecord
  2
ACAD_ISO02W100
 70
     0
  3
ISO Strichlinie __ __ __ __ __ __ __ __ __ __ _
 72
    65
 73
     2
 40
15.0
 49
12.0
 74
     0
 49
-3.0
 74
     0
  0
LTYPE
  5
109F
100
AcDbSymbolTableRecord
100
AcDbLinetypeTableRecord
  2
DASHED
 70
     0
  3
_ _ _ _ _ _ _ _ _ _ _ _ _ _ _ _ _ _ _ _ _ _ _ _
 72
    65
 73
     2
 40
0.375
 49
0.25
 74
     0
 49
-0.125
 74
     0
  0
ENDTAB
  0
TABLE
  2
LAYER
  5
108F
100
AcDbSymbolTable
 70
     9
  0
LAYER
  5
10A0
100
AcDbSymbolTableRecord
100
AcDbLayerTableRecord
  2
0
 70
     0
 62
     7
  6
CONTINUOUS
290
     1
370
    -3
390
0
  0
LAYER
  5
10A1
100
AcDbSymbolTableRecord
100
AcDbLayerTableRecord
  2
90000_FRAME
 70
     0
 62
     7
  6
CONTINUOUS
290
     1
370
    -3
390
0
  0
LAYER
  5
10A2
100
AcDbSymbolTableRecord
100
AcDbLayerTableRecord
  2
91000_TIP
 70
     0
 62
     7
  6
CONTINUOUS
290
     1
370
    -3
390
0
  0
LAYER
  5
10A3
100
AcDbSymbolTableRecord
100
AcDbLayerTableRecord
  2
10000_FRONT
 70
     0
 62
     7
  6
CONTINUOUS
290
     1
370
    -3
390
0
  0
LAYER
  5
10A4
100
AcDbSymbolTableRecord
100
AcDbLayerTableRecord
  2
11000_LEFT
 70
     0
 62
     7
  6
CONTINUOUS
290
     1
370
    -3
390
0
  0
LAYER
  5
10A5
100
AcDbSymbolTableRecord
100
AcDbLayerTableRecord
  2
30000_DRILLING
 70
     0
 62
     7
  6
CONTINUOUS
290
     1
370
    -3
390
0
  0
LAYER
  5
10A7
100
AcDbSymbolTableRecord
100
AcDbLayerTableRecord
  2
DEFPOINTS
 70
     0
 62
     7
  6
CONTINUOUS
290
     0
370
    -3
390
0
  0
LAYER
  5
10A8
100
AcDbSymbolTableRecord
100
AcDbLayerTableRecord
  2
10100_FRONT_DIM
 70
     0
 62
     7
  6
CONTINUOUS
290
     1
370
    -3
390
0
  0
LAYER
  5
10A9
100
AcDbSymbolTableRecord
100
AcDbLayerTableRecord
  2
11100_LEFT_DIM
 70
     0
 62
     7
  6
CONTINUOUS
290
     1
370
    -3
390
0
  0
ENDTAB
  0
TABLE
  2
STYLE
  5
1090
100
AcDbSymbolTable
 70
     1
  0
STYLE
  5
10C0
100
AcDbSymbolTableRecord
100
AcDbTextStyleTableRecord
  2
STANDARD
 70
     0
 40
0.0
 41
1.0
 50
0.0
 71
     0
 42
0.2
  3
txt.shx
  4

  0
ENDTAB
  0
TABLE
  2
VIEW
  5
1092
100
AcDbSymbolTable
 70
     0
  0
ENDTAB
  0
TABLE
  2
UCS
  5
1093
100
AcDbSymbolTable
 70
     0
  0
ENDTAB
  0
TABLE
  2
APPID
  5
1095
100
AcDbSymbolTable
 70
     4
  0
APPID
  5
10BC
100
AcDbSymbolTableRecord
100
AcDbRegAppTableRecord
  2
ACAD
 70
     0
  0
APPID
  5
10BD
100
AcDbSymbolTableRecord
100
AcDbRegAppTableRecord
  2
AUSTER_ANSICHT
 70
     0
  0
APPID
  5
10BE
100
AcDbSymbolTableRecord
100
AcDbRegAppTableRecord
  2
AUSTER_FOLIE
 70
     0
  0
APPID
  5
10BF
100
AcDbSymbolTableRecord
100
AcDbRegAppTableRecord
  2
ACAECLAYERSTANDARD
 70
     0
  0
ENDTAB
  0
TABLE
  2
DIMSTYLE
  5
1096
100
AcDbSymbolTable
 70
     3
100
AcDbDimStyleTable
 71
     0
  0
DIMSTYLE
105
10CA
100
AcDbSymbolTableRecord
100
AcDbDimStyleTableRecord
  2
STANDARD
 70
     0
  3

  4

 40
1.0
 41
0.18
 42
0.0625
 43
0.38
 44
0.18
 45
0.0
 46
0.0
 47
0.0
 48
0.0
 71
     0
 72
     0
 73
     1
 74
     1
 75
     0
 76
     0
 77
     0
 78
     0
 79
     0
140
0.18
141
0.09
142
0.0
143
25.4
144
1.0
145
0.0
146
1.0
147
0.09
148
0.0
170
     0
171
     2
172
     0
173
     0
174
     0
175
     0
176
     0
177
     0
178
     0
179
     0
271
     4
272
     4
273
     2
274
     2
275
     0
276
     0
277
     2
278
    46
279
     0
280
     0
281
     0
282
     0
283
     1
284
     0
285
     0
286
     0
288
     0
289
     3
340
10C0
341
0
342
0
343
0
344
0
371
    -2
372
    -2
  0
DIMSTYLE
105
10CB
100
AcDbSymbolTableRecord
100
AcDbDimStyleTableRecord
  2
DSTYLE1
 70
     0
  3

  4

 40
1.0
 41
3.0
 42
0.0
 43
0.38
 44
1.0
 45
0.0
 46
0.0
 47
0.0
 48
0.0
 71
     0
 72
     0
 73
     0
 74
     0
 75
     0
 76
     0
 77
     1
 78
     3
 79
     0
140
2.5
141
0.09
142
0.0
143
0.03937
144
1.0
145
0.0
146
1.0
147
1.0
148
0.0
170
     0
171
     2
172
     0
173
     0
174
     0
175
     0
176
     0
177
     0
178
     0
179
     0
271
     4
272
     4
273
     2
274
     2
275
     0
276
     0
277
     2
278
    46
279
     0
280
     0
281
     0
282
     0
283
     1
284
     0
285
     0
286
     0
288
     0
289
     3
340
10C0
341
0
342
0
343
0
344
0
371
    -2
372
    -2
  0
DIMSTYLE
105
10CC
100
AcDbSymbolTableRecord
100
AcDbDimStyleTableRecord
  2
H035
 70
     0
  3

  4

 40
0.0
 41
3.5
 42
0.0
 43
3.75
 44
2.0
 45
0.0
 46
0.0
 47
0.0
 48
0.0
 71
     0
 72
     0
 73
     0
 74
     0
 75
     0
 76
     0
 77
     1
 78
     8
 79
     0
140
3.5
141
2.5
142
0.0
143
0.039
144
1.0
145
0.0
146
1.0
147
0.5
148
0.0
170
     0
171
     4
172
     1
173
     0
174
     0
175
     0
176
   256
177
     7
178
     7
179
     0
271
     4
272
     4
273
     2
274
     2
275
     0
276
     0
277
     2
278
    46
279
     0
280
     0
281
     0
282
     0
283
     1
284
     0
285
     0
286
     0
288
     0
289
     3
340
10C0
341
0
342
0
343
0
344
0
371
    -2
372
    -2
  0
ENDTAB
  0
TABLE
  2
BLOCK_RECORD
  5
10C5
100
AcDbSymbolTable
 70
     2
  0
BLOCK_RECORD
  5
10C3
100
AcDbSymbolTableRecord
100
AcDbBlockTableRecord
  2
*Model_Space
340
0
  0
BLOCK_RECORD
  5
10C4
100
AcDbSymbolTableRecord
100
AcDbBlockTableRecord
  2
*Paper_Space
340
0
  0
BLOCK_RECORD
  5
10C1
100
AcDbSymbolTableRecord
100
AcDbBlockTableRecord
  2
$MODEL_SPACE
340
0
  0
BLOCK_RECORD
  5
10C2
100
AcDbSymbolTableRecord
100
AcDbBlockTableRecord
  2
$PAPER_SPACE
340
0
  0
ENDTAB
  0
ENDSEC
  0
SECTION
  2
BLOCKS
  0
BLOCK
  5
10C6
100
AcDbEntity
  8
0
390
0
100
AcDbBlockBegin
  2
*Model_Space
 70
     0
 10
0.0
 20
0.0
 30
0.0
  3
*Model_Space
  1

  0
ENDBLK
  5
10C7
100
AcDbEntity
  8
0
390
0
100
AcDbBlockEnd
  0
BLOCK
  5
10C8
100
AcDbEntity
 67
     1
  8
0
390
0
100
AcDbBlockBegin
  2
*Paper_Space
 70
     0
 10
0.0
 20
0.0
 30
0.0
  3
*Paper_Space
  1

  0
ENDBLK
  5
10C9
100
AcDbEntity
 67
     1
  8
0
390
0
100
AcDbBlockEnd
  0
BLOCK
  5
10CD
100
AcDbEntity
  8
0
100
AcDbBlockBegin
  2
$MODEL_SPACE
 70
     0
 10
0.0
 20
0.0
 30
0.0
  3
$MODEL_SPACE
  1

  0
ENDBLK
  5
21
100
AcDbEntity
  8
0
100
AcDbBlockEnd
  0
BLOCK
  5
10CE
100
AcDbEntity
  8
0
100
AcDbBlockBegin
  2
$PAPER_SPACE
 70
     0
 10
0.0
 20
0.0
 30
0.0
  3
$PAPER_SPACE
  1

  0
ENDBLK
  5
76
100
AcDbEntity
  8
0
100
AcDbBlockEnd
  0
ENDSEC
  0
SECTION
  2
ENTITIES
  0
LINE
  5
10D4
100
AcDbEntity
  8
10000_FRONT
370
    50
390
0
  6
CONTINUOUS
 62
     7
100
AcDbLine
 10
697.284998
 20
1797.650004
 30
0.0
 11
694.071497
 21
1799.600016
 31
0.0
  0
LINE
  5
10D5
100
AcDbEntity
  8
10000_FRONT
370
    50
390
0
  6
CONTINUOUS
 62
     7
100
AcDbLine
 10
714.226511
 20
1808.50001
 30
0.0
 11
710.950999
 21
1810.450022
 31
0.0
  0
LINE
  5
10D6
100
AcDbEntity
  8
10000_FRONT
370
    50
390
0
  6
CONTINUOUS
 62
     7
100
AcDbLine
 10
723.25001
 20
1677.00001
 30
0.0
 11
712.50001
 21
1683.200022
 31
0.0
  0
LINE
  5
10D7
100
AcDbEntity
  8
10000_FRONT
370
    50
390
0
  6
CONTINUOUS
 62
     7
100
AcDbLine
 10
562.50001
 20
1711.799998
 30
0.0
 11
551.75001
 21
1718.00001
 31
0.0
  0
LINE
  5
10D8
100
AcDbEntity
  8
10000_FRONT
370
    50
390
0
  6
CONTINUOUS
 62
     7
100
AcDbLine
 10
276.00001
 20
1645.00001
 30
0.0
 11
286.75001
 21
1645.00001
 31
0.0
  0
LINE
  5
10D9
100
AcDbEntity
  8
10000_FRONT
370
    50
390
0
  6
CONTINUOUS
 62
     7
100
AcDbLine
 10
300.25001
 20
1645.00001
 30
0.0
 11
756.75001
 21
1645.00001
 31
0.0
  0
LINE
  5
10DA
100
AcDbEntity
  8
10000_FRONT
370
    50
390
0
  6
CONTINUOUS
 62
     7
100
AcDbLine
 10
770.25001
 20
1645.00001
 30
0.0
 11
781.00001
 21
1645.00001
 31
0.0
  0
LINE
  5
10DB
100
AcDbEntity
  8
10000_FRONT
370
    50
390
0
  6
CONTINUOUS
 62
     7
100
AcDbLine
 10
443.50001
 20
1648.50001
 30
0.0
 11
483.50001
 21
1648.50001
 31
0.0
  0
LINE
  5
10DC
100
AcDbEntity
  8
10000_FRONT
370
    50
390
0
  6
CONTINUOUS
 62
     7
100
AcDbLine
 10
370.50001
 20
1648.50001
 30
0.0
 11
410.50001
 21
1648.50001
 31
0.0
  0
LINE
  5
10DD
100
AcDbEntity
  8
10000_FRONT
370
    50
390
0
  6
CONTINUOUS
 62
     7
100
AcDbLine
 10
297.50001
 20
1648.50001
 30
0.0
 11
337.50001
 21
1648.50001
 31
0.0
  0
LINE
  5
10DE
100
AcDbEntity
  8
10000_FRONT
370
    50
390
0
  6
CONTINUOUS
 62
     7
100
AcDbLine
 10
568.50001
 20
1668.700022
 30
0.0
 11
706.50001
 21
1668.700022
 31
0.0
  0
LINE
  5
10DF
100
AcDbEntity
  8
10000_FRONT
370
    50
390
0
  6
CONTINUOUS
 62
     7
100
AcDbLine
 10
568.50001
 20
1670.299998
 30
0.0
 11
706.50001
 21
1670.299998
 31
0.0
  0
LINE
  5
10E0
100
AcDbEntity
  8
10000_FRONT
370
    50
390
0
  6
CONTINUOUS
 62
     7
100
AcDbLine
 10
551.75001
 20
1672.00001
 30
0.0
 11
723.25001
 21
1672.00001
 31
0.0
  0
LINE
  5
10E1
100
AcDbEntity
  8
10000_FRONT
370
    50
390
0
  6
CONTINUOUS
 62
     7
100
AcDbLine
 10
551.75001
 20
1677.00001
 30
0.0
 11
723.25001
 21
1677.00001
 31
0.0
  0
LINE
  5
10E2
100
AcDbEntity
  8
10000_FRONT
370
    50
390
0
  6
CONTINUOUS
 62
     7
100
AcDbLine
 10
719.782465
 20
1679.00001
 30
0.0
 11
781.00001
 21
1679.00001
 31
0.0
  0
LINE
  5
10E3
100
AcDbEntity
  8
10000_FRONT
370
    50
390
0
  6
CONTINUOUS
 62
     7
100
AcDbLine
 10
483.500113
 20
1679.00001
 30
0.0
 11
555.217701
 21
1679.00001
 31
0.0
  0
LINE
  5
10E4
100
AcDbEntity
  8
10000_FRONT
370
    50
390
0
  6
CONTINUOUS
 62
     7
100
AcDbLine
 10
410.500109
 20
1679.00001
 30
0.0
 11
443.500109
 21
1679.00001
 31
0.0
  0
LINE
  5
10E5
100
AcDbEntity
  8
10000_FRONT
370
    50
390
0
  6
CONTINUOUS
 62
     7
100
AcDbLine
 10
337.500117
 20
1679.00001
 30
0.0
 11
370.500117
 21
1679.00001
 31
0.0
  0
LINE
  5
10E6
100
AcDbEntity
  8
10000_FRONT
370
    50
390
0
  6
CONTINUOUS
 62
     7
100
AcDbLine
 10
276.00001
 20
1679.00001
 30
0.0
 11
297.500117
 21
1679.00001
 31
0.0
  0
LINE
  5
10E7
100
AcDbEntity
  8
10000_FRONT
370
    50
390
0
  6
CONTINUOUS
 62
     7
100
AcDbLine
 10
562.50001
 20
1683.200022
 30
0.0
 11
712.50001
 21
1683.200022
 31
0.0
  0
LINE
  5
10E8
100
AcDbEntity
  8
10000_FRONT
370
    50
390
0
  6
CONTINUOUS
 62
     7
100
AcDbLine
 10
781.00001
 20
1683.50001
 30
0.0
 11
784.00001
 21
1683.50001
 31
0.0
  0
LINE
  5
10E9
100
AcDbEntity
  8
10000_FRONT
370
    50
390
0
  6
CONTINUOUS
 62
     7
100
AcDbLine
 10
273.00001
 20
1683.50001
 30
0.0
 11
276.00001
 21
1683.50001
 31
0.0
  0
LINE
  5
10EA
100
AcDbEntity
  8
10000_FRONT
370
    50
390
0
  6
CONTINUOUS
 62
     7
100
AcDbLine
 10
441.00001
 20
1693.50001
 30
0.0
 11
486.00001
 21
1693.50001
 31
0.0
  0
LINE
  5
10EB
100
AcDbEntity
  8
10000_FRONT
370
    50
390
0
  6
CONTINUOUS
 62
     7
100
AcDbLine
 10
368.00001
 20
1693.50001
 30
0.0
 11
413.00001
 21
1693.50001
 31
0.0
  0
LINE
  5
10EC
100
AcDbEntity
  8
10000_FRONT
370
    50
390
0
  6
CONTINUOUS
 62
     7
100
AcDbLine
 10
295.00001
 20
1693.50001
 30
0.0
 11
340.00001
 21
1693.50001
 31
0.0
  0
LINE
  5
10ED
100
AcDbEntity
  8
10000_FRONT
370
    50
390
0
  6
CONTINUOUS
 62
     7
100
AcDbLine
 10
427.50001
 20
1703.50001
 30
0.0
 11
499.50001
 21
1703.50001
 31
0.0
  0
LINE
  5
10EE
100
AcDbEntity
  8
10000_FRONT
370
    50
390
0
  6
CONTINUOUS
 62
     7
100
AcDbLine
 10
354.50001
 20
1703.50001
 30
0.0
 11
426.50001
 21
1703.50001
 31
0.0
  0
LINE
  5
10EF
100
AcDbEntity
  8
10000_FRONT
370
    50
390
0
  6
CONTINUOUS
 62
     7
100
AcDbLine
 10
281.50001
 20
1703.50001
 30
0.0
 11
353.50001
 21
1703.50001
 31
0.0
  0
LINE
  5
10F0
100
AcDbEntity
  8
10000_FRONT
370
    50
390
0
  6
CONTINUOUS
 62
     7
100
AcDbLine
 10
562.50001
 20
1711.799998
 30
0.0
 11
712.50001
 21
1711.799998
 31
0.0
  0
LINE
  5
10F1
100
AcDbEntity
  8
10000_FRONT
370
    50
390
0
  6
CONTINUOUS
 62
     7
100
AcDbLine
 10
427.50001
 20
1717.50001
 30
0.0
 11
499.50001
 21
1717.50001
 31
0.0
  0
LINE
  5
10F2
100
AcDbEntity
  8
10000_FRONT
370
    50
390
0
  6
CONTINUOUS
 62
     7
100
AcDbLine
 10
354.50001
 20
1717.50001
 30
0.0
 11
426.50001
 21
1717.50001
 31
0.0
  0
LINE
  5
10F3
100
AcDbEntity
  8
10000_FRONT
370
    50
390
0
  6
CONTINUOUS
 62
     7
100
AcDbLine
 10
281.50001
 20
1717.50001
 30
0.0
 11
353.50001
 21
1717.50001
 31
0.0
  0
LINE
  5
10F4
100
AcDbEntity
  8
10000_FRONT
370
    50
390
0
  6
CONTINUOUS
 62
     7
100
AcDbLine
 10
551.75001
 20
1718.00001
 30
0.0
 11
723.25001
 21
1718.00001
 31
0.0
  0
LINE
  5
10F5
100
AcDbEntity
  8
10000_FRONT
370
    50
390
0
  6
CONTINUOUS
 62
     7
100
AcDbLine
 10
551.75001
 20
1723.00001
 30
0.0
 11
723.25001
 21
1723.00001
 31
0.0
  0
LINE
  5
10F6
100
AcDbEntity
  8
10000_FRONT
370
    50
390
0
  6
CONTINUOUS
 62
     7
100
AcDbLine
 10
273.00001
 20
1723.50001
 30
0.0
 11
784.00001
 21
1723.50001
 31
0.0
  0
LINE
  5
10F7
100
AcDbEntity
  8
10000_FRONT
370
    50
390
0
  6
CONTINUOUS
 62
     7
100
AcDbLine
 10
653.600008
 20
1748.349986
 30
0.0
 11
695.600016
 21
1748.349986
 31
0.0
  0
LINE
  5
10F8
100
AcDbEntity
  8
10000_FRONT
370
    50
390
0
  6
CONTINUOUS
 62
     7
100
AcDbLine
 10
608.400012
 20
1748.349986
 30
0.0
 11
650.400012
 21
1748.349986
 31
0.0
  0
LINE
  5
10F9
100
AcDbEntity
  8
10000_FRONT
370
    50
390
0
  6
CONTINUOUS
 62
     7
100
AcDbLine
 10
651.900034
 20
1750.00001
 30
0.0
 11
652.100031
 21
1750.00001
 31
0.0
  0
LINE
  5
10FA
100
AcDbEntity
  8
10000_FRONT
370
    50
390
0
  6
CONTINUOUS
 62
     7
100
AcDbLine
 10
697.00001
 20
1750.00001
 30
0.0
 11
762.00001
 21
1750.00001
 31
0.0
  0
LINE
  5
10FB
100
AcDbEntity
  8
10000_FRONT
370
    50
390
0
  6
CONTINUOUS
 62
     7
100
AcDbLine
 10
592.00001
 20
1750.00001
 30
0.0
 11
607.00001
 21
1750.00001
 31
0.0
  0
LINE
  5
10FC
100
AcDbEntity
  8
10000_FRONT
370
    50
390
0
  6
CONTINUOUS
 62
     7
100
AcDbLine
 10
697.100031
 20
1750.00001
 30
0.0
 11
762.00001
 21
1750.00001
 31
0.0
  0
LINE
  5
10FD
100
AcDbEntity
  8
10000_FRONT
370
    50
390
0
  6
CONTINUOUS
 62
     7
100
AcDbLine
 10
592.00001
 20
1750.00001
 30
0.0
 11
606.900034
 21
1750.00001
 31
0.0
  0
LINE
  5
10FE
100
AcDbEntity
  8
10000_FRONT
370
    50
390
0
  6
CONTINUOUS
 62
     7
100
AcDbLine
 10
601.50001
 20
1752.00001
 30
0.0
 11
604.50001
 21
1752.00001
 31
0.0
  0
LINE
  5
10FF
100
AcDbEntity
  8
10000_FRONT
370
    50
390
0
  6
CONTINUOUS
 62
     7
100
AcDbLine
 10
595.50001
 20
1752.00001
 30
0.0
 11
598.50001
 21
1752.00001
 31
0.0
  0
LINE
  5
1100
100
AcDbEntity
  8
10000_FRONT
370
    50
390
0
  6
CONTINUOUS
 62
     7
100
AcDbLine
 10
701.50001
 20
1752.00001
 30
0.0
 11
704.50001
 21
1752.00001
 31
0.0
  0
LINE
  5
1101
100
AcDbEntity
  8
10000_FRONT
370
    50
390
0
  6
CONTINUOUS
 62
     7
100
AcDbLine
 10
707.50001
 20
1752.00001
 30
0.0
 11
710.50001
 21
1752.00001
 31
0.0
  0
LINE
  5
1102
100
AcDbEntity
  8
10000_FRONT
370
    50
390
0
  6
CONTINUOUS
 62
     7
100
AcDbLine
 10
713.50001
 20
1752.00001
 30
0.0
 11
716.50001
 21
1752.00001
 31
0.0
  0
LINE
  5
1103
100
AcDbEntity
  8
10000_FRONT
370
    50
390
0
  6
CONTINUOUS
 62
     7
100
AcDbLine
 10
719.50001
 20
1752.00001
 30
0.0
 11
722.50001
 21
1752.00001
 31
0.0
  0
LINE
  5
1104
100
AcDbEntity
  8
10000_FRONT
370
    50
390
0
  6
CONTINUOUS
 62
     7
100
AcDbLine
 10
725.50001
 20
1752.00001
 30
0.0
 11
728.50001
 21
1752.00001
 31
0.0
  0
LINE
  5
1105
100
AcDbEntity
  8
10000_FRONT
370
    50
390
0
  6
CONTINUOUS
 62
     7
100
AcDbLine
 10
731.50001
 20
1752.00001
 30
0.0
 11
734.50001
 21
1752.00001
 31
0.0
  0
LINE
  5
1106
100
AcDbEntity
  8
10000_FRONT
370
    50
390
0
  6
CONTINUOUS
 62
     7
100
AcDbLine
 10
737.50001
 20
1752.00001
 30
0.0
 11
740.50001
 21
1752.00001
 31
0.0
  0
LINE
  5
1107
100
AcDbEntity
  8
10000_FRONT
370
    50
390
0
  6
CONTINUOUS
 62
     7
100
AcDbLine
 10
743.50001
 20
1752.00001
 30
0.0
 11
746.50001
 21
1752.00001
 31
0.0
  0
LINE
  5
1108
100
AcDbEntity
  8
10000_FRONT
370
    50
390
0
  6
CONTINUOUS
 62
     7
100
AcDbLine
 10
749.50001
 20
1752.00001
 30
0.0
 11
752.50001
 21
1752.00001
 31
0.0
  0
LINE
  5
1109
100
AcDbEntity
  8
10000_FRONT
370
    50
390
0
  6
CONTINUOUS
 62
     7
100
AcDbLine
 10
755.50001
 20
1752.00001
 30
0.0
 11
758.50001
 21
1752.00001
 31
0.0
  0
LINE
  5
110A
100
AcDbEntity
  8
10000_FRONT
370
    50
390
0
  6
CONTINUOUS
 62
     7
100
AcDbLine
 10
653.25001
 20
1757.120005
 30
0.0
 11
654.690012
 21
1757.120005
 31
0.0
  0
LINE
  5
110B
100
AcDbEntity
  8
10000_FRONT
370
    50
390
0
  6
CONTINUOUS
 62
     7
100
AcDbLine
 10
660.450007
 20
1757.120005
 30
0.0
 11
661.890009
 21
1757.120005
 31
0.0
  0
LINE
  5
110C
100
AcDbEntity
  8
10000_FRONT
370
    50
390
0
  6
CONTINUOUS
 62
     7
100
AcDbLine
 10
667.650004
 20
1757.120005
 30
0.0
 11
669.090006
 21
1757.120005
 31
0.0
  0
LINE
  5
110D
100
AcDbEntity
  8
10000_FRONT
370
    50
390
0
  6
CONTINUOUS
 62
     7
100
AcDbLine
 10
674.850016
 20
1757.120005
 30
0.0
 11
676.290003
 21
1757.120005
 31
0.0
  0
LINE
  5
110E
100
AcDbEntity
  8
10000_FRONT
370
    50
390
0
  6
CONTINUOUS
 62
     7
100
AcDbLine
 10
682.050013
 20
1757.120005
 30
0.0
 11
683.490015
 21
1757.120005
 31
0.0
  0
LINE
  5
110F
100
AcDbEntity
  8
10000_FRONT
370
    50
390
0
  6
CONTINUOUS
 62
     7
100
AcDbLine
 10
689.25001
 20
1757.120005
 30
0.0
 11
690.690012
 21
1757.120005
 31
0.0
  0
LINE
  5
1110
100
AcDbEntity
  8
10000_FRONT
370
    50
390
0
  6
CONTINUOUS
 62
     7
100
AcDbLine
 10
658.260005
 20
1757.120005
 30
0.0
 11
659.700007
 21
1757.120005
 31
0.0
  0
LINE
  5
1111
100
AcDbEntity
  8
10000_FRONT
370
    50
390
0
  6
CONTINUOUS
 62
     7
100
AcDbLine
 10
665.460017
 20
1757.120005
 30
0.0
 11
666.900004
 21
1757.120005
 31
0.0
  0
LINE
  5
1112
100
AcDbEntity
  8
10000_FRONT
370
    50
390
0
  6
CONTINUOUS
 62
     7
100
AcDbLine
 10
672.660014
 20
1757.120005
 30
0.0
 11
674.100016
 21
1757.120005
 31
0.0
  0
LINE
  5
1113
100
AcDbEntity
  8
10000_FRONT
370
    50
390
0
  6
CONTINUOUS
 62
     7
100
AcDbLine
 10
679.860011
 20
1757.120005
 30
0.0
 11
681.300013
 21
1757.120005
 31
0.0
  0
LINE
  5
1114
100
AcDbEntity
  8
10000_FRONT
370
    50
390
0
  6
CONTINUOUS
 62
     7
100
AcDbLine
 10
687.060008
 20
1757.120005
 30
0.0
 11
688.50001
 21
1757.120005
 31
0.0
  0
LINE
  5
1115
100
AcDbEntity
  8
10000_FRONT
370
    50
390
0
  6
CONTINUOUS
 62
     7
100
AcDbLine
 10
694.260005
 20
1757.120005
 30
0.0
 11
695.700007
 21
1757.120005
 31
0.0
  0
LINE
  5
1116
100
AcDbEntity
  8
10000_FRONT
370
    50
390
0
  6
CONTINUOUS
 62
     7
100
AcDbLine
 10
608.050013
 20
1757.120005
 30
0.0
 11
609.490008
 21
1757.120005
 31
0.0
  0
LINE
  5
1117
100
AcDbEntity
  8
10000_FRONT
370
    50
390
0
  6
CONTINUOUS
 62
     7
100
AcDbLine
 10
615.25001
 20
1757.120005
 30
0.0
 11
616.690012
 21
1757.120005
 31
0.0
  0
LINE
  5
1118
100
AcDbEntity
  8
10000_FRONT
370
    50
390
0
  6
CONTINUOUS
 62
     7
100
AcDbLine
 10
622.450007
 20
1757.120005
 30
0.0
 11
623.890009
 21
1757.120005
 31
0.0
  0
LINE
  5
1119
100
AcDbEntity
  8
10000_FRONT
370
    50
390
0
  6
CONTINUOUS
 62
     7
100
AcDbLine
 10
629.650012
 20
1757.120005
 30
0.0
 11
631.090006
 21
1757.120005
 31
0.0
  0
LINE
  5
111A
100
AcDbEntity
  8
10000_FRONT
370
    50
390
0
  6
CONTINUOUS
 62
     7
100
AcDbLine
 10
636.850008
 20
1757.120005
 30
0.0
 11
638.290011
 21
1757.120005
 31
0.0
  0
LINE
  5
111B
100
AcDbEntity
  8
10000_FRONT
370
    50
390
0
  6
CONTINUOUS
 62
     7
100
AcDbLine
 10
644.050013
 20
1757.120005
 30
0.0
 11
645.490008
 21
1757.120005
 31
0.0
  0
LINE
  5
111C
100
AcDbEntity
  8
10000_FRONT
370
    50
390
0
  6
CONTINUOUS
 62
     7
100
AcDbLine
 10
613.060008
 20
1757.120005
 30
0.0
 11
614.50001
 21
1757.120005
 31
0.0
  0
LINE
  5
111D
100
AcDbEntity
  8
10000_FRONT
370
    50
390
0
  6
CONTINUOUS
 62
     7
100
AcDbLine
 10
620.260012
 20
1757.120005
 30
0.0
 11
621.700007
 21
1757.120005
 31
0.0
  0
LINE
  5
111E
100
AcDbEntity
  8
10000_FRONT
370
    50
390
0
  6
CONTINUOUS
 62
     7
100
AcDbLine
 10
627.460009
 20
1757.120005
 30
0.0
 11
628.900012
 21
1757.120005
 31
0.0
  0
LINE
  5
111F
100
AcDbEntity
  8
10000_FRONT
370
    50
390
0
  6
CONTINUOUS
 62
     7
100
AcDbLine
 10
634.660014
 20
1757.120005
 30
0.0
 11
636.100008
 21
1757.120005
 31
0.0
  0
LINE
  5
1120
100
AcDbEntity
  8
10000_FRONT
370
    50
390
0
  6
CONTINUOUS
 62
     7
100
AcDbLine
 10
641.860011
 20
1757.120005
 30
0.0
 11
643.300013
 21
1757.120005
 31
0.0
  0
LINE
  5
1121
100
AcDbEntity
  8
10000_FRONT
370
    50
390
0
  6
CONTINUOUS
 62
     7
100
AcDbLine
 10
649.060008
 20
1757.120005
 30
0.0
 11
650.50001
 21
1757.120005
 31
0.0
  0
LINE
  5
1122
100
AcDbEntity
  8
10000_FRONT
370
    50
390
0
  6
CONTINUOUS
 62
     7
100
AcDbLine
 10
653.25001
 20
1760.720011
 30
0.0
 11
654.690012
 21
1760.720011
 31
0.0
  0
LINE
  5
1123
100
AcDbEntity
  8
10000_FRONT
370
    50
390
0
  6
CONTINUOUS
 62
     7
100
AcDbLine
 10
660.450007
 20
1760.720011
 30
0.0
 11
661.890009
 21
1760.720011
 31
0.0
  0
LINE
  5
1124
100
AcDbEntity
  8
10000_FRONT
370
    50
390
0
  6
CONTINUOUS
 62
     7
100
AcDbLine
 10
667.650004
 20
1760.720011
 30
0.0
 11
669.090006
 21
1760.720011
 31
0.0
  0
LINE
  5
1125
100
AcDbEntity
  8
10000_FRONT
370
    50
390
0
  6
CONTINUOUS
 62
     7
100
AcDbLine
 10
674.850016
 20
1760.720011
 30
0.0
 11
676.290003
 21
1760.720011
 31
0.0
  0
LINE
  5
1126
100
AcDbEntity
  8
10000_FRONT
370
    50
390
0
  6
CONTINUOUS
 62
     7
100
AcDbLine
 10
682.050013
 20
1760.720011
 30
0.0
 11
683.490015
 21
1760.720011
 31
0.0
  0
LINE
  5
1127
100
AcDbEntity
  8
10000_FRONT
370
    50
390
0
  6
CONTINUOUS
 62
     7
100
AcDbLine
 10
689.25001
 20
1760.720011
 30
0.0
 11
690.690012
 21
1760.720011
 31
0.0
  0
LINE
  5
1128
100
AcDbEntity
  8
10000_FRONT
370
    50
390
0
  6
CONTINUOUS
 62
     7
100
AcDbLine
 10
658.260005
 20
1760.720011
 30
0.0
 11
659.700007
 21
1760.720011
 31
0.0
  0
LINE
  5
1129
100
AcDbEntity
  8
10000_FRONT
370
    50
390
0
  6
CONTINUOUS
 62
     7
100
AcDbLine
 10
665.460017
 20
1760.720011
 30
0.0
 11
666.900004
 21
1760.720011
 31
0.0
  0
LINE
  5
112A
100
AcDbEntity
  8
10000_FRONT
370
    50
390
0
  6
CONTINUOUS
 62
     7
100
AcDbLine
 10
672.660014
 20
1760.720011
 30
0.0
 11
674.100016
 21
1760.720011
 31
0.0
  0
LINE
  5
112B
100
AcDbEntity
  8
10000_FRONT
370
    50
390
0
  6
CONTINUOUS
 62
     7
100
AcDbLine
 10
679.860011
 20
1760.720011
 30
0.0
 11
681.300013
 21
1760.720011
 31
0.0
  0
LINE
  5
112C
100
AcDbEntity
  8
10000_FRONT
370
    50
390
0
  6
CONTINUOUS
 62
     7
100
AcDbLine
 10
687.060008
 20
1760.720011
 30
0.0
 11
688.50001
 21
1760.720011
 31
0.0
  0
LINE
  5
112D
100
AcDbEntity
  8
10000_FRONT
370
    50
390
0
  6
CONTINUOUS
 62
     7
100
AcDbLine
 10
694.260005
 20
1760.720011
 30
0.0
 11
695.700007
 21
1760.720011
 31
0.0
  0
LINE
  5
112E
100
AcDbEntity
  8
10000_FRONT
370
    50
390
0
  6
CONTINUOUS
 62
     7
100
AcDbLine
 10
608.050013
 20
1760.720011
 30
0.0
 11
609.490008
 21
1760.720011
 31
0.0
  0
LINE
  5
112F
100
AcDbEntity
  8
10000_FRONT
370
    50
390
0
  6
CONTINUOUS
 62
     7
100
AcDbLine
 10
615.25001
 20
1760.720011
 30
0.0
 11
616.690012
 21
1760.720011
 31
0.0
  0
LINE
  5
1130
100
AcDbEntity
  8
10000_FRONT
370
    50
390
0
  6
CONTINUOUS
 62
     7
100
AcDbLine
 10
622.450007
 20
1760.720011
 30
0.0
 11
623.890009
 21
1760.720011
 31
0.0
  0
LINE
  5
1131
100
AcDbEntity
  8
10000_FRONT
370
    50
390
0
  6
CONTINUOUS
 62
     7
100
AcDbLine
 10
629.650012
 20
1760.720011
 30
0.0
 11
631.090006
 21
1760.720011
 31
0.0
  0
LINE
  5
1132
100
AcDbEntity
  8
10000_FRONT
370
    50
390
0
  6
CONTINUOUS
 62
     7
100
AcDbLine
 10
636.850008
 20
1760.720011
 30
0.0
 11
638.290011
 21
1760.720011
 31
0.0
  0
LINE
  5
1133
100
AcDbEntity
  8
10000_FRONT
370
    50
390
0
  6
CONTINUOUS
 62
     7
100
AcDbLine
 10
644.050013
 20
1760.720011
 30
0.0
 11
645.490008
 21
1760.720011
 31
0.0
  0
LINE
  5
1134
100
AcDbEntity
  8
10000_FRONT
370
    50
390
0
  6
CONTINUOUS
 62
     7
100
AcDbLine
 10
613.060008
 20
1760.720011
 30
0.0
 11
614.50001
 21
1760.720011
 31
0.0
  0
LINE
  5
1135
100
AcDbEntity
  8
10000_FRONT
370
    50
390
0
  6
CONTINUOUS
 62
     7
100
AcDbLine
 10
620.260012
 20
1760.720011
 30
0.0
 11
621.700007
 21
1760.720011
 31
0.0
  0
LINE
  5
1136
100
AcDbEntity
  8
10000_FRONT
370
    50
390
0
  6
CONTINUOUS
 62
     7
100
AcDbLine
 10
627.460009
 20
1760.720011
 30
0.0
 11
628.900012
 21
1760.720011
 31
0.0
  0
LINE
  5
1137
100
AcDbEntity
  8
10000_FRONT
370
    50
390
0
  6
CONTINUOUS
 62
     7
100
AcDbLine
 10
634.660014
 20
1760.720011
 30
0.0
 11
636.100008
 21
1760.720011
 31
0.0
  0
LINE
  5
1138
100
AcDbEntity
  8
10000_FRONT
370
    50
390
0
  6
CONTINUOUS
 62
     7
100
AcDbLine
 10
641.860011
 20
1760.720011
 30
0.0
 11
643.300013
 21
1760.720011
 31
0.0
  0
LINE
  5
1139
100
AcDbEntity
  8
10000_FRONT
370
    50
390
0
  6
CONTINUOUS
 62
     7
100
AcDbLine
 10
649.060008
 20
1760.720011
 30
0.0
 11
650.50001
 21
1760.720011
 31
0.0
  0
LINE
  5
113A
100
AcDbEntity
  8
10000_FRONT
370
    50
390
0
  6
CONTINUOUS
 62
     7
100
AcDbLine
 10
601.50001
 20
1764.00001
 30
0.0
 11
604.50001
 21
1764.00001
 31
0.0
  0
LINE
  5
113B
100
AcDbEntity
  8
10000_FRONT
370
    50
390
0
  6
CONTINUOUS
 62
     7
100
AcDbLine
 10
595.50001
 20
1764.00001
 30
0.0
 11
598.50001
 21
1764.00001
 31
0.0
  0
LINE
  5
113C
100
AcDbEntity
  8
10000_FRONT
370
    50
390
0
  6
CONTINUOUS
 62
     7
100
AcDbLine
 10
701.50001
 20
1764.00001
 30
0.0
 11
704.50001
 21
1764.00001
 31
0.0
  0
LINE
  5
113D
100
AcDbEntity
  8
10000_FRONT
370
    50
390
0
  6
CONTINUOUS
 62
     7
100
AcDbLine
 10
707.50001
 20
1764.00001
 30
0.0
 11
710.50001
 21
1764.00001
 31
0.0
  0
LINE
  5
113E
100
AcDbEntity
  8
10000_FRONT
370
    50
390
0
  6
CONTINUOUS
 62
     7
100
AcDbLine
 10
713.50001
 20
1764.00001
 30
0.0
 11
716.50001
 21
1764.00001
 31
0.0
  0
LINE
  5
113F
100
AcDbEntity
  8
10000_FRONT
370
    50
390
0
  6
CONTINUOUS
 62
     7
100
AcDbLine
 10
719.50001
 20
1764.00001
 30
0.0
 11
722.50001
 21
1764.00001
 31
0.0
  0
LINE
  5
1140
100
AcDbEntity
  8
10000_FRONT
370
    50
390
0
  6
CONTINUOUS
 62
     7
100
AcDbLine
 10
725.50001
 20
1764.00001
 30
0.0
 11
728.50001
 21
1764.00001
 31
0.0
  0
LINE
  5
1141
100
AcDbEntity
  8
10000_FRONT
370
    50
390
0
  6
CONTINUOUS
 62
     7
100
AcDbLine
 10
731.50001
 20
1764.00001
 30
0.0
 11
734.50001
 21
1764.00001
 31
0.0
  0
LINE
  5
1142
100
AcDbEntity
  8
10000_FRONT
370
    50
390
0
  6
CONTINUOUS
 62
     7
100
AcDbLine
 10
737.50001
 20
1764.00001
 30
0.0
 11
740.50001
 21
1764.00001
 31
0.0
  0
LINE
  5
1143
100
AcDbEntity
  8
10000_FRONT
370
    50
390
0
  6
CONTINUOUS
 62
     7
100
AcDbLine
 10
743.50001
 20
1764.00001
 30
0.0
 11
746.50001
 21
1764.00001
 31
0.0
  0
LINE
  5
1144
100
AcDbEntity
  8
10000_FRONT
370
    50
390
0
  6
CONTINUOUS
 62
     7
100
AcDbLine
 10
749.50001
 20
1764.00001
 30
0.0
 11
752.50001
 21
1764.00001
 31
0.0
  0
LINE
  5
1145
100
AcDbEntity
  8
10000_FRONT
370
    50
390
0
  6
CONTINUOUS
 62
     7
100
AcDbLine
 10
755.50001
 20
1764.00001
 30
0.0
 11
758.50001
 21
1764.00001
 31
0.0
  0
LINE
  5
1146
100
AcDbEntity
  8
10000_FRONT
370
    50
390
0
  6
CONTINUOUS
 62
     7
100
AcDbLine
 10
606.900012
 20
1764.150004
 30
0.0
 11
697.100016
 21
1764.150004
 31
0.0
  0
LINE
  5
1147
100
AcDbEntity
  8
10000_FRONT
370
    50
390
0
  6
CONTINUOUS
 62
     7
100
AcDbLine
 10
697.284998
 20
1797.650004
 30
0.0
 11
710.995997
 21
1797.650004
 31
0.0
  0
LINE
  5
1148
100
AcDbEntity
  8
10000_FRONT
370
    50
390
0
  6
CONTINUOUS
 62
     7
100
AcDbLine
 10
714.226511
 20
1799.600016
 30
0.0
 11
716.849024
 21
1799.600016
 31
0.0
  0
LINE
  5
1149
100
AcDbEntity
  8
10000_FRONT
370
    50
390
0
  6
CONTINUOUS
 62
     7
100
AcDbLine
 10
691.449015
 20
1799.600016
 30
0.0
 11
694.071497
 21
1799.600016
 31
0.0
  0
LINE
  5
114A
100
AcDbEntity
  8
10000_FRONT
370
    50
390
0
  6
CONTINUOUS
 62
     7
100
AcDbLine
 10
714.226511
 20
1808.50001
 30
0.0
 11
716.849024
 21
1808.50001
 31
0.0
  0
LINE
  5
114B
100
AcDbEntity
  8
10000_FRONT
370
    50
390
0
  6
CONTINUOUS
 62
     7
100
AcDbLine
 10
691.449015
 20
1808.50001
 30
0.0
 11
694.071497
 21
1808.50001
 31
0.0
  0
LINE
  5
114C
100
AcDbEntity
  8
10000_FRONT
370
    50
390
0
  6
CONTINUOUS
 62
     7
100
AcDbLine
 10
697.302012
 20
1810.450022
 30
0.0
 11
710.950999
 21
1810.450022
 31
0.0
  0
LINE
  5
114D
100
AcDbEntity
  8
10000_FRONT
370
    50
390
0
  6
CONTINUOUS
 62
     7
100
AcDbLine
 10
672.100016
 20
1818.150004
 30
0.0
 11
762.00001
 21
1818.150004
 31
0.0
  0
LINE
  5
114E
100
AcDbEntity
  8
10000_FRONT
370
    50
390
0
  6
CONTINUOUS
 62
     7
100
AcDbLine
 10
592.00001
 20
1818.150004
 30
0.0
 11
631.800013
 21
1818.150004
 31
0.0
  0
LINE
  5
114F
100
AcDbEntity
  8
10000_FRONT
370
    50
390
0
  6
CONTINUOUS
 62
     7
100
AcDbLine
 10
635.450007
 20
1833.00001
 30
0.0
 11
668.550013
 21
1833.00001
 31
0.0
  0
LINE
  5
1150
100
AcDbEntity
  8
10000_FRONT
370
    50
390
0
  6
CONTINUOUS
 62
     7
100
AcDbLine
 10
635.450007
 20
1859.00001
 30
0.0
 11
668.550013
 21
1859.00001
 31
0.0
  0
LINE
  5
1151
100
AcDbEntity
  8
10000_FRONT
370
    50
390
0
  6
CONTINUOUS
 62
     7
100
AcDbLine
 10
672.100016
 20
1873.850016
 30
0.0
 11
762.00001
 21
1873.850016
 31
0.0
  0
LINE
  5
1152
100
AcDbEntity
  8
10000_FRONT
370
    50
390
0
  6
CONTINUOUS
 62
     7
100
AcDbLine
 10
592.00001
 20
1873.850016
 30
0.0
 11
631.800013
 21
1873.850016
 31
0.0
  0
LINE
  5
1153
100
AcDbEntity
  8
10000_FRONT
370
    50
390
0
  6
CONTINUOUS
 62
     7
100
AcDbLine
 10
601.50001
 20
1883.00001
 30
0.0
 11
604.50001
 21
1883.00001
 31
0.0
  0
LINE
  5
1154
100
AcDbEntity
  8
10000_FRONT
370
    50
390
0
  6
CONTINUOUS
 62
     7
100
AcDbLine
 10
595.50001
 20
1883.00001
 30
0.0
 11
598.50001
 21
1883.00001
 31
0.0
  0
LINE
  5
1155
100
AcDbEntity
  8
10000_FRONT
370
    50
390
0
  6
CONTINUOUS
 62
     7
100
AcDbLine
 10
701.50001
 20
1883.00001
 30
0.0
 11
704.50001
 21
1883.00001
 31
0.0
  0
LINE
  5
1156
100
AcDbEntity
  8
10000_FRONT
370
    50
390
0
  6
CONTINUOUS
 62
     7
100
AcDbLine
 10
707.50001
 20
1883.00001
 30
0.0
 11
710.50001
 21
1883.00001
 31
0.0
  0
LINE
  5
1157
100
AcDbEntity
  8
10000_FRONT
370
    50
390
0
  6
CONTINUOUS
 62
     7
100
AcDbLine
 10
713.50001
 20
1883.00001
 30
0.0
 11
716.50001
 21
1883.00001
 31
0.0
  0
LINE
  5
1158
100
AcDbEntity
  8
10000_FRONT
370
    50
390
0
  6
CONTINUOUS
 62
     7
100
AcDbLine
 10
719.50001
 20
1883.00001
 30
0.0
 11
722.50001
 21
1883.00001
 31
0.0
  0
LINE
  5
1159
100
AcDbEntity
  8
10000_FRONT
370
    50
390
0
  6
CONTINUOUS
 62
     7
100
AcDbLine
 10
725.50001
 20
1883.00001
 30
0.0
 11
728.50001
 21
1883.00001
 31
0.0
  0
LINE
  5
115A
100
AcDbEntity
  8
10000_FRONT
370
    50
390
0
  6
CONTINUOUS
 62
     7
100
AcDbLine
 10
731.50001
 20
1883.00001
 30
0.0
 11
734.50001
 21
1883.00001
 31
0.0
  0
LINE
  5
115B
100
AcDbEntity
  8
10000_FRONT
370
    50
390
0
  6
CONTINUOUS
 62
     7
100
AcDbLine
 10
737.50001
 20
1883.00001
 30
0.0
 11
740.50001
 21
1883.00001
 31
0.0
  0
LINE
  5
115C
100
AcDbEntity
  8
10000_FRONT
370
    50
390
0
  6
CONTINUOUS
 62
     7
100
AcDbLine
 10
743.50001
 20
1883.00001
 30
0.0
 11
746.50001
 21
1883.00001
 31
0.0
  0
LINE
  5
115D
100
AcDbEntity
  8
10000_FRONT
370
    50
390
0
  6
CONTINUOUS
 62
     7
100
AcDbLine
 10
749.50001
 20
1883.00001
 30
0.0
 11
752.50001
 21
1883.00001
 31
0.0
  0
LINE
  5
115E
100
AcDbEntity
  8
10000_FRONT
370
    50
390
0
  6
CONTINUOUS
 62
     7
100
AcDbLine
 10
755.50001
 20
1883.00001
 30
0.0
 11
758.50001
 21
1883.00001
 31
0.0
  0
LINE
  5
115F
100
AcDbEntity
  8
10000_FRONT
370
    50
390
0
  6
CONTINUOUS
 62
     7
100
AcDbLine
 10
606.900012
 20
1883.850016
 30
0.0
 11
697.100016
 21
1883.850016
 31
0.0
  0
LINE
  5
1160
100
AcDbEntity
  8
10000_FRONT
370
    50
390
0
  6
CONTINUOUS
 62
     7
100
AcDbLine
 10
694.510005
 20
1887.280009
 30
0.0
 11
695.950007
 21
1887.280009
 31
0.0
  0
LINE
  5
1161
100
AcDbEntity
  8
10000_FRONT
370
    50
390
0
  6
CONTINUOUS
 62
     7
100
AcDbLine
 10
687.310008
 20
1887.280009
 30
0.0
 11
688.75001
 21
1887.280009
 31
0.0
  0
LINE
  5
1162
100
AcDbEntity
  8
10000_FRONT
370
    50
390
0
  6
CONTINUOUS
 62
     7
100
AcDbLine
 10
680.110011
 20
1887.280009
 30
0.0
 11
681.550013
 21
1887.280009
 31
0.0
  0
LINE
  5
1163
100
AcDbEntity
  8
10000_FRONT
370
    50
390
0
  6
CONTINUOUS
 62
     7
100
AcDbLine
 10
672.910014
 20
1887.280009
 30
0.0
 11
674.350016
 21
1887.280009
 31
0.0
  0
LINE
  5
1164
100
AcDbEntity
  8
10000_FRONT
370
    50
390
0
  6
CONTINUOUS
 62
     7
100
AcDbLine
 10
665.710017
 20
1887.280009
 30
0.0
 11
667.150004
 21
1887.280009
 31
0.0
  0
LINE
  5
1165
100
AcDbEntity
  8
10000_FRONT
370
    50
390
0
  6
CONTINUOUS
 62
     7
100
AcDbLine
 10
658.510005
 20
1887.280009
 30
0.0
 11
659.950007
 21
1887.280009
 31
0.0
  0
LINE
  5
1166
100
AcDbEntity
  8
10000_FRONT
370
    50
390
0
  6
CONTINUOUS
 62
     7
100
AcDbLine
 10
689.50001
 20
1887.280009
 30
0.0
 11
690.940012
 21
1887.280009
 31
0.0
  0
LINE
  5
1167
100
AcDbEntity
  8
10000_FRONT
370
    50
390
0
  6
CONTINUOUS
 62
     7
100
AcDbLine
 10
682.300013
 20
1887.280009
 30
0.0
 11
683.740015
 21
1887.280009
 31
0.0
  0
LINE
  5
1168
100
AcDbEntity
  8
10000_FRONT
370
    50
390
0
  6
CONTINUOUS
 62
     7
100
AcDbLine
 10
675.100016
 20
1887.280009
 30
0.0
 11
676.540003
 21
1887.280009
 31
0.0
  0
LINE
  5
1169
100
AcDbEntity
  8
10000_FRONT
370
    50
390
0
  6
CONTINUOUS
 62
     7
100
AcDbLine
 10
667.900004
 20
1887.280009
 30
0.0
 11
669.340006
 21
1887.280009
 31
0.0
  0
LINE
  5
116A
100
AcDbEntity
  8
10000_FRONT
370
    50
390
0
  6
CONTINUOUS
 62
     7
100
AcDbLine
 10
660.700007
 20
1887.280009
 30
0.0
 11
662.140009
 21
1887.280009
 31
0.0
  0
LINE
  5
116B
100
AcDbEntity
  8
10000_FRONT
370
    50
390
0
  6
CONTINUOUS
 62
     7
100
AcDbLine
 10
653.50001
 20
1887.280009
 30
0.0
 11
654.940012
 21
1887.280009
 31
0.0
  0
LINE
  5
116C
100
AcDbEntity
  8
10000_FRONT
370
    50
390
0
  6
CONTINUOUS
 62
     7
100
AcDbLine
 10
649.310008
 20
1887.280009
 30
0.0
 11
650.75001
 21
1887.280009
 31
0.0
  0
LINE
  5
116D
100
AcDbEntity
  8
10000_FRONT
370
    50
390
0
  6
CONTINUOUS
 62
     7
100
AcDbLine
 10
642.110011
 20
1887.280009
 30
0.0
 11
643.550013
 21
1887.280009
 31
0.0
  0
LINE
  5
116E
100
AcDbEntity
  8
10000_FRONT
370
    50
390
0
  6
CONTINUOUS
 62
     7
100
AcDbLine
 10
634.910014
 20
1887.280009
 30
0.0
 11
636.350008
 21
1887.280009
 31
0.0
  0
LINE
  5
116F
100
AcDbEntity
  8
10000_FRONT
370
    50
390
0
  6
CONTINUOUS
 62
     7
100
AcDbLine
 10
627.710009
 20
1887.280009
 30
0.0
 11
629.150012
 21
1887.280009
 31
0.0
  0
LINE
  5
1170
100
AcDbEntity
  8
10000_FRONT
370
    50
390
0
  6
CONTINUOUS
 62
     7
100
AcDbLine
 10
620.510012
 20
1887.280009
 30
0.0
 11
621.950007
 21
1887.280009
 31
0.0
  0
LINE
  5
1171
100
AcDbEntity
  8
10000_FRONT
370
    50
390
0
  6
CONTINUOUS
 62
     7
100
AcDbLine
 10
613.310008
 20
1887.280009
 30
0.0
 11
614.75001
 21
1887.280009
 31
0.0
  0
LINE
  5
1172
100
AcDbEntity
  8
10000_FRONT
370
    50
390
0
  6
CONTINUOUS
 62
     7
100
AcDbLine
 10
644.300013
 20
1887.280009
 30
0.0
 11
645.740008
 21
1887.280009
 31
0.0
  0
LINE
  5
1173
100
AcDbEntity
  8
10000_FRONT
370
    50
390
0
  6
CONTINUOUS
 62
     7
100
AcDbLine
 10
637.100008
 20
1887.280009
 30
0.0
 11
638.540011
 21
1887.280009
 31
0.0
  0
LINE
  5
1174
100
AcDbEntity
  8
10000_FRONT
370
    50
390
0
  6
CONTINUOUS
 62
     7
100
AcDbLine
 10
629.900012
 20
1887.280009
 30
0.0
 11
631.340006
 21
1887.280009
 31
0.0
  0
LINE
  5
1175
100
AcDbEntity
  8
10000_FRONT
370
    50
390
0
  6
CONTINUOUS
 62
     7
100
AcDbLine
 10
622.700007
 20
1887.280009
 30
0.0
 11
624.140009
 21
1887.280009
 31
0.0
  0
LINE
  5
1176
100
AcDbEntity
  8
10000_FRONT
370
    50
390
0
  6
CONTINUOUS
 62
     7
100
AcDbLine
 10
615.50001
 20
1887.280009
 30
0.0
 11
616.940012
 21
1887.280009
 31
0.0
  0
LINE
  5
1177
100
AcDbEntity
  8
10000_FRONT
370
    50
390
0
  6
CONTINUOUS
 62
     7
100
AcDbLine
 10
608.300013
 20
1887.280009
 30
0.0
 11
609.740008
 21
1887.280009
 31
0.0
  0
LINE
  5
1178
100
AcDbEntity
  8
10000_FRONT
370
    50
390
0
  6
CONTINUOUS
 62
     7
100
AcDbLine
 10
694.510005
 20
1890.880015
 30
0.0
 11
695.950007
 21
1890.880015
 31
0.0
  0
LINE
  5
1179
100
AcDbEntity
  8
10000_FRONT
370
    50
390
0
  6
CONTINUOUS
 62
     7
100
AcDbLine
 10
687.310008
 20
1890.880015
 30
0.0
 11
688.75001
 21
1890.880015
 31
0.0
  0
LINE
  5
117A
100
AcDbEntity
  8
10000_FRONT
370
    50
390
0
  6
CONTINUOUS
 62
     7
100
AcDbLine
 10
680.110011
 20
1890.880015
 30
0.0
 11
681.550013
 21
1890.880015
 31
0.0
  0
LINE
  5
117B
100
AcDbEntity
  8
10000_FRONT
370
    50
390
0
  6
CONTINUOUS
 62
     7
100
AcDbLine
 10
672.910014
 20
1890.880015
 30
0.0
 11
674.350016
 21
1890.880015
 31
0.0
  0
LINE
  5
117C
100
AcDbEntity
  8
10000_FRONT
370
    50
390
0
  6
CONTINUOUS
 62
     7
100
AcDbLine
 10
665.710017
 20
1890.880015
 30
0.0
 11
667.150004
 21
1890.880015
 31
0.0
  0
LINE
  5
117D
100
AcDbEntity
  8
10000_FRONT
370
    50
390
0
  6
CONTINUOUS
 62
     7
100
AcDbLine
 10
658.510005
 20
1890.880015
 30
0.0
 11
659.950007
 21
1890.880015
 31
0.0
  0
LINE
  5
117E
100
AcDbEntity
  8
10000_FRONT
370
    50
390
0
  6
CONTINUOUS
 62
     7
100
AcDbLine
 10
689.50001
 20
1890.880015
 30
0.0
 11
690.940012
 21
1890.880015
 31
0.0
  0
LINE
  5
117F
100
AcDbEntity
  8
10000_FRONT
370
    50
390
0
  6
CONTINUOUS
 62
     7
100
AcDbLine
 10
682.300013
 20
1890.880015
 30
0.0
 11
683.740015
 21
1890.880015
 31
0.0
  0
LINE
  5
1180
100
AcDbEntity
  8
10000_FRONT
370
    50
390
0
  6
CONTINUOUS
 62
     7
100
AcDbLine
 10
675.100016
 20
1890.880015
 30
0.0
 11
676.540003
 21
1890.880015
 31
0.0
  0
LINE
  5
1181
100
AcDbEntity
  8
10000_FRONT
370
    50
390
0
  6
CONTINUOUS
 62
     7
100
AcDbLine
 10
667.900004
 20
1890.880015
 30
0.0
 11
669.340006
 21
1890.880015
 31
0.0
  0
LINE
  5
1182
100
AcDbEntity
  8
10000_FRONT
370
    50
390
0
  6
CONTINUOUS
 62
     7
100
AcDbLine
 10
660.700007
 20
1890.880015
 30
0.0
 11
662.140009
 21
1890.880015
 31
0.0
  0
LINE
  5
1183
100
AcDbEntity
  8
10000_FRONT
370
    50
390
0
  6
CONTINUOUS
 62
     7
100
AcDbLine
 10
653.50001
 20
1890.880015
 30
0.0
 11
654.940012
 21
1890.880015
 31
0.0
  0
LINE
  5
1184
100
AcDbEntity
  8
10000_FRONT
370
    50
390
0
  6
CONTINUOUS
 62
     7
100
AcDbLine
 10
649.310008
 20
1890.880015
 30
0.0
 11
650.75001
 21
1890.880015
 31
0.0
  0
LINE
  5
1185
100
AcDbEntity
  8
10000_FRONT
370
    50
390
0
  6
CONTINUOUS
 62
     7
100
AcDbLine
 10
642.110011
 20
1890.880015
 30
0.0
 11
643.550013
 21
1890.880015
 31
0.0
  0
LINE
  5
1186
100
AcDbEntity
  8
10000_FRONT
370
    50
390
0
  6
CONTINUOUS
 62
     7
100
AcDbLine
 10
634.910014
 20
1890.880015
 30
0.0
 11
636.350008
 21
1890.880015
 31
0.0
  0
LINE
  5
1187
100
AcDbEntity
  8
10000_FRONT
370
    50
390
0
  6
CONTINUOUS
 62
     7
100
AcDbLine
 10
627.710009
 20
1890.880015
 30
0.0
 11
629.150012
 21
1890.880015
 31
0.0
  0
LINE
  5
1188
100
AcDbEntity
  8
10000_FRONT
370
    50
390
0
  6
CONTINUOUS
 62
     7
100
AcDbLine
 10
620.510012
 20
1890.880015
 30
0.0
 11
621.950007
 21
1890.880015
 31
0.0
  0
LINE
  5
1189
100
AcDbEntity
  8
10000_FRONT
370
    50
390
0
  6
CONTINUOUS
 62
     7
100
AcDbLine
 10
613.310008
 20
1890.880015
 30
0.0
 11
614.75001
 21
1890.880015
 31
0.0
  0
LINE
  5
118A
100
AcDbEntity
  8
10000_FRONT
370
    50
390
0
  6
CONTINUOUS
 62
     7
100
AcDbLine
 10
644.300013
 20
1890.880015
 30
0.0
 11
645.740008
 21
1890.880015
 31
0.0
  0
LINE
  5
118B
100
AcDbEntity
  8
10000_FRONT
370
    50
390
0
  6
CONTINUOUS
 62
     7
100
AcDbLine
 10
637.100008
 20
1890.880015
 30
0.0
 11
638.540011
 21
1890.880015
 31
0.0
  0
LINE
  5
118C
100
AcDbEntity
  8
10000_FRONT
370
    50
390
0
  6
CONTINUOUS
 62
     7
100
AcDbLine
 10
629.900012
 20
1890.880015
 30
0.0
 11
631.340006
 21
1890.880015
 31
0.0
  0
LINE
  5
118D
100
AcDbEntity
  8
10000_FRONT
370
    50
390
0
  6
CONTINUOUS
 62
     7
100
AcDbLine
 10
622.700007
 20
1890.880015
 30
0.0
 11
624.140009
 21
1890.880015
 31
0.0
  0
LINE
  5
118E
100
AcDbEntity
  8
10000_FRONT
370
    50
390
0
  6
CONTINUOUS
 62
     7
100
AcDbLine
 10
615.50001
 20
1890.880015
 30
0.0
 11
616.940012
 21
1890.880015
 31
0.0
  0
LINE
  5
118F
100
AcDbEntity
  8
10000_FRONT
370
    50
390
0
  6
CONTINUOUS
 62
     7
100
AcDbLine
 10
608.300013
 20
1890.880015
 30
0.0
 11
609.740008
 21
1890.880015
 31
0.0
  0
LINE
  5
1190
100
AcDbEntity
  8
10000_FRONT
370
    50
390
0
  6
CONTINUOUS
 62
     7
100
AcDbLine
 10
601.50001
 20
1895.00001
 30
0.0
 11
604.50001
 21
1895.00001
 31
0.0
  0
LINE
  5
1191
100
AcDbEntity
  8
10000_FRONT
370
    50
390
0
  6
CONTINUOUS
 62
     7
100
AcDbLine
 10
595.50001
 20
1895.00001
 30
0.0
 11
598.50001
 21
1895.00001
 31
0.0
  0
LINE
  5
1192
100
AcDbEntity
  8
10000_FRONT
370
    50
390
0
  6
CONTINUOUS
 62
     7
100
AcDbLine
 10
701.50001
 20
1895.00001
 30
0.0
 11
704.50001
 21
1895.00001
 31
0.0
  0
LINE
  5
1193
100
AcDbEntity
  8
10000_FRONT
370
    50
390
0
  6
CONTINUOUS
 62
     7
100
AcDbLine
 10
707.50001
 20
1895.00001
 30
0.0
 11
710.50001
 21
1895.00001
 31
0.0
  0
LINE
  5
1194
100
AcDbEntity
  8
10000_FRONT
370
    50
390
0
  6
CONTINUOUS
 62
     7
100
AcDbLine
 10
713.50001
 20
1895.00001
 30
0.0
 11
716.50001
 21
1895.00001
 31
0.0
  0
LINE
  5
1195
100
AcDbEntity
  8
10000_FRONT
370
    50
390
0
  6
CONTINUOUS
 62
     7
100
AcDbLine
 10
719.50001
 20
1895.00001
 30
0.0
 11
722.50001
 21
1895.00001
 31
0.0
  0
LINE
  5
1196
100
AcDbEntity
  8
10000_FRONT
370
    50
390
0
  6
CONTINUOUS
 62
     7
100
AcDbLine
 10
725.50001
 20
1895.00001
 30
0.0
 11
728.50001
 21
1895.00001
 31
0.0
  0
LINE
  5
1197
100
AcDbEntity
  8
10000_FRONT
370
    50
390
0
  6
CONTINUOUS
 62
     7
100
AcDbLine
 10
731.50001
 20
1895.00001
 30
0.0
 11
734.50001
 21
1895.00001
 31
0.0
  0
LINE
  5
1198
100
AcDbEntity
  8
10000_FRONT
370
    50
390
0
  6
CONTINUOUS
 62
     7
100
AcDbLine
 10
737.50001
 20
1895.00001
 30
0.0
 11
740.50001
 21
1895.00001
 31
0.0
  0
LINE
  5
1199
100
AcDbEntity
  8
10000_FRONT
370
    50
390
0
  6
CONTINUOUS
 62
     7
100
AcDbLine
 10
743.50001
 20
1895.00001
 30
0.0
 11
746.50001
 21
1895.00001
 31
0.0
  0
LINE
  5
119A
100
AcDbEntity
  8
10000_FRONT
370
    50
390
0
  6
CONTINUOUS
 62
     7
100
AcDbLine
 10
749.50001
 20
1895.00001
 30
0.0
 11
752.50001
 21
1895.00001
 31
0.0
  0
LINE
  5
119B
100
AcDbEntity
  8
10000_FRONT
370
    50
390
0
  6
CONTINUOUS
 62
     7
100
AcDbLine
 10
755.50001
 20
1895.00001
 30
0.0
 11
758.50001
 21
1895.00001
 31
0.0
  0
LINE
  5
119C
100
AcDbEntity
  8
10000_FRONT
370
    50
390
0
  6
CONTINUOUS
 62
     7
100
AcDbLine
 10
651.900034
 20
1898.00001
 30
0.0
 11
652.100031
 21
1898.00001
 31
0.0
  0
LINE
  5
119D
100
AcDbEntity
  8
10000_FRONT
370
    50
390
0
  6
CONTINUOUS
 62
     7
100
AcDbLine
 10
697.00001
 20
1898.00001
 30
0.0
 11
762.00001
 21
1898.00001
 31
0.0
  0
LINE
  5
119E
100
AcDbEntity
  8
10000_FRONT
370
    50
390
0
  6
CONTINUOUS
 62
     7
100
AcDbLine
 10
592.00001
 20
1898.00001
 30
0.0
 11
607.00001
 21
1898.00001
 31
0.0
  0
LINE
  5
119F
100
AcDbEntity
  8
10000_FRONT
370
    50
390
0
  6
CONTINUOUS
 62
     7
100
AcDbLine
 10
592.00001
 20
1898.00001
 30
0.0
 11
592.000033
 21
1898.00001
 31
0.0
  0
LINE
  5
11A0
100
AcDbEntity
  8
10000_FRONT
370
    50
390
0
  6
CONTINUOUS
 62
     7
100
AcDbLine
 10
653.600008
 20
1899.650004
 30
0.0
 11
695.600016
 21
1899.650004
 31
0.0
  0
LINE
  5
11A1
100
AcDbEntity
  8
10000_FRONT
370
    50
390
0
  6
CONTINUOUS
 62
     7
100
AcDbLine
 10
608.400012
 20
1899.650004
 30
0.0
 11
650.400012
 21
1899.650004
 31
0.0
  0
LINE
  5
11A2
100
AcDbEntity
  8
10000_FRONT
370
    50
390
0
  6
CONTINUOUS
 62
     7
100
AcDbLine
 10
273.00001
 20
2208.50001
 30
0.0
 11
784.00001
 21
2208.50001
 31
0.0
  0
LINE
  5
11A3
100
AcDbEntity
  8
10000_FRONT
370
    50
390
0
  6
CONTINUOUS
 62
     7
100
AcDbLine
 10
427.50001
 20
2214.499995
 30
0.0
 11
499.50001
 21
2214.499995
 31
0.0
  0
LINE
  5
11A4
100
AcDbEntity
  8
10000_FRONT
370
    50
390
0
  6
CONTINUOUS
 62
     7
100
AcDbLine
 10
354.50001
 20
2214.499995
 30
0.0
 11
426.50001
 21
2214.499995
 31
0.0
  0
LINE
  5
11A5
100
AcDbEntity
  8
10000_FRONT
370
    50
390
0
  6
CONTINUOUS
 62
     7
100
AcDbLine
 10
281.50001
 20
2214.499995
 30
0.0
 11
353.50001
 21
2214.499995
 31
0.0
  0
LINE
  5
11A6
100
AcDbEntity
  8
10000_FRONT
370
    50
390
0
  6
CONTINUOUS
 62
     7
100
AcDbLine
 10
427.50001
 20
2228.50001
 30
0.0
 11
499.50001
 21
2228.50001
 31
0.0
  0
LINE
  5
11A7
100
AcDbEntity
  8
10000_FRONT
370
    50
390
0
  6
CONTINUOUS
 62
     7
100
AcDbLine
 10
354.50001
 20
2228.50001
 30
0.0
 11
426.50001
 21
2228.50001
 31
0.0
  0
LINE
  5
11A8
100
AcDbEntity
  8
10000_FRONT
370
    50
390
0
  6
CONTINUOUS
 62
     7
100
AcDbLine
 10
281.50001
 20
2228.50001
 30
0.0
 11
353.50001
 21
2228.50001
 31
0.0
  0
LINE
  5
11A9
100
AcDbEntity
  8
10000_FRONT
370
    50
390
0
  6
CONTINUOUS
 62
     7
100
AcDbLine
 10
781.00001
 20
2231.50001
 30
0.0
 11
784.00001
 21
2231.50001
 31
0.0
  0
LINE
  5
11AA
100
AcDbEntity
  8
10000_FRONT
370
    50
390
0
  6
CONTINUOUS
 62
     7
100
AcDbLine
 10
273.00001
 20
2231.50001
 30
0.0
 11
276.00001
 21
2231.50001
 31
0.0
  0
LINE
  5
11AB
100
AcDbEntity
  8
10000_FRONT
370
    50
390
0
  6
CONTINUOUS
 62
     7
100
AcDbLine
 10
276.00001
 20
2234.00001
 30
0.0
 11
295.000117
 21
2234.00001
 31
0.0
  0
LINE
  5
11AC
100
AcDbEntity
  8
10000_FRONT
370
    50
390
0
  6
CONTINUOUS
 62
     7
100
AcDbLine
 10
340.000117
 20
2234.00001
 30
0.0
 11
368.000117
 21
2234.00001
 31
0.0
  0
LINE
  5
11AD
100
AcDbEntity
  8
10000_FRONT
370
    50
390
0
  6
CONTINUOUS
 62
     7
100
AcDbLine
 10
413.000117
 20
2234.00001
 30
0.0
 11
441.000117
 21
2234.00001
 31
0.0
  0
LINE
  5
11AE
100
AcDbEntity
  8
10000_FRONT
370
    50
390
0
  6
CONTINUOUS
 62
     7
100
AcDbLine
 10
486.000113
 20
2234.00001
 30
0.0
 11
781.00001
 21
2234.00001
 31
0.0
  0
LINE
  5
11AF
100
AcDbEntity
  8
10000_FRONT
370
    50
390
0
  6
CONTINUOUS
 62
     7
100
AcDbLine
 10
441.00001
 20
2238.50001
 30
0.0
 11
486.00001
 21
2238.50001
 31
0.0
  0
LINE
  5
11B0
100
AcDbEntity
  8
10000_FRONT
370
    50
390
0
  6
CONTINUOUS
 62
     7
100
AcDbLine
 10
368.00001
 20
2238.50001
 30
0.0
 11
413.00001
 21
2238.50001
 31
0.0
  0
LINE
  5
11B1
100
AcDbEntity
  8
10000_FRONT
370
    50
390
0
  6
CONTINUOUS
 62
     7
100
AcDbLine
 10
295.00001
 20
2238.50001
 30
0.0
 11
340.00001
 21
2238.50001
 31
0.0
  0
LINE
  5
11B2
100
AcDbEntity
  8
10000_FRONT
370
    50
390
0
  6
CONTINUOUS
 62
     7
100
AcDbLine
 10
276.00001
 20
2268.00001
 30
0.0
 11
297.500117
 21
2268.00001
 31
0.0
  0
LINE
  5
11B3
100
AcDbEntity
  8
10000_FRONT
370
    50
390
0
  6
CONTINUOUS
 62
     7
100
AcDbLine
 10
312.138117
 20
2268.00001
 30
0.0
 11
322.861918
 21
2268.00001
 31
0.0
  0
LINE
  5
11B4
100
AcDbEntity
  8
10000_FRONT
370
    50
390
0
  6
CONTINUOUS
 62
     7
100
AcDbLine
 10
337.500117
 20
2268.00001
 30
0.0
 11
370.500117
 21
2268.00001
 31
0.0
  0
LINE
  5
11B5
100
AcDbEntity
  8
10000_FRONT
370
    50
390
0
  6
CONTINUOUS
 62
     7
100
AcDbLine
 10
385.138117
 20
2268.00001
 30
0.0
 11
395.861918
 21
2268.00001
 31
0.0
  0
LINE
  5
11B6
100
AcDbEntity
  8
10000_FRONT
370
    50
390
0
  6
CONTINUOUS
 62
     7
100
AcDbLine
 10
410.500124
 20
2268.00001
 30
0.0
 11
443.500124
 21
2268.00001
 31
0.0
  0
LINE
  5
11B7
100
AcDbEntity
  8
10000_FRONT
370
    50
390
0
  6
CONTINUOUS
 62
     7
100
AcDbLine
 10
458.138117
 20
2268.00001
 30
0.0
 11
468.861914
 21
2268.00001
 31
0.0
  0
LINE
  5
11B8
100
AcDbEntity
  8
10000_FRONT
370
    50
390
0
  6
CONTINUOUS
 62
     7
100
AcDbLine
 10
483.500124
 20
2268.00001
 30
0.0
 11
781.00001
 21
2268.00001
 31
0.0
  0
LINE
  5
11B9
100
AcDbEntity
  8
10000_FRONT
370
    50
390
0
  6
CONTINUOUS
 62
     7
100
AcDbLine
 10
443.50001
 20
2283.50001
 30
0.0
 11
483.50001
 21
2283.50001
 31
0.0
  0
LINE
  5
11BA
100
AcDbEntity
  8
10000_FRONT
370
    50
390
0
  6
CONTINUOUS
 62
     7
100
AcDbLine
 10
370.50001
 20
2283.50001
 30
0.0
 11
410.50001
 21
2283.50001
 31
0.0
  0
LINE
  5
11BB
100
AcDbEntity
  8
10000_FRONT
370
    50
390
0
  6
CONTINUOUS
 62
     7
100
AcDbLine
 10
297.50001
 20
2283.50001
 30
0.0
 11
337.50001
 21
2283.50001
 31
0.0
  0
LINE
  5
11BC
100
AcDbEntity
  8
10000_FRONT
370
    50
390
0
  6
CONTINUOUS
 62
     7
100
AcDbLine
 10
551.75001
 20
1677.00001
 30
0.0
 11
562.50001
 21
1683.200022
 31
0.0
  0
LINE
  5
11BD
100
AcDbEntity
  8
10000_FRONT
370
    50
390
0
  6
CONTINUOUS
 62
     7
100
AcDbLine
 10
712.50001
 20
1711.799998
 30
0.0
 11
723.25001
 21
1718.00001
 31
0.0
  0
LINE
  5
11BE
100
AcDbEntity
  8
10000_FRONT
370
    50
390
0
  6
CONTINUOUS
 62
     7
100
AcDbLine
 10
710.995997
 20
1797.650004
 30
0.0
 11
714.226511
 21
1799.600016
 31
0.0
  0
LINE
  5
11BF
100
AcDbEntity
  8
10000_FRONT
370
    50
390
0
  6
CONTINUOUS
 62
     7
100
AcDbLine
 10
694.071497
 20
1808.50001
 30
0.0
 11
697.302012
 21
1810.450022
 31
0.0
  0
LINE
  5
11C0
100
AcDbEntity
  8
10000_FRONT
370
    50
390
0
  6
CONTINUOUS
 62
     7
100
AcDbLine
 10
273.00001
 20
1683.50001
 30
0.0
 11
273.00001
 21
2231.50001
 31
0.0
  0
LINE
  5
11C1
100
AcDbEntity
  8
10000_FRONT
370
    50
390
0
  6
CONTINUOUS
 62
     7
100
AcDbLine
 10
276.00001
 20
1645.00001
 30
0.0
 11
276.00001
 21
2268.00001
 31
0.0
  0
LINE
  5
11C2
100
AcDbEntity
  8
10000_FRONT
370
    50
390
0
  6
CONTINUOUS
 62
     7
100
AcDbLine
 10
281.50001
 20
1703.50001
 30
0.0
 11
281.50001
 21
1723.50001
 31
0.0
  0
LINE
  5
11C3
100
AcDbEntity
  8
10000_FRONT
370
    50
390
0
  6
CONTINUOUS
 62
     7
100
AcDbLine
 10
281.50001
 20
2208.50001
 30
0.0
 11
281.50001
 21
2214.499995
 31
0.0
  0
LINE
  5
11C4
100
AcDbEntity
  8
10000_FRONT
370
    50
390
0
  6
CONTINUOUS
 62
     7
100
AcDbLine
 10
281.50001
 20
2214.499995
 30
0.0
 11
281.50001
 21
2228.50001
 31
0.0
  0
LINE
  5
11C5
100
AcDbEntity
  8
10000_FRONT
370
    50
390
0
  6
CONTINUOUS
 62
     7
100
AcDbLine
 10
286.75001
 20
1645.00001
 30
0.0
 11
286.75001
 21
1661.50001
 31
0.0
  0
LINE
  5
11C6
100
AcDbEntity
  8
10000_FRONT
370
    50
390
0
  6
CONTINUOUS
 62
     7
100
AcDbLine
 10
295.00001
 20
1693.50001
 30
0.0
 11
295.00001
 21
1703.50001
 31
0.0
  0
LINE
  5
11C7
100
AcDbEntity
  8
10000_FRONT
370
    50
390
0
  6
CONTINUOUS
 62
     7
100
AcDbLine
 10
295.00001
 20
2228.50001
 30
0.0
 11
295.00001
 21
2238.50001
 31
0.0
  0
LINE
  5
11C8
100
AcDbEntity
  8
10000_FRONT
370
    50
390
0
  6
CONTINUOUS
 62
     7
100
AcDbLine
 10
297.50001
 20
1648.50001
 30
0.0
 11
297.50001
 21
1693.50001
 31
0.0
  0
LINE
  5
11C9
100
AcDbEntity
  8
10000_FRONT
370
    50
390
0
  6
CONTINUOUS
 62
     7
100
AcDbLine
 10
297.50001
 20
2238.50001
 30
0.0
 11
297.50001
 21
2283.50001
 31
0.0
  0
LINE
  5
11CA
100
AcDbEntity
  8
10000_FRONT
370
    50
390
0
  6
CONTINUOUS
 62
     7
100
AcDbLine
 10
300.25001
 20
1645.00001
 30
0.0
 11
300.25001
 21
1648.500132
 31
0.0
  0
LINE
  5
11CB
100
AcDbEntity
  8
10000_FRONT
370
    50
390
0
  6
CONTINUOUS
 62
     7
100
AcDbLine
 10
337.50001
 20
1648.50001
 30
0.0
 11
337.50001
 21
1693.50001
 31
0.0
  0
LINE
  5
11CC
100
AcDbEntity
  8
10000_FRONT
370
    50
390
0
  6
CONTINUOUS
 62
     7
100
AcDbLine
 10
337.50001
 20
2238.50001
 30
0.0
 11
337.50001
 21
2283.50001
 31
0.0
  0
LINE
  5
11CD
100
AcDbEntity
  8
10000_FRONT
370
    50
390
0
  6
CONTINUOUS
 62
     7
100
AcDbLine
 10
340.00001
 20
1693.50001
 30
0.0
 11
340.00001
 21
1703.50001
 31
0.0
  0
LINE
  5
11CE
100
AcDbEntity
  8
10000_FRONT
370
    50
390
0
  6
CONTINUOUS
 62
     7
100
AcDbLine
 10
340.00001
 20
2228.50001
 30
0.0
 11
340.00001
 21
2238.50001
 31
0.0
  0
LINE
  5
11CF
100
AcDbEntity
  8
10000_FRONT
370
    50
390
0
  6
CONTINUOUS
 62
     7
100
AcDbLine
 10
353.50001
 20
1703.50001
 30
0.0
 11
353.50001
 21
1723.50001
 31
0.0
  0
LINE
  5
11D0
100
AcDbEntity
  8
10000_FRONT
370
    50
390
0
  6
CONTINUOUS
 62
     7
100
AcDbLine
 10
353.50001
 20
2214.499995
 30
0.0
 11
353.50001
 21
2228.50001
 31
0.0
  0
LINE
  5
11D1
100
AcDbEntity
  8
10000_FRONT
370
    50
390
0
  6
CONTINUOUS
 62
     7
100
AcDbLine
 10
353.50001
 20
2208.50001
 30
0.0
 11
353.50001
 21
2214.499995
 31
0.0
  0
LINE
  5
11D2
100
AcDbEntity
  8
10000_FRONT
370
    50
390
0
  6
CONTINUOUS
 62
     7
100
AcDbLine
 10
354.50001
 20
1703.50001
 30
0.0
 11
354.50001
 21
1723.50001
 31
0.0
  0
LINE
  5
11D3
100
AcDbEntity
  8
10000_FRONT
370
    50
390
0
  6
CONTINUOUS
 62
     7
100
AcDbLine
 10
354.50001
 20
2208.50001
 30
0.0
 11
354.50001
 21
2214.499995
 31
0.0
  0
LINE
  5
11D4
100
AcDbEntity
  8
10000_FRONT
370
    50
390
0
  6
CONTINUOUS
 62
     7
100
AcDbLine
 10
354.50001
 20
2214.499995
 30
0.0
 11
354.50001
 21
2228.50001
 31
0.0
  0
LINE
  5
11D5
100
AcDbEntity
  8
10000_FRONT
370
    50
390
0
  6
CONTINUOUS
 62
     7
100
AcDbLine
 10
368.00001
 20
1693.50001
 30
0.0
 11
368.00001
 21
1703.50001
 31
0.0
  0
LINE
  5
11D6
100
AcDbEntity
  8
10000_FRONT
370
    50
390
0
  6
CONTINUOUS
 62
     7
100
AcDbLine
 10
368.00001
 20
2228.50001
 30
0.0
 11
368.00001
 21
2238.50001
 31
0.0
  0
LINE
  5
11D7
100
AcDbEntity
  8
10000_FRONT
370
    50
390
0
  6
CONTINUOUS
 62
     7
100
AcDbLine
 10
370.50001
 20
1648.50001
 30
0.0
 11
370.50001
 21
1693.50001
 31
0.0
  0
LINE
  5
11D8
100
AcDbEntity
  8
10000_FRONT
370
    50
390
0
  6
CONTINUOUS
 62
     7
100
AcDbLine
 10
370.50001
 20
2238.50001
 30
0.0
 11
370.50001
 21
2283.50001
 31
0.0
  0
LINE
  5
11D9
100
AcDbEntity
  8
10000_FRONT
370
    50
390
0
  6
CONTINUOUS
 62
     7
100
AcDbLine
 10
410.50001
 20
1648.50001
 30
0.0
 11
410.50001
 21
1693.50001
 31
0.0
  0
LINE
  5
11DA
100
AcDbEntity
  8
10000_FRONT
370
    50
390
0
  6
CONTINUOUS
 62
     7
100
AcDbLine
 10
410.50001
 20
2238.50001
 30
0.0
 11
410.50001
 21
2283.50001
 31
0.0
  0
LINE
  5
11DB
100
AcDbEntity
  8
10000_FRONT
370
    50
390
0
  6
CONTINUOUS
 62
     7
100
AcDbLine
 10
413.00001
 20
1693.50001
 30
0.0
 11
413.00001
 21
1703.50001
 31
0.0
  0
LINE
  5
11DC
100
AcDbEntity
  8
10000_FRONT
370
    50
390
0
  6
CONTINUOUS
 62
     7
100
AcDbLine
 10
413.00001
 20
2228.50001
 30
0.0
 11
413.00001
 21
2238.50001
 31
0.0
  0
LINE
  5
11DD
100
AcDbEntity
  8
10000_FRONT
370
    50
390
0
  6
CONTINUOUS
 62
     7
100
AcDbLine
 10
426.50001
 20
1703.50001
 30
0.0
 11
426.50001
 21
1723.50001
 31
0.0
  0
LINE
  5
11DE
100
AcDbEntity
  8
10000_FRONT
370
    50
390
0
  6
CONTINUOUS
 62
     7
100
AcDbLine
 10
426.50001
 20
2214.499995
 30
0.0
 11
426.50001
 21
2228.50001
 31
0.0
  0
LINE
  5
11DF
100
AcDbEntity
  8
10000_FRONT
370
    50
390
0
  6
CONTINUOUS
 62
     7
100
AcDbLine
 10
426.50001
 20
2208.50001
 30
0.0
 11
426.50001
 21
2214.499995
 31
0.0
  0
LINE
  5
11E0
100
AcDbEntity
  8
10000_FRONT
370
    50
390
0
  6
CONTINUOUS
 62
     7
100
AcDbLine
 10
427.50001
 20
1703.50001
 30
0.0
 11
427.50001
 21
1723.50001
 31
0.0
  0
LINE
  5
11E1
100
AcDbEntity
  8
10000_FRONT
370
    50
390
0
  6
CONTINUOUS
 62
     7
100
AcDbLine
 10
427.50001
 20
2208.50001
 30
0.0
 11
427.50001
 21
2214.499995
 31
0.0
  0
LINE
  5
11E2
100
AcDbEntity
  8
10000_FRONT
370
    50
390
0
  6
CONTINUOUS
 62
     7
100
AcDbLine
 10
427.50001
 20
2214.499995
 30
0.0
 11
427.50001
 21
2228.50001
 31
0.0
  0
LINE
  5
11E3
100
AcDbEntity
  8
10000_FRONT
370
    50
390
0
  6
CONTINUOUS
 62
     7
100
AcDbLine
 10
441.00001
 20
1693.50001
 30
0.0
 11
441.00001
 21
1703.50001
 31
0.0
  0
LINE
  5
11E4
100
AcDbEntity
  8
10000_FRONT
370
    50
390
0
  6
CONTINUOUS
 62
     7
100
AcDbLine
 10
441.00001
 20
2228.50001
 30
0.0
 11
441.00001
 21
2238.50001
 31
0.0
  0
LINE
  5
11E5
100
AcDbEntity
  8
10000_FRONT
370
    50
390
0
  6
CONTINUOUS
 62
     7
100
AcDbLine
 10
443.50001
 20
1648.50001
 30
0.0
 11
443.50001
 21
1693.50001
 31
0.0
  0
LINE
  5
11E6
100
AcDbEntity
  8
10000_FRONT
370
    50
390
0
  6
CONTINUOUS
 62
     7
100
AcDbLine
 10
443.50001
 20
2238.50001
 30
0.0
 11
443.50001
 21
2283.50001
 31
0.0
  0
LINE
  5
11E7
100
AcDbEntity
  8
10000_FRONT
370
    50
390
0
  6
CONTINUOUS
 62
     7
100
AcDbLine
 10
483.50001
 20
1648.50001
 30
0.0
 11
483.50001
 21
1693.50001
 31
0.0
  0
LINE
  5
11E8
100
AcDbEntity
  8
10000_FRONT
370
    50
390
0
  6
CONTINUOUS
 62
     7
100
AcDbLine
 10
483.50001
 20
2238.50001
 30
0.0
 11
483.50001
 21
2283.50001
 31
0.0
  0
LINE
  5
11E9
100
AcDbEntity
  8
10000_FRONT
370
    50
390
0
  6
CONTINUOUS
 62
     7
100
AcDbLine
 10
486.00001
 20
1693.50001
 30
0.0
 11
486.00001
 21
1703.50001
 31
0.0
  0
LINE
  5
11EA
100
AcDbEntity
  8
10000_FRONT
370
    50
390
0
  6
CONTINUOUS
 62
     7
100
AcDbLine
 10
486.00001
 20
2228.50001
 30
0.0
 11
486.00001
 21
2238.50001
 31
0.0
  0
LINE
  5
11EB
100
AcDbEntity
  8
10000_FRONT
370
    50
390
0
  6
CONTINUOUS
 62
     7
100
AcDbLine
 10
499.50001
 20
1703.50001
 30
0.0
 11
499.50001
 21
1723.50001
 31
0.0
  0
LINE
  5
11EC
100
AcDbEntity
  8
10000_FRONT
370
    50
390
0
  6
CONTINUOUS
 62
     7
100
AcDbLine
 10
499.50001
 20
2214.499995
 30
0.0
 11
499.50001
 21
2228.50001
 31
0.0
  0
LINE
  5
11ED
100
AcDbEntity
  8
10000_FRONT
370
    50
390
0
  6
CONTINUOUS
 62
     7
100
AcDbLine
 10
499.50001
 20
2208.50001
 30
0.0
 11
499.50001
 21
2214.499995
 31
0.0
  0
LINE
  5
11EE
100
AcDbEntity
  8
10000_FRONT
370
    50
390
0
  6
CONTINUOUS
 62
     7
100
AcDbLine
 10
551.75001
 20
1672.00001
 30
0.0
 11
551.75001
 21
1677.00001
 31
0.0
  0
LINE
  5
11EF
100
AcDbEntity
  8
10000_FRONT
370
    50
390
0
  6
CONTINUOUS
 62
     7
100
AcDbLine
 10
551.75001
 20
1718.00001
 30
0.0
 11
551.75001
 21
1723.00001
 31
0.0
  0
LINE
  5
11F0
100
AcDbEntity
  8
10000_FRONT
370
    50
390
0
  6
CONTINUOUS
 62
     7
100
AcDbLine
 10
562.50001
 20
1683.200022
 30
0.0
 11
562.50001
 21
1711.799998
 31
0.0
  0
LINE
  5
11F1
100
AcDbEntity
  8
10000_FRONT
370
    50
390
0
  6
CONTINUOUS
 62
     7
100
AcDbLine
 10
592.00001
 20
1750.00001
 30
0.0
 11
592.00001
 21
1898.00001
 31
0.0
  0
LINE
  5
11F2
100
AcDbEntity
  8
10000_FRONT
370
    50
390
0
  6
CONTINUOUS
 62
     7
100
AcDbLine
 10
595.50001
 20
1752.00001
 30
0.0
 11
595.50001
 21
1764.00001
 31
0.0
  0
LINE
  5
11F3
100
AcDbEntity
  8
10000_FRONT
370
    50
390
0
  6
CONTINUOUS
 62
     7
100
AcDbLine
 10
595.50001
 20
1883.00001
 30
0.0
 11
595.50001
 21
1895.00001
 31
0.0
  0
LINE
  5
11F4
100
AcDbEntity
  8
10000_FRONT
370
    50
390
0
  6
CONTINUOUS
 62
     7
100
AcDbLine
 10
598.50001
 20
1752.00001
 30
0.0
 11
598.50001
 21
1764.00001
 31
0.0
  0
LINE
  5
11F5
100
AcDbEntity
  8
10000_FRONT
370
    50
390
0
  6
CONTINUOUS
 62
     7
100
AcDbLine
 10
598.50001
 20
1883.00001
 30
0.0
 11
598.50001
 21
1895.00001
 31
0.0
  0
LINE
  5
11F6
100
AcDbEntity
  8
10000_FRONT
370
    50
390
0
  6
CONTINUOUS
 62
     7
100
AcDbLine
 10
601.50001
 20
1752.00001
 30
0.0
 11
601.50001
 21
1764.00001
 31
0.0
  0
LINE
  5
11F7
100
AcDbEntity
  8
10000_FRONT
370
    50
390
0
  6
CONTINUOUS
 62
     7
100
AcDbLine
 10
601.50001
 20
1883.00001
 30
0.0
 11
601.50001
 21
1895.00001
 31
0.0
  0
LINE
  5
11F8
100
AcDbEntity
  8
10000_FRONT
370
    50
390
0
  6
CONTINUOUS
 62
     7
100
AcDbLine
 10
604.50001
 20
1752.00001
 30
0.0
 11
604.50001
 21
1764.00001
 31
0.0
  0
LINE
  5
11F9
100
AcDbEntity
  8
10000_FRONT
370
    50
390
0
  6
CONTINUOUS
 62
     7
100
AcDbLine
 10
604.50001
 20
1883.00001
 30
0.0
 11
604.50001
 21
1895.00001
 31
0.0
  0
LINE
  5
11FA
100
AcDbEntity
  8
10000_FRONT
370
    50
390
0
  6
CONTINUOUS
 62
     7
100
AcDbLine
 10
606.900012
 20
1749.849986
 30
0.0
 11
606.900012
 21
1764.150004
 31
0.0
  0
LINE
  5
11FB
100
AcDbEntity
  8
10000_FRONT
370
    50
390
0
  6
CONTINUOUS
 62
     7
100
AcDbLine
 10
606.900012
 20
1883.850016
 30
0.0
 11
606.900012
 21
1898.150004
 31
0.0
  0
LINE
  5
11FC
100
AcDbEntity
  8
10000_FRONT
370
    50
390
0
  6
CONTINUOUS
 62
     7
100
AcDbLine
 10
607.00001
 20
1750.00001
 30
0.0
 11
607.00001
 21
1764.150004
 31
0.0
  0
LINE
  5
11FD
100
AcDbEntity
  8
10000_FRONT
370
    50
390
0
  6
CONTINUOUS
 62
     7
100
AcDbLine
 10
607.00001
 20
1883.850016
 30
0.0
 11
607.00001
 21
1898.00001
 31
0.0
  0
LINE
  5
11FE
100
AcDbEntity
  8
10000_FRONT
370
    50
390
0
  6
CONTINUOUS
 62
     7
100
AcDbLine
 10
608.050013
 20
1757.120005
 30
0.0
 11
608.050013
 21
1760.720011
 31
0.0
  0
LINE
  5
11FF
100
AcDbEntity
  8
10000_FRONT
370
    50
390
0
  6
CONTINUOUS
 62
     7
100
AcDbLine
 10
608.100008
 20
1753.575022
 30
0.0
 11
608.100008
 21
1754.325022
 31
0.0
  0
LINE
  5
1200
100
AcDbEntity
  8
10000_FRONT
370
    50
390
0
  6
CONTINUOUS
 62
     7
100
AcDbLine
 10
608.100008
 20
1893.674998
 30
0.0
 11
608.100008
 21
1894.424998
 31
0.0
  0
LINE
  5
1201
100
AcDbEntity
  8
10000_FRONT
370
    50
390
0
  6
CONTINUOUS
 62
     7
100
AcDbLine
 10
608.300013
 20
1887.280009
 30
0.0
 11
608.300013
 21
1890.880015
 31
0.0
  0
LINE
  5
1202
100
AcDbEntity
  8
10000_FRONT
370
    50
390
0
  6
CONTINUOUS
 62
     7
100
AcDbLine
 10
611.050013
 20
1758.680003
 30
0.0
 11
611.050013
 21
1759.160014
 31
0.0
  0
LINE
  5
1203
100
AcDbEntity
  8
10000_FRONT
370
    50
390
0
  6
CONTINUOUS
 62
     7
100
AcDbLine
 10
611.300013
 20
1888.840006
 30
0.0
 11
611.300013
 21
1889.320017
 31
0.0
  0
LINE
  5
1204
100
AcDbEntity
  8
10000_FRONT
370
    50
390
0
  6
CONTINUOUS
 62
     7
100
AcDbLine
 10
611.50001
 20
1758.680003
 30
0.0
 11
611.50001
 21
1759.160014
 31
0.0
  0
LINE
  5
1205
100
AcDbEntity
  8
10000_FRONT
370
    50
390
0
  6
CONTINUOUS
 62
     7
100
AcDbLine
 10
611.75001
 20
1888.840006
 30
0.0
 11
611.75001
 21
1889.320017
 31
0.0
  0
LINE
  5
1206
100
AcDbEntity
  8
10000_FRONT
370
    50
390
0
  6
CONTINUOUS
 62
     7
100
AcDbLine
 10
614.50001
 20
1757.120005
 30
0.0
 11
614.50001
 21
1760.720011
 31
0.0
  0
LINE
  5
1207
100
AcDbEntity
  8
10000_FRONT
370
    50
390
0
  6
CONTINUOUS
 62
     7
100
AcDbLine
 10
614.700007
 20
1753.575022
 30
0.0
 11
614.700007
 21
1754.325022
 31
0.0
  0
LINE
  5
1208
100
AcDbEntity
  8
10000_FRONT
370
    50
390
0
  6
CONTINUOUS
 62
     7
100
AcDbLine
 10
614.700007
 20
1893.674998
 30
0.0
 11
614.700007
 21
1894.424998
 31
0.0
  0
LINE
  5
1209
100
AcDbEntity
  8
10000_FRONT
370
    50
390
0
  6
CONTINUOUS
 62
     7
100
AcDbLine
 10
614.75001
 20
1887.280009
 30
0.0
 11
614.75001
 21
1890.880015
 31
0.0
  0
LINE
  5
120A
100
AcDbEntity
  8
10000_FRONT
370
    50
390
0
  6
CONTINUOUS
 62
     7
100
AcDbLine
 10
615.25001
 20
1757.120005
 30
0.0
 11
615.25001
 21
1760.720011
 31
0.0
  0
LINE
  5
120B
100
AcDbEntity
  8
10000_FRONT
370
    50
390
0
  6
CONTINUOUS
 62
     7
100
AcDbLine
 10
615.300013
 20
1753.575022
 30
0.0
 11
615.300013
 21
1754.325022
 31
0.0
  0
LINE
  5
120C
100
AcDbEntity
  8
10000_FRONT
370
    50
390
0
  6
CONTINUOUS
 62
     7
100
AcDbLine
 10
615.300013
 20
1893.674998
 30
0.0
 11
615.300013
 21
1894.424998
 31
0.0
  0
LINE
  5
120D
100
AcDbEntity
  8
10000_FRONT
370
    50
390
0
  6
CONTINUOUS
 62
     7
100
AcDbLine
 10
615.50001
 20
1887.280009
 30
0.0
 11
615.50001
 21
1890.880015
 31
0.0
  0
LINE
  5
120E
100
AcDbEntity
  8
10000_FRONT
370
    50
390
0
  6
CONTINUOUS
 62
     7
100
AcDbLine
 10
618.25001
 20
1758.680003
 30
0.0
 11
618.25001
 21
1759.160014
 31
0.0
  0
LINE
  5
120F
100
AcDbEntity
  8
10000_FRONT
370
    50
390
0
  6
CONTINUOUS
 62
     7
100
AcDbLine
 10
618.50001
 20
1888.840006
 30
0.0
 11
618.50001
 21
1889.320017
 31
0.0
  0
LINE
  5
1210
100
AcDbEntity
  8
10000_FRONT
370
    50
390
0
  6
CONTINUOUS
 62
     7
100
AcDbLine
 10
618.700007
 20
1758.680003
 30
0.0
 11
618.700007
 21
1759.160014
 31
0.0
  0
LINE
  5
1211
100
AcDbEntity
  8
10000_FRONT
370
    50
390
0
  6
CONTINUOUS
 62
     7
100
AcDbLine
 10
618.950007
 20
1888.840006
 30
0.0
 11
618.950007
 21
1889.320017
 31
0.0
  0
LINE
  5
1212
100
AcDbEntity
  8
10000_FRONT
370
    50
390
0
  6
CONTINUOUS
 62
     7
100
AcDbLine
 10
621.700007
 20
1757.120005
 30
0.0
 11
621.700007
 21
1760.720011
 31
0.0
  0
LINE
  5
1213
100
AcDbEntity
  8
10000_FRONT
370
    50
390
0
  6
CONTINUOUS
 62
     7
100
AcDbLine
 10
621.900012
 20
1753.575022
 30
0.0
 11
621.900012
 21
1754.325022
 31
0.0
  0
LINE
  5
1214
100
AcDbEntity
  8
10000_FRONT
370
    50
390
0
  6
CONTINUOUS
 62
     7
100
AcDbLine
 10
621.900012
 20
1893.674998
 30
0.0
 11
621.900012
 21
1894.424998
 31
0.0
  0
LINE
  5
1215
100
AcDbEntity
  8
10000_FRONT
370
    50
390
0
  6
CONTINUOUS
 62
     7
100
AcDbLine
 10
621.950007
 20
1887.280009
 30
0.0
 11
621.950007
 21
1890.880015
 31
0.0
  0
LINE
  5
1216
100
AcDbEntity
  8
10000_FRONT
370
    50
390
0
  6
CONTINUOUS
 62
     7
100
AcDbLine
 10
622.450007
 20
1757.120005
 30
0.0
 11
622.450007
 21
1760.720011
 31
0.0
  0
LINE
  5
1217
100
AcDbEntity
  8
10000_FRONT
370
    50
390
0
  6
CONTINUOUS
 62
     7
100
AcDbLine
 10
622.50001
 20
1753.575022
 30
0.0
 11
622.50001
 21
1754.325022
 31
0.0
  0
LINE
  5
1218
100
AcDbEntity
  8
10000_FRONT
370
    50
390
0
  6
CONTINUOUS
 62
     7
100
AcDbLine
 10
622.50001
 20
1893.674998
 30
0.0
 11
622.50001
 21
1894.424998
 31
0.0
  0
LINE
  5
1219
100
AcDbEntity
  8
10000_FRONT
370
    50
390
0
  6
CONTINUOUS
 62
     7
100
AcDbLine
 10
622.700007
 20
1887.280009
 30
0.0
 11
622.700007
 21
1890.880015
 31
0.0
  0
LINE
  5
121A
100
AcDbEntity
  8
10000_FRONT
370
    50
390
0
  6
CONTINUOUS
 62
     7
100
AcDbLine
 10
625.450007
 20
1758.680003
 30
0.0
 11
625.450007
 21
1759.160014
 31
0.0
  0
LINE
  5
121B
100
AcDbEntity
  8
10000_FRONT
370
    50
390
0
  6
CONTINUOUS
 62
     7
100
AcDbLine
 10
625.700007
 20
1888.840006
 30
0.0
 11
625.700007
 21
1889.320017
 31
0.0
  0
LINE
  5
121C
100
AcDbEntity
  8
10000_FRONT
370
    50
390
0
  6
CONTINUOUS
 62
     7
100
AcDbLine
 10
625.900012
 20
1758.680003
 30
0.0
 11
625.900012
 21
1759.160014
 31
0.0
  0
LINE
  5
121D
100
AcDbEntity
  8
10000_FRONT
370
    50
390
0
  6
CONTINUOUS
 62
     7
100
AcDbLine
 10
626.150012
 20
1888.840006
 30
0.0
 11
626.150012
 21
1889.320017
 31
0.0
  0
LINE
  5
121E
100
AcDbEntity
  8
10000_FRONT
370
    50
390
0
  6
CONTINUOUS
 62
     7
100
AcDbLine
 10
628.900012
 20
1757.120005
 30
0.0
 11
628.900012
 21
1760.720011
 31
0.0
  0
LINE
  5
121F
100
AcDbEntity
  8
10000_FRONT
370
    50
390
0
  6
CONTINUOUS
 62
     7
100
AcDbLine
 10
629.100008
 20
1753.575022
 30
0.0
 11
629.100008
 21
1754.325022
 31
0.0
  0
LINE
  5
1220
100
AcDbEntity
  8
10000_FRONT
370
    50
390
0
  6
CONTINUOUS
 62
     7
100
AcDbLine
 10
629.100008
 20
1893.674998
 30
0.0
 11
629.100008
 21
1894.424998
 31
0.0
  0
LINE
  5
1221
100
AcDbEntity
  8
10000_FRONT
370
    50
390
0
  6
CONTINUOUS
 62
     7
100
AcDbLine
 10
629.150012
 20
1887.280009
 30
0.0
 11
629.150012
 21
1890.880015
 31
0.0
  0
LINE
  5
1222
100
AcDbEntity
  8
10000_FRONT
370
    50
390
0
  6
CONTINUOUS
 62
     7
100
AcDbLine
 10
629.650012
 20
1757.120005
 30
0.0
 11
629.650012
 21
1760.720011
 31
0.0
  0
LINE
  5
1223
100
AcDbEntity
  8
10000_FRONT
370
    50
390
0
  6
CONTINUOUS
 62
     7
100
AcDbLine
 10
629.700007
 20
1753.575022
 30
0.0
 11
629.700007
 21
1754.325022
 31
0.0
  0
LINE
  5
1224
100
AcDbEntity
  8
10000_FRONT
370
    50
390
0
  6
CONTINUOUS
 62
     7
100
AcDbLine
 10
629.700007
 20
1893.674998
 30
0.0
 11
629.700007
 21
1894.424998
 31
0.0
  0
LINE
  5
1225
100
AcDbEntity
  8
10000_FRONT
370
    50
390
0
  6
CONTINUOUS
 62
     7
100
AcDbLine
 10
629.900012
 20
1887.280009
 30
0.0
 11
629.900012
 21
1890.880015
 31
0.0
  0
LINE
  5
1226
100
AcDbEntity
  8
10000_FRONT
370
    50
390
0
  6
CONTINUOUS
 62
     7
100
AcDbLine
 10
631.800013
 20
1818.150004
 30
0.0
 11
631.800013
 21
1873.850016
 31
0.0
  0
LINE
  5
1227
100
AcDbEntity
  8
10000_FRONT
370
    50
390
0
  6
CONTINUOUS
 62
     7
100
AcDbLine
 10
632.650012
 20
1758.680003
 30
0.0
 11
632.650012
 21
1759.160014
 31
0.0
  0
LINE
  5
1228
100
AcDbEntity
  8
10000_FRONT
370
    50
390
0
  6
CONTINUOUS
 62
     7
100
AcDbLine
 10
632.900012
 20
1888.840006
 30
0.0
 11
632.900012
 21
1889.320017
 31
0.0
  0
LINE
  5
1229
100
AcDbEntity
  8
10000_FRONT
370
    50
390
0
  6
CONTINUOUS
 62
     7
100
AcDbLine
 10
633.100008
 20
1758.680003
 30
0.0
 11
633.100008
 21
1759.160014
 31
0.0
  0
LINE
  5
122A
100
AcDbEntity
  8
10000_FRONT
370
    50
390
0
  6
CONTINUOUS
 62
     7
100
AcDbLine
 10
633.350008
 20
1888.840006
 30
0.0
 11
633.350008
 21
1889.320017
 31
0.0
  0
LINE
  5
122B
100
AcDbEntity
  8
10000_FRONT
370
    50
390
0
  6
CONTINUOUS
 62
     7
100
AcDbLine
 10
635.450007
 20
1833.00001
 30
0.0
 11
635.450007
 21
1859.00001
 31
0.0
  0
LINE
  5
122C
100
AcDbEntity
  8
10000_FRONT
370
    50
390
0
  6
CONTINUOUS
 62
     7
100
AcDbLine
 10
636.100008
 20
1757.120005
 30
0.0
 11
636.100008
 21
1760.720011
 31
0.0
  0
LINE
  5
122D
100
AcDbEntity
  8
10000_FRONT
370
    50
390
0
  6
CONTINUOUS
 62
     7
100
AcDbLine
 10
636.300013
 20
1753.575022
 30
0.0
 11
636.300013
 21
1754.325022
 31
0.0
  0
LINE
  5
122E
100
AcDbEntity
  8
10000_FRONT
370
    50
390
0
  6
CONTINUOUS
 62
     7
100
AcDbLine
 10
636.300013
 20
1893.674998
 30
0.0
 11
636.300013
 21
1894.424998
 31
0.0
  0
LINE
  5
122F
100
AcDbEntity
  8
10000_FRONT
370
    50
390
0
  6
CONTINUOUS
 62
     7
100
AcDbLine
 10
636.350008
 20
1887.280009
 30
0.0
 11
636.350008
 21
1890.880015
 31
0.0
  0
LINE
  5
1230
100
AcDbEntity
  8
10000_FRONT
370
    50
390
0
  6
CONTINUOUS
 62
     7
100
AcDbLine
 10
636.850008
 20
1757.120005
 30
0.0
 11
636.850008
 21
1760.720011
 31
0.0
  0
LINE
  5
1231
100
AcDbEntity
  8
10000_FRONT
370
    50
390
0
  6
CONTINUOUS
 62
     7
100
AcDbLine
 10
636.900012
 20
1753.575022
 30
0.0
 11
636.900012
 21
1754.325022
 31
0.0
  0
LINE
  5
1232
100
AcDbEntity
  8
10000_FRONT
370
    50
390
0
  6
CONTINUOUS
 62
     7
100
AcDbLine
 10
636.900012
 20
1893.674998
 30
0.0
 11
636.900012
 21
1894.424998
 31
0.0
  0
LINE
  5
1233
100
AcDbEntity
  8
10000_FRONT
370
    50
390
0
  6
CONTINUOUS
 62
     7
100
AcDbLine
 10
637.100008
 20
1887.280009
 30
0.0
 11
637.100008
 21
1890.880015
 31
0.0
  0
LINE
  5
1234
100
AcDbEntity
  8
10000_FRONT
370
    50
390
0
  6
CONTINUOUS
 62
     7
100
AcDbLine
 10
639.850008
 20
1758.680003
 30
0.0
 11
639.850008
 21
1759.160014
 31
0.0
  0
LINE
  5
1235
100
AcDbEntity
  8
10000_FRONT
370
    50
390
0
  6
CONTINUOUS
 62
     7
100
AcDbLine
 10
640.100008
 20
1888.840006
 30
0.0
 11
640.100008
 21
1889.320017
 31
0.0
  0
LINE
  5
1236
100
AcDbEntity
  8
10000_FRONT
370
    50
390
0
  6
CONTINUOUS
 62
     7
100
AcDbLine
 10
640.300013
 20
1758.680003
 30
0.0
 11
640.300013
 21
1759.160014
 31
0.0
  0
LINE
  5
1237
100
AcDbEntity
  8
10000_FRONT
370
    50
390
0
  6
CONTINUOUS
 62
     7
100
AcDbLine
 10
640.550013
 20
1888.840006
 30
0.0
 11
640.550013
 21
1889.320017
 31
0.0
  0
LINE
  5
1238
100
AcDbEntity
  8
10000_FRONT
370
    50
390
0
  6
CONTINUOUS
 62
     7
100
AcDbLine
 10
643.300013
 20
1757.120005
 30
0.0
 11
643.300013
 21
1760.720011
 31
0.0
  0
LINE
  5
1239
100
AcDbEntity
  8
10000_FRONT
370
    50
390
0
  6
CONTINUOUS
 62
     7
100
AcDbLine
 10
643.50001
 20
1753.575022
 30
0.0
 11
643.50001
 21
1754.325022
 31
0.0
  0
LINE
  5
123A
100
AcDbEntity
  8
10000_FRONT
370
    50
390
0
  6
CONTINUOUS
 62
     7
100
AcDbLine
 10
643.50001
 20
1893.674998
 30
0.0
 11
643.50001
 21
1894.424998
 31
0.0
  0
LINE
  5
123B
100
AcDbEntity
  8
10000_FRONT
370
    50
390
0
  6
CONTINUOUS
 62
     7
100
AcDbLine
 10
643.550013
 20
1887.280009
 30
0.0
 11
643.550013
 21
1890.880015
 31
0.0
  0
LINE
  5
123C
100
AcDbEntity
  8
10000_FRONT
370
    50
390
0
  6
CONTINUOUS
 62
     7
100
AcDbLine
 10
644.050013
 20
1757.120005
 30
0.0
 11
644.050013
 21
1760.720011
 31
0.0
  0
LINE
  5
123D
100
AcDbEntity
  8
10000_FRONT
370
    50
390
0
  6
CONTINUOUS
 62
     7
100
AcDbLine
 10
644.100008
 20
1753.575022
 30
0.0
 11
644.100008
 21
1754.325022
 31
0.0
  0
LINE
  5
123E
100
AcDbEntity
  8
10000_FRONT
370
    50
390
0
  6
CONTINUOUS
 62
     7
100
AcDbLine
 10
644.100008
 20
1893.674998
 30
0.0
 11
644.100008
 21
1894.424998
 31
0.0
  0
LINE
  5
123F
100
AcDbEntity
  8
10000_FRONT
370
    50
390
0
  6
CONTINUOUS
 62
     7
100
AcDbLine
 10
644.300013
 20
1887.280009
 30
0.0
 11
644.300013
 21
1890.880015
 31
0.0
  0
LINE
  5
1240
100
AcDbEntity
  8
10000_FRONT
370
    50
390
0
  6
CONTINUOUS
 62
     7
100
AcDbLine
 10
647.050013
 20
1758.680003
 30
0.0
 11
647.050013
 21
1759.160014
 31
0.0
  0
LINE
  5
1241
100
AcDbEntity
  8
10000_FRONT
370
    50
390
0
  6
CONTINUOUS
 62
     7
100
AcDbLine
 10
647.300013
 20
1888.840006
 30
0.0
 11
647.300013
 21
1889.320017
 31
0.0
  0
LINE
  5
1242
100
AcDbEntity
  8
10000_FRONT
370
    50
390
0
  6
CONTINUOUS
 62
     7
100
AcDbLine
 10
647.50001
 20
1758.680003
 30
0.0
 11
647.50001
 21
1759.160014
 31
0.0
  0
LINE
  5
1243
100
AcDbEntity
  8
10000_FRONT
370
    50
390
0
  6
CONTINUOUS
 62
     7
100
AcDbLine
 10
647.75001
 20
1888.840006
 30
0.0
 11
647.75001
 21
1889.320017
 31
0.0
  0
LINE
  5
1244
100
AcDbEntity
  8
10000_FRONT
370
    50
390
0
  6
CONTINUOUS
 62
     7
100
AcDbLine
 10
650.50001
 20
1757.120005
 30
0.0
 11
650.50001
 21
1760.720011
 31
0.0
  0
LINE
  5
1245
100
AcDbEntity
  8
10000_FRONT
370
    50
390
0
  6
CONTINUOUS
 62
     7
100
AcDbLine
 10
650.700007
 20
1753.575022
 30
0.0
 11
650.700007
 21
1754.325022
 31
0.0
  0
LINE
  5
1246
100
AcDbEntity
  8
10000_FRONT
370
    50
390
0
  6
CONTINUOUS
 62
     7
100
AcDbLine
 10
650.700007
 20
1893.674998
 30
0.0
 11
650.700007
 21
1894.424998
 31
0.0
  0
LINE
  5
1247
100
AcDbEntity
  8
10000_FRONT
370
    50
390
0
  6
CONTINUOUS
 62
     7
100
AcDbLine
 10
650.75001
 20
1887.280009
 30
0.0
 11
650.75001
 21
1890.880015
 31
0.0
  0
LINE
  5
1248
100
AcDbEntity
  8
10000_FRONT
370
    50
390
0
  6
CONTINUOUS
 62
     7
100
AcDbLine
 10
651.900012
 20
1749.849986
 30
0.0
 11
651.900012
 21
1764.150004
 31
0.0
  0
LINE
  5
1249
100
AcDbEntity
  8
10000_FRONT
370
    50
390
0
  6
CONTINUOUS
 62
     7
100
AcDbLine
 10
651.900012
 20
1883.850016
 30
0.0
 11
651.900012
 21
1898.150004
 31
0.0
  0
LINE
  5
124A
100
AcDbEntity
  8
10000_FRONT
370
    50
390
0
  6
CONTINUOUS
 62
     7
100
AcDbLine
 10
652.100008
 20
1749.849986
 30
0.0
 11
652.100008
 21
1764.150004
 31
0.0
  0
LINE
  5
124B
100
AcDbEntity
  8
10000_FRONT
370
    50
390
0
  6
CONTINUOUS
 62
     7
100
AcDbLine
 10
652.100008
 20
1883.850016
 30
0.0
 11
652.100008
 21
1898.150004
 31
0.0
  0
LINE
  5
124C
100
AcDbEntity
  8
10000_FRONT
370
    50
390
0
  6
CONTINUOUS
 62
     7
100
AcDbLine
 10
653.25001
 20
1757.120005
 30
0.0
 11
653.25001
 21
1760.720011
 31
0.0
  0
LINE
  5
124D
100
AcDbEntity
  8
10000_FRONT
370
    50
390
0
  6
CONTINUOUS
 62
     7
100
AcDbLine
 10
653.300013
 20
1753.575022
 30
0.0
 11
653.300013
 21
1754.325022
 31
0.0
  0
LINE
  5
124E
100
AcDbEntity
  8
10000_FRONT
370
    50
390
0
  6
CONTINUOUS
 62
     7
100
AcDbLine
 10
653.300013
 20
1893.674998
 30
0.0
 11
653.300013
 21
1894.424998
 31
0.0
  0
LINE
  5
124F
100
AcDbEntity
  8
10000_FRONT
370
    50
390
0
  6
CONTINUOUS
 62
     7
100
AcDbLine
 10
653.50001
 20
1887.280009
 30
0.0
 11
653.50001
 21
1890.880015
 31
0.0
  0
LINE
  5
1250
100
AcDbEntity
  8
10000_FRONT
370
    50
390
0
  6
CONTINUOUS
 62
     7
100
AcDbLine
 10
656.25001
 20
1758.680003
 30
0.0
 11
656.25001
 21
1759.160014
 31
0.0
  0
LINE
  5
1251
100
AcDbEntity
  8
10000_FRONT
370
    50
390
0
  6
CONTINUOUS
 62
     7
100
AcDbLine
 10
656.50001
 20
1888.840006
 30
0.0
 11
656.50001
 21
1889.320017
 31
0.0
  0
LINE
  5
1252
100
AcDbEntity
  8
10000_FRONT
370
    50
390
0
  6
CONTINUOUS
 62
     7
100
AcDbLine
 10
656.700007
 20
1758.680003
 30
0.0
 11
656.700007
 21
1759.160014
 31
0.0
  0
LINE
  5
1253
100
AcDbEntity
  8
10000_FRONT
370
    50
390
0
  6
CONTINUOUS
 62
     7
100
AcDbLine
 10
656.950007
 20
1888.840006
 30
0.0
 11
656.950007
 21
1889.320017
 31
0.0
  0
LINE
  5
1254
100
AcDbEntity
  8
10000_FRONT
370
    50
390
0
  6
CONTINUOUS
 62
     7
100
AcDbLine
 10
659.700007
 20
1757.120005
 30
0.0
 11
659.700007
 21
1760.720011
 31
0.0
  0
LINE
  5
1255
100
AcDbEntity
  8
10000_FRONT
370
    50
390
0
  6
CONTINUOUS
 62
     7
100
AcDbLine
 10
659.900004
 20
1753.575022
 30
0.0
 11
659.900004
 21
1754.325022
 31
0.0
  0
LINE
  5
1256
100
AcDbEntity
  8
10000_FRONT
370
    50
390
0
  6
CONTINUOUS
 62
     7
100
AcDbLine
 10
659.900004
 20
1893.674998
 30
0.0
 11
659.900004
 21
1894.424998
 31
0.0
  0
LINE
  5
1257
100
AcDbEntity
  8
10000_FRONT
370
    50
390
0
  6
CONTINUOUS
 62
     7
100
AcDbLine
 10
659.950007
 20
1887.280009
 30
0.0
 11
659.950007
 21
1890.880015
 31
0.0
  0
LINE
  5
1258
100
AcDbEntity
  8
10000_FRONT
370
    50
390
0
  6
CONTINUOUS
 62
     7
100
AcDbLine
 10
660.450007
 20
1757.120005
 30
0.0
 11
660.450007
 21
1760.720011
 31
0.0
  0
LINE
  5
1259
100
AcDbEntity
  8
10000_FRONT
370
    50
390
0
  6
CONTINUOUS
 62
     7
100
AcDbLine
 10
660.50001
 20
1753.575022
 30
0.0
 11
660.50001
 21
1754.325022
 31
0.0
  0
LINE
  5
125A
100
AcDbEntity
  8
10000_FRONT
370
    50
390
0
  6
CONTINUOUS
 62
     7
100
AcDbLine
 10
660.50001
 20
1893.674998
 30
0.0
 11
660.50001
 21
1894.424998
 31
0.0
  0
LINE
  5
125B
100
AcDbEntity
  8
10000_FRONT
370
    50
390
0
  6
CONTINUOUS
 62
     7
100
AcDbLine
 10
660.700007
 20
1887.280009
 30
0.0
 11
660.700007
 21
1890.880015
 31
0.0
  0
LINE
  5
125C
100
AcDbEntity
  8
10000_FRONT
370
    50
390
0
  6
CONTINUOUS
 62
     7
100
AcDbLine
 10
663.450007
 20
1758.680003
 30
0.0
 11
663.450007
 21
1759.160014
 31
0.0
  0
LINE
  5
125D
100
AcDbEntity
  8
10000_FRONT
370
    50
390
0
  6
CONTINUOUS
 62
     7
100
AcDbLine
 10
663.700007
 20
1888.840006
 30
0.0
 11
663.700007
 21
1889.320017
 31
0.0
  0
LINE
  5
125E
100
AcDbEntity
  8
10000_FRONT
370
    50
390
0
  6
CONTINUOUS
 62
     7
100
AcDbLine
 10
663.900004
 20
1758.680003
 30
0.0
 11
663.900004
 21
1759.160014
 31
0.0
  0
LINE
  5
125F
100
AcDbEntity
  8
10000_FRONT
370
    50
390
0
  6
CONTINUOUS
 62
     7
100
AcDbLine
 10
664.150004
 20
1888.840006
 30
0.0
 11
664.150004
 21
1889.320017
 31
0.0
  0
LINE
  5
1260
100
AcDbEntity
  8
10000_FRONT
370
    50
390
0
  6
CONTINUOUS
 62
     7
100
AcDbLine
 10
666.900004
 20
1757.120005
 30
0.0
 11
666.900004
 21
1760.720011
 31
0.0
  0
LINE
  5
1261
100
AcDbEntity
  8
10000_FRONT
370
    50
390
0
  6
CONTINUOUS
 62
     7
100
AcDbLine
 10
667.100016
 20
1753.575022
 30
0.0
 11
667.100016
 21
1754.325022
 31
0.0
  0
LINE
  5
1262
100
AcDbEntity
  8
10000_FRONT
370
    50
390
0
  6
CONTINUOUS
 62
     7
100
AcDbLine
 10
667.100016
 20
1893.674998
 30
0.0
 11
667.100016
 21
1894.424998
 31
0.0
  0
LINE
  5
1263
100
AcDbEntity
  8
10000_FRONT
370
    50
390
0
  6
CONTINUOUS
 62
     7
100
AcDbLine
 10
667.150004
 20
1887.280009
 30
0.0
 11
667.150004
 21
1890.880015
 31
0.0
  0
LINE
  5
1264
100
AcDbEntity
  8
10000_FRONT
370
    50
390
0
  6
CONTINUOUS
 62
     7
100
AcDbLine
 10
667.650004
 20
1757.120005
 30
0.0
 11
667.650004
 21
1760.720011
 31
0.0
  0
LINE
  5
1265
100
AcDbEntity
  8
10000_FRONT
370
    50
390
0
  6
CONTINUOUS
 62
     7
100
AcDbLine
 10
667.700007
 20
1753.575022
 30
0.0
 11
667.700007
 21
1754.325022
 31
0.0
  0
LINE
  5
1266
100
AcDbEntity
  8
10000_FRONT
370
    50
390
0
  6
CONTINUOUS
 62
     7
100
AcDbLine
 10
667.700007
 20
1893.674998
 30
0.0
 11
667.700007
 21
1894.424998
 31
0.0
  0
LINE
  5
1267
100
AcDbEntity
  8
10000_FRONT
370
    50
390
0
  6
CONTINUOUS
 62
     7
100
AcDbLine
 10
667.900004
 20
1887.280009
 30
0.0
 11
667.900004
 21
1890.880015
 31
0.0
  0
LINE
  5
1268
100
AcDbEntity
  8
10000_FRONT
370
    50
390
0
  6
CONTINUOUS
 62
     7
100
AcDbLine
 10
668.550013
 20
1833.00001
 30
0.0
 11
668.550013
 21
1859.00001
 31
0.0
  0
LINE
  5
1269
100
AcDbEntity
  8
10000_FRONT
370
    50
390
0
  6
CONTINUOUS
 62
     7
100
AcDbLine
 10
670.650004
 20
1758.680003
 30
0.0
 11
670.650004
 21
1759.160014
 31
0.0
  0
LINE
  5
126A
100
AcDbEntity
  8
10000_FRONT
370
    50
390
0
  6
CONTINUOUS
 62
     7
100
AcDbLine
 10
670.900004
 20
1888.840006
 30
0.0
 11
670.900004
 21
1889.320017
 31
0.0
  0
LINE
  5
126B
100
AcDbEntity
  8
10000_FRONT
370
    50
390
0
  6
CONTINUOUS
 62
     7
100
AcDbLine
 10
671.100016
 20
1758.680003
 30
0.0
 11
671.100016
 21
1759.160014
 31
0.0
  0
LINE
  5
126C
100
AcDbEntity
  8
10000_FRONT
370
    50
390
0
  6
CONTINUOUS
 62
     7
100
AcDbLine
 10
671.350016
 20
1888.840006
 30
0.0
 11
671.350016
 21
1889.320017
 31
0.0
  0
LINE
  5
126D
100
AcDbEntity
  8
10000_FRONT
370
    50
390
0
  6
CONTINUOUS
 62
     7
100
AcDbLine
 10
672.100016
 20
1818.150004
 30
0.0
 11
672.100016
 21
1873.850016
 31
0.0
  0
LINE
  5
126E
100
AcDbEntity
  8
10000_FRONT
370
    50
390
0
  6
CONTINUOUS
 62
     7
100
AcDbLine
 10
674.100016
 20
1757.120005
 30
0.0
 11
674.100016
 21
1760.720011
 31
0.0
  0
LINE
  5
126F
100
AcDbEntity
  8
10000_FRONT
370
    50
390
0
  6
CONTINUOUS
 62
     7
100
AcDbLine
 10
674.300013
 20
1753.575022
 30
0.0
 11
674.300013
 21
1754.325022
 31
0.0
  0
LINE
  5
1270
100
AcDbEntity
  8
10000_FRONT
370
    50
390
0
  6
CONTINUOUS
 62
     7
100
AcDbLine
 10
674.300013
 20
1893.674998
 30
0.0
 11
674.300013
 21
1894.424998
 31
0.0
  0
LINE
  5
1271
100
AcDbEntity
  8
10000_FRONT
370
    50
390
0
  6
CONTINUOUS
 62
     7
100
AcDbLine
 10
674.350016
 20
1887.280009
 30
0.0
 11
674.350016
 21
1890.880015
 31
0.0
  0
LINE
  5
1272
100
AcDbEntity
  8
10000_FRONT
370
    50
390
0
  6
CONTINUOUS
 62
     7
100
AcDbLine
 10
674.850016
 20
1757.120005
 30
0.0
 11
674.850016
 21
1760.720011
 31
0.0
  0
LINE
  5
1273
100
AcDbEntity
  8
10000_FRONT
370
    50
390
0
  6
CONTINUOUS
 62
     7
100
AcDbLine
 10
674.900004
 20
1753.575022
 30
0.0
 11
674.900004
 21
1754.325022
 31
0.0
  0
LINE
  5
1274
100
AcDbEntity
  8
10000_FRONT
370
    50
390
0
  6
CONTINUOUS
 62
     7
100
AcDbLine
 10
674.900004
 20
1893.674998
 30
0.0
 11
674.900004
 21
1894.424998
 31
0.0
  0
LINE
  5
1275
100
AcDbEntity
  8
10000_FRONT
370
    50
390
0
  6
CONTINUOUS
 62
     7
100
AcDbLine
 10
675.100016
 20
1887.280009
 30
0.0
 11
675.100016
 21
1890.880015
 31
0.0
  0
LINE
  5
1276
100
AcDbEntity
  8
10000_FRONT
370
    50
390
0
  6
CONTINUOUS
 62
     7
100
AcDbLine
 10
677.850016
 20
1758.680003
 30
0.0
 11
677.850016
 21
1759.160014
 31
0.0
  0
LINE
  5
1277
100
AcDbEntity
  8
10000_FRONT
370
    50
390
0
  6
CONTINUOUS
 62
     7
100
AcDbLine
 10
678.100016
 20
1888.840006
 30
0.0
 11
678.100016
 21
1889.320017
 31
0.0
  0
LINE
  5
1278
100
AcDbEntity
  8
10000_FRONT
370
    50
390
0
  6
CONTINUOUS
 62
     7
100
AcDbLine
 10
678.300013
 20
1758.680003
 30
0.0
 11
678.300013
 21
1759.160014
 31
0.0
  0
LINE
  5
1279
100
AcDbEntity
  8
10000_FRONT
370
    50
390
0
  6
CONTINUOUS
 62
     7
100
AcDbLine
 10
678.550013
 20
1888.840006
 30
0.0
 11
678.550013
 21
1889.320017
 31
0.0
  0
LINE
  5
127A
100
AcDbEntity
  8
10000_FRONT
370
    50
390
0
  6
CONTINUOUS
 62
     7
100
AcDbLine
 10
681.300013
 20
1757.120005
 30
0.0
 11
681.300013
 21
1760.720011
 31
0.0
  0
LINE
  5
127B
100
AcDbEntity
  8
10000_FRONT
370
    50
390
0
  6
CONTINUOUS
 62
     7
100
AcDbLine
 10
681.50001
 20
1753.575022
 30
0.0
 11
681.50001
 21
1754.325022
 31
0.0
  0
LINE
  5
127C
100
AcDbEntity
  8
10000_FRONT
370
    50
390
0
  6
CONTINUOUS
 62
     7
100
AcDbLine
 10
681.50001
 20
1893.674998
 30
0.0
 11
681.50001
 21
1894.424998
 31
0.0
  0
LINE
  5
127D
100
AcDbEntity
  8
10000_FRONT
370
    50
390
0
  6
CONTINUOUS
 62
     7
100
AcDbLine
 10
681.550013
 20
1887.280009
 30
0.0
 11
681.550013
 21
1890.880015
 31
0.0
  0
LINE
  5
127E
100
AcDbEntity
  8
10000_FRONT
370
    50
390
0
  6
CONTINUOUS
 62
     7
100
AcDbLine
 10
682.050013
 20
1757.120005
 30
0.0
 11
682.050013
 21
1760.720011
 31
0.0
  0
LINE
  5
127F
100
AcDbEntity
  8
10000_FRONT
370
    50
390
0
  6
CONTINUOUS
 62
     7
100
AcDbLine
 10
682.100016
 20
1753.575022
 30
0.0
 11
682.100016
 21
1754.325022
 31
0.0
  0
LINE
  5
1280
100
AcDbEntity
  8
10000_FRONT
370
    50
390
0
  6
CONTINUOUS
 62
     7
100
AcDbLine
 10
682.100016
 20
1893.674998
 30
0.0
 11
682.100016
 21
1894.424998
 31
0.0
  0
LINE
  5
1281
100
AcDbEntity
  8
10000_FRONT
370
    50
390
0
  6
CONTINUOUS
 62
     7
100
AcDbLine
 10
682.300013
 20
1887.280009
 30
0.0
 11
682.300013
 21
1890.880015
 31
0.0
  0
LINE
  5
1282
100
AcDbEntity
  8
10000_FRONT
370
    50
390
0
  6
CONTINUOUS
 62
     7
100
AcDbLine
 10
685.050013
 20
1758.680003
 30
0.0
 11
685.050013
 21
1759.160014
 31
0.0
  0
LINE
  5
1283
100
AcDbEntity
  8
10000_FRONT
370
    50
390
0
  6
CONTINUOUS
 62
     7
100
AcDbLine
 10
685.300013
 20
1888.840006
 30
0.0
 11
685.300013
 21
1889.320017
 31
0.0
  0
LINE
  5
1284
100
AcDbEntity
  8
10000_FRONT
370
    50
390
0
  6
CONTINUOUS
 62
     7
100
AcDbLine
 10
685.50001
 20
1758.680003
 30
0.0
 11
685.50001
 21
1759.160014
 31
0.0
  0
LINE
  5
1285
100
AcDbEntity
  8
10000_FRONT
370
    50
390
0
  6
CONTINUOUS
 62
     7
100
AcDbLine
 10
685.75001
 20
1888.840006
 30
0.0
 11
685.75001
 21
1889.320017
 31
0.0
  0
LINE
  5
1286
100
AcDbEntity
  8
10000_FRONT
370
    50
390
0
  6
CONTINUOUS
 62
     7
100
AcDbLine
 10
688.50001
 20
1757.120005
 30
0.0
 11
688.50001
 21
1760.720011
 31
0.0
  0
LINE
  5
1287
100
AcDbEntity
  8
10000_FRONT
370
    50
390
0
  6
CONTINUOUS
 62
     7
100
AcDbLine
 10
688.700007
 20
1753.575022
 30
0.0
 11
688.700007
 21
1754.325022
 31
0.0
  0
LINE
  5
1288
100
AcDbEntity
  8
10000_FRONT
370
    50
390
0
  6
CONTINUOUS
 62
     7
100
AcDbLine
 10
688.700007
 20
1893.674998
 30
0.0
 11
688.700007
 21
1894.424998
 31
0.0
  0
LINE
  5
1289
100
AcDbEntity
  8
10000_FRONT
370
    50
390
0
  6
CONTINUOUS
 62
     7
100
AcDbLine
 10
688.75001
 20
1887.280009
 30
0.0
 11
688.75001
 21
1890.880015
 31
0.0
  0
LINE
  5
128A
100
AcDbEntity
  8
10000_FRONT
370
    50
390
0
  6
CONTINUOUS
 62
     7
100
AcDbLine
 10
689.25001
 20
1757.120005
 30
0.0
 11
689.25001
 21
1760.720011
 31
0.0
  0
LINE
  5
128B
100
AcDbEntity
  8
10000_FRONT
370
    50
390
0
  6
CONTINUOUS
 62
     7
100
AcDbLine
 10
689.300013
 20
1753.575022
 30
0.0
 11
689.300013
 21
1754.325022
 31
0.0
  0
LINE
  5
128C
100
AcDbEntity
  8
10000_FRONT
370
    50
390
0
  6
CONTINUOUS
 62
     7
100
AcDbLine
 10
689.300013
 20
1893.674998
 30
0.0
 11
689.300013
 21
1894.424998
 31
0.0
  0
LINE
  5
128D
100
AcDbEntity
  8
10000_FRONT
370
    50
390
0
  6
CONTINUOUS
 62
     7
100
AcDbLine
 10
689.50001
 20
1887.280009
 30
0.0
 11
689.50001
 21
1890.880015
 31
0.0
  0
LINE
  5
128E
100
AcDbEntity
  8
10000_FRONT
370
    50
390
0
  6
CONTINUOUS
 62
     7
100
AcDbLine
 10
691.149012
 20
1799.900004
 30
0.0
 11
691.149012
 21
1808.200022
 31
0.0
  0
LINE
  5
128F
100
AcDbEntity
  8
10000_FRONT
370
    50
390
0
  6
CONTINUOUS
 62
     7
100
AcDbLine
 10
692.25001
 20
1758.680003
 30
0.0
 11
692.25001
 21
1759.160014
 31
0.0
  0
LINE
  5
1290
100
AcDbEntity
  8
10000_FRONT
370
    50
390
0
  6
CONTINUOUS
 62
     7
100
AcDbLine
 10
692.50001
 20
1888.840006
 30
0.0
 11
692.50001
 21
1889.320017
 31
0.0
  0
LINE
  5
1291
100
AcDbEntity
  8
10000_FRONT
370
    50
390
0
  6
CONTINUOUS
 62
     7
100
AcDbLine
 10
692.700007
 20
1758.680003
 30
0.0
 11
692.700007
 21
1759.160014
 31
0.0
  0
LINE
  5
1292
100
AcDbEntity
  8
10000_FRONT
370
    50
390
0
  6
CONTINUOUS
 62
     7
100
AcDbLine
 10
692.950007
 20
1888.840006
 30
0.0
 11
692.950007
 21
1889.320017
 31
0.0
  0
LINE
  5
1293
100
AcDbEntity
  8
10000_FRONT
370
    50
390
0
  6
CONTINUOUS
 62
     7
100
AcDbLine
 10
695.700007
 20
1757.120005
 30
0.0
 11
695.700007
 21
1760.720011
 31
0.0
  0
LINE
  5
1294
100
AcDbEntity
  8
10000_FRONT
370
    50
390
0
  6
CONTINUOUS
 62
     7
100
AcDbLine
 10
695.900004
 20
1753.575022
 30
0.0
 11
695.900004
 21
1754.325022
 31
0.0
  0
LINE
  5
1295
100
AcDbEntity
  8
10000_FRONT
370
    50
390
0
  6
CONTINUOUS
 62
     7
100
AcDbLine
 10
695.900004
 20
1893.674998
 30
0.0
 11
695.900004
 21
1894.424998
 31
0.0
  0
LINE
  5
1296
100
AcDbEntity
  8
10000_FRONT
370
    50
390
0
  6
CONTINUOUS
 62
     7
100
AcDbLine
 10
695.950007
 20
1887.280009
 30
0.0
 11
695.950007
 21
1890.880015
 31
0.0
  0
LINE
  5
1297
100
AcDbEntity
  8
10000_FRONT
370
    50
390
0
  6
CONTINUOUS
 62
     7
100
AcDbLine
 10
697.00001
 20
1750.00001
 30
0.0
 11
697.00001
 21
1764.150004
 31
0.0
  0
LINE
  5
1298
100
AcDbEntity
  8
10000_FRONT
370
    50
390
0
  6
CONTINUOUS
 62
     7
100
AcDbLine
 10
697.00001
 20
1883.850016
 30
0.0
 11
697.00001
 21
1898.00001
 31
0.0
  0
LINE
  5
1299
100
AcDbEntity
  8
10000_FRONT
370
    50
390
0
  6
CONTINUOUS
 62
     7
100
AcDbLine
 10
697.100016
 20
1749.849986
 30
0.0
 11
697.100016
 21
1764.150004
 31
0.0
  0
LINE
  5
129A
100
AcDbEntity
  8
10000_FRONT
370
    50
390
0
  6
CONTINUOUS
 62
     7
100
AcDbLine
 10
697.100016
 20
1883.850016
 30
0.0
 11
697.100016
 21
1898.150004
 31
0.0
  0
LINE
  5
129B
100
AcDbEntity
  8
10000_FRONT
370
    50
390
0
  6
CONTINUOUS
 62
     7
100
AcDbLine
 10
701.50001
 20
1752.00001
 30
0.0
 11
701.50001
 21
1764.00001
 31
0.0
  0
LINE
  5
129C
100
AcDbEntity
  8
10000_FRONT
370
    50
390
0
  6
CONTINUOUS
 62
     7
100
AcDbLine
 10
701.50001
 20
1883.00001
 30
0.0
 11
701.50001
 21
1895.00001
 31
0.0
  0
LINE
  5
129D
100
AcDbEntity
  8
10000_FRONT
370
    50
390
0
  6
CONTINUOUS
 62
     7
100
AcDbLine
 10
704.50001
 20
1752.00001
 30
0.0
 11
704.50001
 21
1764.00001
 31
0.0
  0
LINE
  5
129E
100
AcDbEntity
  8
10000_FRONT
370
    50
390
0
  6
CONTINUOUS
 62
     7
100
AcDbLine
 10
704.50001
 20
1883.00001
 30
0.0
 11
704.50001
 21
1895.00001
 31
0.0
  0
LINE
  5
129F
100
AcDbEntity
  8
10000_FRONT
370
    50
390
0
  6
CONTINUOUS
 62
     7
100
AcDbLine
 10
707.50001
 20
1752.00001
 30
0.0
 11
707.50001
 21
1764.00001
 31
0.0
  0
LINE
  5
12A0
100
AcDbEntity
  8
10000_FRONT
370
    50
390
0
  6
CONTINUOUS
 62
     7
100
AcDbLine
 10
707.50001
 20
1883.00001
 30
0.0
 11
707.50001
 21
1895.00001
 31
0.0
  0
LINE
  5
12A1
100
AcDbEntity
  8
10000_FRONT
370
    50
390
0
  6
CONTINUOUS
 62
     7
100
AcDbLine
 10
710.50001
 20
1752.00001
 30
0.0
 11
710.50001
 21
1764.00001
 31
0.0
  0
LINE
  5
12A2
100
AcDbEntity
  8
10000_FRONT
370
    50
390
0
  6
CONTINUOUS
 62
     7
100
AcDbLine
 10
710.50001
 20
1883.00001
 30
0.0
 11
710.50001
 21
1895.00001
 31
0.0
  0
LINE
  5
12A3
100
AcDbEntity
  8
10000_FRONT
370
    50
390
0
  6
CONTINUOUS
 62
     7
100
AcDbLine
 10
712.50001
 20
1683.200022
 30
0.0
 11
712.50001
 21
1711.799998
 31
0.0
  0
LINE
  5
12A4
100
AcDbEntity
  8
10000_FRONT
370
    50
390
0
  6
CONTINUOUS
 62
     7
100
AcDbLine
 10
713.50001
 20
1752.00001
 30
0.0
 11
713.50001
 21
1764.00001
 31
0.0
  0
LINE
  5
12A5
100
AcDbEntity
  8
10000_FRONT
370
    50
390
0
  6
CONTINUOUS
 62
     7
100
AcDbLine
 10
713.50001
 20
1883.00001
 30
0.0
 11
713.50001
 21
1895.00001
 31
0.0
  0
LINE
  5
12A6
100
AcDbEntity
  8
10000_FRONT
370
    50
390
0
  6
CONTINUOUS
 62
     7
100
AcDbLine
 10
716.50001
 20
1752.00001
 30
0.0
 11
716.50001
 21
1764.00001
 31
0.0
  0
LINE
  5
12A7
100
AcDbEntity
  8
10000_FRONT
370
    50
390
0
  6
CONTINUOUS
 62
     7
100
AcDbLine
 10
716.50001
 20
1883.00001
 30
0.0
 11
716.50001
 21
1895.00001
 31
0.0
  0
LINE
  5
12A8
100
AcDbEntity
  8
10000_FRONT
370
    50
390
0
  6
CONTINUOUS
 62
     7
100
AcDbLine
 10
717.149012
 20
1799.900004
 30
0.0
 11
717.149012
 21
1808.200022
 31
0.0
  0
LINE
  5
12A9
100
AcDbEntity
  8
10000_FRONT
370
    50
390
0
  6
CONTINUOUS
 62
     7
100
AcDbLine
 10
719.50001
 20
1752.00001
 30
0.0
 11
719.50001
 21
1764.00001
 31
0.0
  0
LINE
  5
12AA
100
AcDbEntity
  8
10000_FRONT
370
    50
390
0
  6
CONTINUOUS
 62
     7
100
AcDbLine
 10
719.50001
 20
1883.00001
 30
0.0
 11
719.50001
 21
1895.00001
 31
0.0
  0
LINE
  5
12AB
100
AcDbEntity
  8
10000_FRONT
370
    50
390
0
  6
CONTINUOUS
 62
     7
100
AcDbLine
 10
722.50001
 20
1752.00001
 30
0.0
 11
722.50001
 21
1764.00001
 31
0.0
  0
LINE
  5
12AC
100
AcDbEntity
  8
10000_FRONT
370
    50
390
0
  6
CONTINUOUS
 62
     7
100
AcDbLine
 10
722.50001
 20
1883.00001
 30
0.0
 11
722.50001
 21
1895.00001
 31
0.0
  0
LINE
  5
12AD
100
AcDbEntity
  8
10000_FRONT
370
    50
390
0
  6
CONTINUOUS
 62
     7
100
AcDbLine
 10
723.25001
 20
1672.00001
 30
0.0
 11
723.25001
 21
1677.00001
 31
0.0
  0
LINE
  5
12AE
100
AcDbEntity
  8
10000_FRONT
370
    50
390
0
  6
CONTINUOUS
 62
     7
100
AcDbLine
 10
723.25001
 20
1718.00001
 30
0.0
 11
723.25001
 21
1723.00001
 31
0.0
  0
LINE
  5
12AF
100
AcDbEntity
  8
10000_FRONT
370
    50
390
0
  6
CONTINUOUS
 62
     7
100
AcDbLine
 10
725.50001
 20
1752.00001
 30
0.0
 11
725.50001
 21
1764.00001
 31
0.0
  0
LINE
  5
12B0
100
AcDbEntity
  8
10000_FRONT
370
    50
390
0
  6
CONTINUOUS
 62
     7
100
AcDbLine
 10
725.50001
 20
1883.00001
 30
0.0
 11
725.50001
 21
1895.00001
 31
0.0
  0
LINE
  5
12B1
100
AcDbEntity
  8
10000_FRONT
370
    50
390
0
  6
CONTINUOUS
 62
     7
100
AcDbLine
 10
728.50001
 20
1752.00001
 30
0.0
 11
728.50001
 21
1764.00001
 31
0.0
  0
LINE
  5
12B2
100
AcDbEntity
  8
10000_FRONT
370
    50
390
0
  6
CONTINUOUS
 62
     7
100
AcDbLine
 10
728.50001
 20
1883.00001
 30
0.0
 11
728.50001
 21
1895.00001
 31
0.0
  0
LINE
  5
12B3
100
AcDbEntity
  8
10000_FRONT
370
    50
390
0
  6
CONTINUOUS
 62
     7
100
AcDbLine
 10
731.50001
 20
1752.00001
 30
0.0
 11
731.50001
 21
1764.00001
 31
0.0
  0
LINE
  5
12B4
100
AcDbEntity
  8
10000_FRONT
370
    50
390
0
  6
CONTINUOUS
 62
     7
100
AcDbLine
 10
731.50001
 20
1883.00001
 30
0.0
 11
731.50001
 21
1895.00001
 31
0.0
  0
LINE
  5
12B5
100
AcDbEntity
  8
10000_FRONT
370
    50
390
0
  6
CONTINUOUS
 62
     7
100
AcDbLine
 10
734.50001
 20
1752.00001
 30
0.0
 11
734.50001
 21
1764.00001
 31
0.0
  0
LINE
  5
12B6
100
AcDbEntity
  8
10000_FRONT
370
    50
390
0
  6
CONTINUOUS
 62
     7
100
AcDbLine
 10
734.50001
 20
1883.00001
 30
0.0
 11
734.50001
 21
1895.00001
 31
0.0
  0
LINE
  5
12B7
100
AcDbEntity
  8
10000_FRONT
370
    50
390
0
  6
CONTINUOUS
 62
     7
100
AcDbLine
 10
737.50001
 20
1752.00001
 30
0.0
 11
737.50001
 21
1764.00001
 31
0.0
  0
LINE
  5
12B8
100
AcDbEntity
  8
10000_FRONT
370
    50
390
0
  6
CONTINUOUS
 62
     7
100
AcDbLine
 10
737.50001
 20
1883.00001
 30
0.0
 11
737.50001
 21
1895.00001
 31
0.0
  0
LINE
  5
12B9
100
AcDbEntity
  8
10000_FRONT
370
    50
390
0
  6
CONTINUOUS
 62
     7
100
AcDbLine
 10
740.50001
 20
1752.00001
 30
0.0
 11
740.50001
 21
1764.00001
 31
0.0
  0
LINE
  5
12BA
100
AcDbEntity
  8
10000_FRONT
370
    50
390
0
  6
CONTINUOUS
 62
     7
100
AcDbLine
 10
740.50001
 20
1883.00001
 30
0.0
 11
740.50001
 21
1895.00001
 31
0.0
  0
LINE
  5
12BB
100
AcDbEntity
  8
10000_FRONT
370
    50
390
0
  6
CONTINUOUS
 62
     7
100
AcDbLine
 10
743.50001
 20
1752.00001
 30
0.0
 11
743.50001
 21
1764.00001
 31
0.0
  0
LINE
  5
12BC
100
AcDbEntity
  8
10000_FRONT
370
    50
390
0
  6
CONTINUOUS
 62
     7
100
AcDbLine
 10
743.50001
 20
1883.00001
 30
0.0
 11
743.50001
 21
1895.00001
 31
0.0
  0
LINE
  5
12BD
100
AcDbEntity
  8
10000_FRONT
370
    50
390
0
  6
CONTINUOUS
 62
     7
100
AcDbLine
 10
746.50001
 20
1752.00001
 30
0.0
 11
746.50001
 21
1764.00001
 31
0.0
  0
LINE
  5
12BE
100
AcDbEntity
  8
10000_FRONT
370
    50
390
0
  6
CONTINUOUS
 62
     7
100
AcDbLine
 10
746.50001
 20
1883.00001
 30
0.0
 11
746.50001
 21
1895.00001
 31
0.0
  0
LINE
  5
12BF
100
AcDbEntity
  8
10000_FRONT
370
    50
390
0
  6
CONTINUOUS
 62
     7
100
AcDbLine
 10
749.50001
 20
1752.00001
 30
0.0
 11
749.50001
 21
1764.00001
 31
0.0
  0
LINE
  5
12C0
100
AcDbEntity
  8
10000_FRONT
370
    50
390
0
  6
CONTINUOUS
 62
     7
100
AcDbLine
 10
749.50001
 20
1883.00001
 30
0.0
 11
749.50001
 21
1895.00001
 31
0.0
  0
LINE
  5
12C1
100
AcDbEntity
  8
10000_FRONT
370
    50
390
0
  6
CONTINUOUS
 62
     7
100
AcDbLine
 10
752.50001
 20
1752.00001
 30
0.0
 11
752.50001
 21
1764.00001
 31
0.0
  0
LINE
  5
12C2
100
AcDbEntity
  8
10000_FRONT
370
    50
390
0
  6
CONTINUOUS
 62
     7
100
AcDbLine
 10
752.50001
 20
1883.00001
 30
0.0
 11
752.50001
 21
1895.00001
 31
0.0
  0
LINE
  5
12C3
100
AcDbEntity
  8
10000_FRONT
370
    50
390
0
  6
CONTINUOUS
 62
     7
100
AcDbLine
 10
755.50001
 20
1752.00001
 30
0.0
 11
755.50001
 21
1764.00001
 31
0.0
  0
LINE
  5
12C4
100
AcDbEntity
  8
10000_FRONT
370
    50
390
0
  6
CONTINUOUS
 62
     7
100
AcDbLine
 10
755.50001
 20
1883.00001
 30
0.0
 11
755.50001
 21
1895.00001
 31
0.0
  0
LINE
  5
12C5
100
AcDbEntity
  8
10000_FRONT
370
    50
390
0
  6
CONTINUOUS
 62
     7
100
AcDbLine
 10
756.75001
 20
1645.00001
 30
0.0
 11
756.75001
 21
1661.50001
 31
0.0
  0
LINE
  5
12C6
100
AcDbEntity
  8
10000_FRONT
370
    50
390
0
  6
CONTINUOUS
 62
     7
100
AcDbLine
 10
758.50001
 20
1752.00001
 30
0.0
 11
758.50001
 21
1764.00001
 31
0.0
  0
LINE
  5
12C7
100
AcDbEntity
  8
10000_FRONT
370
    50
390
0
  6
CONTINUOUS
 62
     7
100
AcDbLine
 10
758.50001
 20
1883.00001
 30
0.0
 11
758.50001
 21
1895.00001
 31
0.0
  0
LINE
  5
12C8
100
AcDbEntity
  8
10000_FRONT
370
    50
390
0
  6
CONTINUOUS
 62
     7
100
AcDbLine
 10
762.00001
 20
1750.00001
 30
0.0
 11
762.00001
 21
1898.00001
 31
0.0
  0
LINE
  5
12C9
100
AcDbEntity
  8
10000_FRONT
370
    50
390
0
  6
CONTINUOUS
 62
     7
100
AcDbLine
 10
770.25001
 20
1645.00001
 30
0.0
 11
770.25001
 21
1661.50001
 31
0.0
  0
LINE
  5
12CA
100
AcDbEntity
  8
10000_FRONT
370
    50
390
0
  6
CONTINUOUS
 62
     7
100
AcDbLine
 10
781.00001
 20
1645.00001
 30
0.0
 11
781.00001
 21
2268.00001
 31
0.0
  0
LINE
  5
12CB
100
AcDbEntity
  8
10000_FRONT
370
    50
390
0
  6
CONTINUOUS
 62
     7
100
AcDbLine
 10
784.00001
 20
1683.50001
 30
0.0
 11
784.00001
 21
2231.50001
 31
0.0
  0
ARC
  5
12CC
100
AcDbEntity
  8
10000_FRONT
370
    50
390
0
  6
CONTINUOUS
 62
     7
100
AcDbCircle
 10
293.50001
 20
1661.50001
 30
0.0
 40
6.75
100
AcDbArc
 50
53.658762
 51
180.0
  0
ARC
  5
12CD
100
AcDbEntity
  8
10000_FRONT
370
    50
390
0
  6
CONTINUOUS
 62
     7
100
AcDbCircle
 10
295.50001
 20
2251.50001
 30
0.0
 40
6.75
100
AcDbArc
 50
72.764584
 51
287.235145
  0
CIRCLE
  5
12CE
100
AcDbEntity
  8
10000_FRONT
370
    50
390
0
  6
CONTINUOUS
 62
     7
100
AcDbCircle
 10
317.50001
 20
1668.50001
 30
0.0
 40
7.0
  0
CIRCLE
  5
12CF
100
AcDbEntity
  8
10000_FRONT
370
    50
390
0
  6
CONTINUOUS
 62
     7
100
AcDbCircle
 10
317.50001
 20
2263.50001
 30
0.0
 40
7.0
  0
CIRCLE
  5
12D0
100
AcDbEntity
  8
10000_FRONT
370
    50
390
0
  6
CONTINUOUS
 62
     7
100
AcDbCircle
 10
355.00001
 20
1658.00001
 30
0.0
 40
6.0
  0
CIRCLE
  5
12D1
100
AcDbEntity
  8
10000_FRONT
370
    50
390
0
  6
CONTINUOUS
 62
     7
100
AcDbCircle
 10
355.00001
 20
2255.00001
 30
0.0
 40
6.0
  0
CIRCLE
  5
12D2
100
AcDbEntity
  8
10000_FRONT
370
    50
390
0
  6
CONTINUOUS
 62
     7
100
AcDbCircle
 10
390.50001
 20
1668.50001
 30
0.0
 40
7.0
  0
CIRCLE
  5
12D3
100
AcDbEntity
  8
10000_FRONT
370
    50
390
0
  6
CONTINUOUS
 62
     7
100
AcDbCircle
 10
390.50001
 20
2263.50001
 30
0.0
 40
7.0
  0
CIRCLE
  5
12D4
100
AcDbEntity
  8
10000_FRONT
370
    50
390
0
  6
CONTINUOUS
 62
     7
100
AcDbCircle
 10
463.50001
 20
1668.50001
 30
0.0
 40
7.0
  0
CIRCLE
  5
12D5
100
AcDbEntity
  8
10000_FRONT
370
    50
390
0
  6
CONTINUOUS
 62
     7
100
AcDbCircle
 10
463.50001
 20
2263.50001
 30
0.0
 40
7.0
  0
ARC
  5
12D6
100
AcDbEntity
  8
10000_FRONT
370
    50
390
0
  6
CONTINUOUS
 62
     7
100
AcDbCircle
 10
568.50001
 20
1669.50001
 30
0.0
 40
0.8
100
AcDbArc
 50
90.0
 51
270.0
  0
ARC
  5
12D7
100
AcDbEntity
  8
10000_FRONT
370
    50
390
0
  6
CONTINUOUS
 62
     7
100
AcDbCircle
 10
608.40001
 20
1749.85001
 30
0.0
 40
1.5
100
AcDbArc
 50
180.000933
 51
270.000058
  0
ARC
  5
12D8
100
AcDbEntity
  8
10000_FRONT
370
    50
390
0
  6
CONTINUOUS
 62
     7
100
AcDbCircle
 10
608.40001
 20
1898.15001
 30
0.0
 40
1.5
100
AcDbArc
 50
89.999942
 51
180.000233
  0
ARC
  5
12D9
100
AcDbEntity
  8
10000_FRONT
370
    50
390
0
  6
CONTINUOUS
 62
     7
100
AcDbCircle
 10
609.49001
 20
1758.68001
 30
0.0
 40
1.56
100
AcDbArc
 50
269.999922
 51
359.999731
  0
ARC
  5
12DA
100
AcDbEntity
  8
10000_FRONT
370
    50
390
0
  6
CONTINUOUS
 62
     7
100
AcDbCircle
 10
609.49001
 20
1759.16001
 30
0.0
 40
1.56
100
AcDbArc
 50
0.000135
 51
90.000078
  0
ARC
  5
12DB
100
AcDbEntity
  8
10000_FRONT
370
    50
390
0
  6
CONTINUOUS
 62
     7
100
AcDbCircle
 10
609.74001
 20
1888.84001
 30
0.0
 40
1.56
100
AcDbArc
 50
269.999922
 51
359.999865
  0
ARC
  5
12DC
100
AcDbEntity
  8
10000_FRONT
370
    50
390
0
  6
CONTINUOUS
 62
     7
100
AcDbCircle
 10
609.74001
 20
1889.32001
 30
0.0
 40
1.56
100
AcDbArc
 50
0.000269
 51
90.000078
  0
ARC
  5
12DD
100
AcDbEntity
  8
10000_FRONT
370
    50
390
0
  6
CONTINUOUS
 62
     7
100
AcDbCircle
 10
609.85001
 20
1753.57501
 30
0.0
 40
1.75
100
AcDbArc
 50
179.9996
 51
332.338909
  0
ARC
  5
12DE
100
AcDbEntity
  8
10000_FRONT
370
    50
390
0
  6
CONTINUOUS
 62
     7
100
AcDbCircle
 10
609.85001
 20
1754.32501
 30
0.0
 40
1.75
100
AcDbArc
 50
27.660029
 51
179.9996
  0
ARC
  5
12DF
100
AcDbEntity
  8
10000_FRONT
370
    50
390
0
  6
CONTINUOUS
 62
     7
100
AcDbCircle
 10
609.85001
 20
1893.67501
 30
0.0
 40
1.75
100
AcDbArc
 50
180.0004
 51
332.339971
  0
ARC
  5
12E0
100
AcDbEntity
  8
10000_FRONT
370
    50
390
0
  6
CONTINUOUS
 62
     7
100
AcDbCircle
 10
609.85001
 20
1894.42501
 30
0.0
 40
1.75
100
AcDbArc
 50
27.660206
 51
180.0004
  0
ARC
  5
12E1
100
AcDbEntity
  8
10000_FRONT
370
    50
390
0
  6
CONTINUOUS
 62
     7
100
AcDbCircle
 10
612.95001
 20
1753.57501
 30
0.0
 40
1.75
100
AcDbArc
 50
207.661138
 51
0.0004
  0
ARC
  5
12E2
100
AcDbEntity
  8
10000_FRONT
370
    50
390
0
  6
CONTINUOUS
 62
     7
100
AcDbCircle
 10
612.95001
 20
1754.32501
 30
0.0
 40
1.75
100
AcDbArc
 50
0.0004
 51
152.339924
  0
ARC
  5
12E3
100
AcDbEntity
  8
10000_FRONT
370
    50
390
0
  6
CONTINUOUS
 62
     7
100
AcDbCircle
 10
612.95001
 20
1893.67501
 30
0.0
 40
1.75
100
AcDbArc
 50
207.660076
 51
359.9996
  0
ARC
  5
12E4
100
AcDbEntity
  8
10000_FRONT
370
    50
390
0
  6
CONTINUOUS
 62
     7
100
AcDbCircle
 10
612.95001
 20
1894.42501
 30
0.0
 40
1.75
100
AcDbArc
 50
359.9996
 51
152.339747
  0
ARC
  5
12E5
100
AcDbEntity
  8
10000_FRONT
370
    50
390
0
  6
CONTINUOUS
 62
     7
100
AcDbCircle
 10
613.06001
 20
1758.68001
 30
0.0
 40
1.56
100
AcDbArc
 50
180.000269
 51
269.99991
  0
ARC
  5
12E6
100
AcDbEntity
  8
10000_FRONT
370
    50
390
0
  6
CONTINUOUS
 62
     7
100
AcDbCircle
 10
613.06001
 20
1759.16001
 30
0.0
 40
1.56
100
AcDbArc
 50
90.00009
 51
179.999865
  0
ARC
  5
12E7
100
AcDbEntity
  8
10000_FRONT
370
    50
390
0
  6
CONTINUOUS
 62
     7
100
AcDbCircle
 10
613.31001
 20
1888.84001
 30
0.0
 40
1.56
100
AcDbArc
 50
180.000135
 51
269.99991
  0
ARC
  5
12E8
100
AcDbEntity
  8
10000_FRONT
370
    50
390
0
  6
CONTINUOUS
 62
     7
100
AcDbCircle
 10
613.31001
 20
1889.32001
 30
0.0
 40
1.56
100
AcDbArc
 50
90.00009
 51
179.999731
  0
ARC
  5
12E9
100
AcDbEntity
  8
10000_FRONT
370
    50
390
0
  6
CONTINUOUS
 62
     7
100
AcDbCircle
 10
616.69001
 20
1758.68001
 30
0.0
 40
1.56
100
AcDbArc
 50
270.00009
 51
359.999731
  0
ARC
  5
12EA
100
AcDbEntity
  8
10000_FRONT
370
    50
390
0
  6
CONTINUOUS
 62
     7
100
AcDbCircle
 10
616.69001
 20
1759.16001
 30
0.0
 40
1.56
100
AcDbArc
 50
0.000135
 51
89.99991
  0
ARC
  5
12EB
100
AcDbEntity
  8
10000_FRONT
370
    50
390
0
  6
CONTINUOUS
 62
     7
100
AcDbCircle
 10
616.94001
 20
1888.84001
 30
0.0
 40
1.56
100
AcDbArc
 50
270.00009
 51
359.999865
  0
ARC
  5
12EC
100
AcDbEntity
  8
10000_FRONT
370
    50
390
0
  6
CONTINUOUS
 62
     7
100
AcDbCircle
 10
616.94001
 20
1889.32001
 30
0.0
 40
1.56
100
AcDbArc
 50
0.000269
 51
89.99991
  0
ARC
  5
12ED
100
AcDbEntity
  8
10000_FRONT
370
    50
390
0
  6
CONTINUOUS
 62
     7
100
AcDbCircle
 10
617.05001
 20
1753.57501
 30
0.0
 40
1.75
100
AcDbArc
 50
179.9996
 51
332.338862
  0
ARC
  5
12EE
100
AcDbEntity
  8
10000_FRONT
370
    50
390
0
  6
CONTINUOUS
 62
     7
100
AcDbCircle
 10
617.05001
 20
1754.32501
 30
0.0
 40
1.75
100
AcDbArc
 50
27.660076
 51
179.9996
  0
ARC
  5
12EF
100
AcDbEntity
  8
10000_FRONT
370
    50
390
0
  6
CONTINUOUS
 62
     7
100
AcDbCircle
 10
617.05001
 20
1893.67501
 30
0.0
 40
1.75
100
AcDbArc
 50
180.0004
 51
332.339924
  0
ARC
  5
12F0
100
AcDbEntity
  8
10000_FRONT
370
    50
390
0
  6
CONTINUOUS
 62
     7
100
AcDbCircle
 10
617.05001
 20
1894.42501
 30
0.0
 40
1.75
100
AcDbArc
 50
27.660253
 51
180.0004
  0
ARC
  5
12F1
100
AcDbEntity
  8
10000_FRONT
370
    50
390
0
  6
CONTINUOUS
 62
     7
100
AcDbCircle
 10
620.15001
 20
1753.57501
 30
0.0
 40
1.75
100
AcDbArc
 50
207.661091
 51
0.0004
  0
ARC
  5
12F2
100
AcDbEntity
  8
10000_FRONT
370
    50
390
0
  6
CONTINUOUS
 62
     7
100
AcDbCircle
 10
620.15001
 20
1754.32501
 30
0.0
 40
1.75
100
AcDbArc
 50
0.0004
 51
152.339971
  0
ARC
  5
12F3
100
AcDbEntity
  8
10000_FRONT
370
    50
390
0
  6
CONTINUOUS
 62
     7
100
AcDbCircle
 10
620.15001
 20
1893.67501
 30
0.0
 40
1.75
100
AcDbArc
 50
207.660029
 51
359.9996
  0
ARC
  5
12F4
100
AcDbEntity
  8
10000_FRONT
370
    50
390
0
  6
CONTINUOUS
 62
     7
100
AcDbCircle
 10
620.15001
 20
1894.42501
 30
0.0
 40
1.75
100
AcDbArc
 50
359.9996
 51
152.339794
  0
ARC
  5
12F5
100
AcDbEntity
  8
10000_FRONT
370
    50
390
0
  6
CONTINUOUS
 62
     7
100
AcDbCircle
 10
620.26001
 20
1758.68001
 30
0.0
 40
1.56
100
AcDbArc
 50
180.000269
 51
270.000078
  0
ARC
  5
12F6
100
AcDbEntity
  8
10000_FRONT
370
    50
390
0
  6
CONTINUOUS
 62
     7
100
AcDbCircle
 10
620.26001
 20
1759.16001
 30
0.0
 40
1.56
100
AcDbArc
 50
89.999922
 51
179.999865
  0
ARC
  5
12F7
100
AcDbEntity
  8
10000_FRONT
370
    50
390
0
  6
CONTINUOUS
 62
     7
100
AcDbCircle
 10
620.51001
 20
1888.84001
 30
0.0
 40
1.56
100
AcDbArc
 50
180.000135
 51
270.000078
  0
ARC
  5
12F8
100
AcDbEntity
  8
10000_FRONT
370
    50
390
0
  6
CONTINUOUS
 62
     7
100
AcDbCircle
 10
620.51001
 20
1889.32001
 30
0.0
 40
1.56
100
AcDbArc
 50
89.999922
 51
179.999731
  0
ARC
  5
12F9
100
AcDbEntity
  8
10000_FRONT
370
    50
390
0
  6
CONTINUOUS
 62
     7
100
AcDbCircle
 10
623.89001
 20
1758.68001
 30
0.0
 40
1.56
100
AcDbArc
 50
269.999978
 51
359.999731
  0
ARC
  5
12FA
100
AcDbEntity
  8
10000_FRONT
370
    50
390
0
  6
CONTINUOUS
 62
     7
100
AcDbCircle
 10
623.89001
 20
1759.16001
 30
0.0
 40
1.56
100
AcDbArc
 50
0.000135
 51
90.000022
  0
ARC
  5
12FB
100
AcDbEntity
  8
10000_FRONT
370
    50
390
0
  6
CONTINUOUS
 62
     7
100
AcDbCircle
 10
624.14001
 20
1888.84001
 30
0.0
 40
1.56
100
AcDbArc
 50
269.999978
 51
359.999865
  0
ARC
  5
12FC
100
AcDbEntity
  8
10000_FRONT
370
    50
390
0
  6
CONTINUOUS
 62
     7
100
AcDbCircle
 10
624.14001
 20
1889.32001
 30
0.0
 40
1.56
100
AcDbArc
 50
0.000269
 51
90.000022
  0
ARC
  5
12FD
100
AcDbEntity
  8
10000_FRONT
370
    50
390
0
  6
CONTINUOUS
 62
     7
100
AcDbCircle
 10
624.25001
 20
1753.57501
 30
0.0
 40
1.75
100
AcDbArc
 50
179.9996
 51
332.338932
  0
ARC
  5
12FE
100
AcDbEntity
  8
10000_FRONT
370
    50
390
0
  6
CONTINUOUS
 62
     7
100
AcDbCircle
 10
624.25001
 20
1754.32501
 30
0.0
 40
1.75
100
AcDbArc
 50
27.660006
 51
179.9996
  0
ARC
  5
12FF
100
AcDbEntity
  8
10000_FRONT
370
    50
390
0
  6
CONTINUOUS
 62
     7
100
AcDbCircle
 10
624.25001
 20
1893.67501
 30
0.0
 40
1.75
100
AcDbArc
 50
180.0004
 51
332.339994
  0
ARC
  5
1300
100
AcDbEntity
  8
10000_FRONT
370
    50
390
0
  6
CONTINUOUS
 62
     7
100
AcDbCircle
 10
624.25001
 20
1894.42501
 30
0.0
 40
1.75
100
AcDbArc
 50
27.660183
 51
180.0004
  0
ARC
  5
1301
100
AcDbEntity
  8
10000_FRONT
370
    50
390
0
  6
CONTINUOUS
 62
     7
100
AcDbCircle
 10
627.35001
 20
1753.57501
 30
0.0
 40
1.75
100
AcDbArc
 50
207.661161
 51
0.0004
  0
ARC
  5
1302
100
AcDbEntity
  8
10000_FRONT
370
    50
390
0
  6
CONTINUOUS
 62
     7
100
AcDbCircle
 10
627.35001
 20
1754.32501
 30
0.0
 40
1.75
100
AcDbArc
 50
0.0004
 51
152.339901
  0
ARC
  5
1303
100
AcDbEntity
  8
10000_FRONT
370
    50
390
0
  6
CONTINUOUS
 62
     7
100
AcDbCircle
 10
627.35001
 20
1893.67501
 30
0.0
 40
1.75
100
AcDbArc
 50
207.660099
 51
359.9996
  0
ARC
  5
1304
100
AcDbEntity
  8
10000_FRONT
370
    50
390
0
  6
CONTINUOUS
 62
     7
100
AcDbCircle
 10
627.35001
 20
1894.42501
 30
0.0
 40
1.75
100
AcDbArc
 50
359.9996
 51
152.339724
  0
ARC
  5
1305
100
AcDbEntity
  8
10000_FRONT
370
    50
390
0
  6
CONTINUOUS
 62
     7
100
AcDbCircle
 10
627.46001
 20
1758.68001
 30
0.0
 40
1.56
100
AcDbArc
 50
180.000269
 51
269.999966
  0
ARC
  5
1306
100
AcDbEntity
  8
10000_FRONT
370
    50
390
0
  6
CONTINUOUS
 62
     7
100
AcDbCircle
 10
627.46001
 20
1759.16001
 30
0.0
 40
1.56
100
AcDbArc
 50
90.000034
 51
179.999865
  0
ARC
  5
1307
100
AcDbEntity
  8
10000_FRONT
370
    50
390
0
  6
CONTINUOUS
 62
     7
100
AcDbCircle
 10
627.71001
 20
1888.84001
 30
0.0
 40
1.56
100
AcDbArc
 50
180.000135
 51
269.999966
  0
ARC
  5
1308
100
AcDbEntity
  8
10000_FRONT
370
    50
390
0
  6
CONTINUOUS
 62
     7
100
AcDbCircle
 10
627.71001
 20
1889.32001
 30
0.0
 40
1.56
100
AcDbArc
 50
90.000034
 51
179.999731
  0
ARC
  5
1309
100
AcDbEntity
  8
10000_FRONT
370
    50
390
0
  6
CONTINUOUS
 62
     7
100
AcDbCircle
 10
631.09001
 20
1758.68001
 30
0.0
 40
1.56
100
AcDbArc
 50
269.999865
 51
359.999731
  0
ARC
  5
130A
100
AcDbEntity
  8
10000_FRONT
370
    50
390
0
  6
CONTINUOUS
 62
     7
100
AcDbCircle
 10
631.09001
 20
1759.16001
 30
0.0
 40
1.56
100
AcDbArc
 50
0.000135
 51
90.000135
  0
ARC
  5
130B
100
AcDbEntity
  8
10000_FRONT
370
    50
390
0
  6
CONTINUOUS
 62
     7
100
AcDbCircle
 10
631.34001
 20
1888.84001
 30
0.0
 40
1.56
100
AcDbArc
 50
269.999865
 51
359.999865
  0
ARC
  5
130C
100
AcDbEntity
  8
10000_FRONT
370
    50
390
0
  6
CONTINUOUS
 62
     7
100
AcDbCircle
 10
631.34001
 20
1889.32001
 30
0.0
 40
1.56
100
AcDbArc
 50
0.000269
 51
90.000135
  0
ARC
  5
130D
100
AcDbEntity
  8
10000_FRONT
370
    50
390
0
  6
CONTINUOUS
 62
     7
100
AcDbCircle
 10
631.45001
 20
1753.57501
 30
0.0
 40
1.75
100
AcDbArc
 50
179.9996
 51
332.338886
  0
ARC
  5
130E
100
AcDbEntity
  8
10000_FRONT
370
    50
390
0
  6
CONTINUOUS
 62
     7
100
AcDbCircle
 10
631.45001
 20
1754.32501
 30
0.0
 40
1.75
100
AcDbArc
 50
27.660053
 51
179.9996
  0
ARC
  5
130F
100
AcDbEntity
  8
10000_FRONT
370
    50
390
0
  6
CONTINUOUS
 62
     7
100
AcDbCircle
 10
631.45001
 20
1893.67501
 30
0.0
 40
1.75
100
AcDbArc
 50
180.0004
 51
332.339947
  0
ARC
  5
1310
100
AcDbEntity
  8
10000_FRONT
370
    50
390
0
  6
CONTINUOUS
 62
     7
100
AcDbCircle
 10
631.45001
 20
1894.42501
 30
0.0
 40
1.75
100
AcDbArc
 50
27.66023
 51
180.0004
  0
ARC
  5
1311
100
AcDbEntity
  8
10000_FRONT
370
    50
390
0
  6
CONTINUOUS
 62
     7
100
AcDbCircle
 10
634.55001
 20
1753.57501
 30
0.0
 40
1.75
100
AcDbArc
 50
207.661114
 51
0.0004
  0
ARC
  5
1312
100
AcDbEntity
  8
10000_FRONT
370
    50
390
0
  6
CONTINUOUS
 62
     7
100
AcDbCircle
 10
634.55001
 20
1754.32501
 30
0.0
 40
1.75
100
AcDbArc
 50
0.0004
 51
152.339947
  0
ARC
  5
1313
100
AcDbEntity
  8
10000_FRONT
370
    50
390
0
  6
CONTINUOUS
 62
     7
100
AcDbCircle
 10
634.55001
 20
1893.67501
 30
0.0
 40
1.75
100
AcDbArc
 50
207.660053
 51
359.9996
  0
ARC
  5
1314
100
AcDbEntity
  8
10000_FRONT
370
    50
390
0
  6
CONTINUOUS
 62
     7
100
AcDbCircle
 10
634.55001
 20
1894.42501
 30
0.0
 40
1.75
100
AcDbArc
 50
359.9996
 51
152.33977
  0
ARC
  5
1315
100
AcDbEntity
  8
10000_FRONT
370
    50
390
0
  6
CONTINUOUS
 62
     7
100
AcDbCircle
 10
634.66001
 20
1758.68001
 30
0.0
 40
1.56
100
AcDbArc
 50
180.000269
 51
270.000135
  0
ARC
  5
1316
100
AcDbEntity
  8
10000_FRONT
370
    50
390
0
  6
CONTINUOUS
 62
     7
100
AcDbCircle
 10
634.66001
 20
1759.16001
 30
0.0
 40
1.56
100
AcDbArc
 50
89.999865
 51
179.999865
  0
ARC
  5
1317
100
AcDbEntity
  8
10000_FRONT
370
    50
390
0
  6
CONTINUOUS
 62
     7
100
AcDbCircle
 10
634.91001
 20
1888.84001
 30
0.0
 40
1.56
100
AcDbArc
 50
180.000135
 51
270.000135
  0
ARC
  5
1318
100
AcDbEntity
  8
10000_FRONT
370
    50
390
0
  6
CONTINUOUS
 62
     7
100
AcDbCircle
 10
634.91001
 20
1889.32001
 30
0.0
 40
1.56
100
AcDbArc
 50
89.999865
 51
179.999731
  0
ARC
  5
1319
100
AcDbEntity
  8
10000_FRONT
370
    50
390
0
  6
CONTINUOUS
 62
     7
100
AcDbCircle
 10
638.29001
 20
1758.68001
 30
0.0
 40
1.56
100
AcDbArc
 50
270.000034
 51
359.999731
  0
ARC
  5
131A
100
AcDbEntity
  8
10000_FRONT
370
    50
390
0
  6
CONTINUOUS
 62
     7
100
AcDbCircle
 10
638.29001
 20
1759.16001
 30
0.0
 40
1.56
100
AcDbArc
 50
0.000135
 51
89.999966
  0
ARC
  5
131B
100
AcDbEntity
  8
10000_FRONT
370
    50
390
0
  6
CONTINUOUS
 62
     7
100
AcDbCircle
 10
638.54001
 20
1888.84001
 30
0.0
 40
1.56
100
AcDbArc
 50
270.000034
 51
359.999865
  0
ARC
  5
131C
100
AcDbEntity
  8
10000_FRONT
370
    50
390
0
  6
CONTINUOUS
 62
     7
100
AcDbCircle
 10
638.54001
 20
1889.32001
 30
0.0
 40
1.56
100
AcDbArc
 50
0.000269
 51
89.999966
  0
ARC
  5
131D
100
AcDbEntity
  8
10000_FRONT
370
    50
390
0
  6
CONTINUOUS
 62
     7
100
AcDbCircle
 10
638.65001
 20
1753.57501
 30
0.0
 40
1.75
100
AcDbArc
 50
179.9996
 51
332.338839
  0
ARC
  5
131E
100
AcDbEntity
  8
10000_FRONT
370
    50
390
0
  6
CONTINUOUS
 62
     7
100
AcDbCircle
 10
638.65001
 20
1754.32501
 30
0.0
 40
1.75
100
AcDbArc
 50
27.660099
 51
179.9996
  0
ARC
  5
131F
100
AcDbEntity
  8
10000_FRONT
370
    50
390
0
  6
CONTINUOUS
 62
     7
100
AcDbCircle
 10
638.65001
 20
1893.67501
 30
0.0
 40
1.75
100
AcDbArc
 50
180.0004
 51
332.339901
  0
ARC
  5
1320
100
AcDbEntity
  8
10000_FRONT
370
    50
390
0
  6
CONTINUOUS
 62
     7
100
AcDbCircle
 10
638.65001
 20
1894.42501
 30
0.0
 40
1.75
100
AcDbArc
 50
27.660276
 51
180.0004
  0
ARC
  5
1321
100
AcDbEntity
  8
10000_FRONT
370
    50
390
0
  6
CONTINUOUS
 62
     7
100
AcDbCircle
 10
641.75001
 20
1753.57501
 30
0.0
 40
1.75
100
AcDbArc
 50
207.661068
 51
0.0004
  0
ARC
  5
1322
100
AcDbEntity
  8
10000_FRONT
370
    50
390
0
  6
CONTINUOUS
 62
     7
100
AcDbCircle
 10
641.75001
 20
1754.32501
 30
0.0
 40
1.75
100
AcDbArc
 50
0.0004
 51
152.339994
  0
ARC
  5
1323
100
AcDbEntity
  8
10000_FRONT
370
    50
390
0
  6
CONTINUOUS
 62
     7
100
AcDbCircle
 10
641.75001
 20
1893.67501
 30
0.0
 40
1.75
100
AcDbArc
 50
207.660006
 51
359.9996
  0
ARC
  5
1324
100
AcDbEntity
  8
10000_FRONT
370
    50
390
0
  6
CONTINUOUS
 62
     7
100
AcDbCircle
 10
641.75001
 20
1894.42501
 30
0.0
 40
1.75
100
AcDbArc
 50
359.9996
 51
152.339817
  0
ARC
  5
1325
100
AcDbEntity
  8
10000_FRONT
370
    50
390
0
  6
CONTINUOUS
 62
     7
100
AcDbCircle
 10
641.86001
 20
1758.68001
 30
0.0
 40
1.56
100
AcDbArc
 50
180.000269
 51
270.000022
  0
ARC
  5
1326
100
AcDbEntity
  8
10000_FRONT
370
    50
390
0
  6
CONTINUOUS
 62
     7
100
AcDbCircle
 10
641.86001
 20
1759.16001
 30
0.0
 40
1.56
100
AcDbArc
 50
89.999978
 51
179.999865
  0
ARC
  5
1327
100
AcDbEntity
  8
10000_FRONT
370
    50
390
0
  6
CONTINUOUS
 62
     7
100
AcDbCircle
 10
642.11001
 20
1888.84001
 30
0.0
 40
1.56
100
AcDbArc
 50
180.000135
 51
270.000022
  0
ARC
  5
1328
100
AcDbEntity
  8
10000_FRONT
370
    50
390
0
  6
CONTINUOUS
 62
     7
100
AcDbCircle
 10
642.11001
 20
1889.32001
 30
0.0
 40
1.56
100
AcDbArc
 50
89.999978
 51
179.999731
  0
ARC
  5
1329
100
AcDbEntity
  8
10000_FRONT
370
    50
390
0
  6
CONTINUOUS
 62
     7
100
AcDbCircle
 10
645.49001
 20
1758.68001
 30
0.0
 40
1.56
100
AcDbArc
 50
269.999922
 51
359.999731
  0
ARC
  5
132A
100
AcDbEntity
  8
10000_FRONT
370
    50
390
0
  6
CONTINUOUS
 62
     7
100
AcDbCircle
 10
645.49001
 20
1759.16001
 30
0.0
 40
1.56
100
AcDbArc
 50
0.000135
 51
90.000078
  0
ARC
  5
132B
100
AcDbEntity
  8
10000_FRONT
370
    50
390
0
  6
CONTINUOUS
 62
     7
100
AcDbCircle
 10
645.74001
 20
1888.84001
 30
0.0
 40
1.56
100
AcDbArc
 50
269.999922
 51
359.999865
  0
ARC
  5
132C
100
AcDbEntity
  8
10000_FRONT
370
    50
390
0
  6
CONTINUOUS
 62
     7
100
AcDbCircle
 10
645.74001
 20
1889.32001
 30
0.0
 40
1.56
100
AcDbArc
 50
0.000269
 51
90.000078
  0
ARC
  5
132D
100
AcDbEntity
  8
10000_FRONT
370
    50
390
0
  6
CONTINUOUS
 62
     7
100
AcDbCircle
 10
645.85001
 20
1753.57501
 30
0.0
 40
1.75
100
AcDbArc
 50
179.9996
 51
332.338909
  0
ARC
  5
132E
100
AcDbEntity
  8
10000_FRONT
370
    50
390
0
  6
CONTINUOUS
 62
     7
100
AcDbCircle
 10
645.85001
 20
1754.32501
 30
0.0
 40
1.75
100
AcDbArc
 50
27.660029
 51
179.9996
  0
ARC
  5
132F
100
AcDbEntity
  8
10000_FRONT
370
    50
390
0
  6
CONTINUOUS
 62
     7
100
AcDbCircle
 10
645.85001
 20
1893.67501
 30
0.0
 40
1.75
100
AcDbArc
 50
180.0004
 51
332.339971
  0
ARC
  5
1330
100
AcDbEntity
  8
10000_FRONT
370
    50
390
0
  6
CONTINUOUS
 62
     7
100
AcDbCircle
 10
645.85001
 20
1894.42501
 30
0.0
 40
1.75
100
AcDbArc
 50
27.660206
 51
180.0004
  0
ARC
  5
1331
100
AcDbEntity
  8
10000_FRONT
370
    50
390
0
  6
CONTINUOUS
 62
     7
100
AcDbCircle
 10
648.95001
 20
1753.57501
 30
0.0
 40
1.75
100
AcDbArc
 50
207.661138
 51
0.0004
  0
ARC
  5
1332
100
AcDbEntity
  8
10000_FRONT
370
    50
390
0
  6
CONTINUOUS
 62
     7
100
AcDbCircle
 10
648.95001
 20
1754.32501
 30
0.0
 40
1.75
100
AcDbArc
 50
0.0004
 51
152.339924
  0
ARC
  5
1333
100
AcDbEntity
  8
10000_FRONT
370
    50
390
0
  6
CONTINUOUS
 62
     7
100
AcDbCircle
 10
648.95001
 20
1893.67501
 30
0.0
 40
1.75
100
AcDbArc
 50
207.660076
 51
359.9996
  0
ARC
  5
1334
100
AcDbEntity
  8
10000_FRONT
370
    50
390
0
  6
CONTINUOUS
 62
     7
100
AcDbCircle
 10
648.95001
 20
1894.42501
 30
0.0
 40
1.75
100
AcDbArc
 50
359.9996
 51
152.339747
  0
ARC
  5
1335
100
AcDbEntity
  8
10000_FRONT
370
    50
390
0
  6
CONTINUOUS
 62
     7
100
AcDbCircle
 10
649.06001
 20
1758.68001
 30
0.0
 40
1.56
100
AcDbArc
 50
180.000269
 51
269.99991
  0
ARC
  5
1336
100
AcDbEntity
  8
10000_FRONT
370
    50
390
0
  6
CONTINUOUS
 62
     7
100
AcDbCircle
 10
649.06001
 20
1759.16001
 30
0.0
 40
1.56
100
AcDbArc
 50
90.00009
 51
179.999865
  0
ARC
  5
1337
100
AcDbEntity
  8
10000_FRONT
370
    50
390
0
  6
CONTINUOUS
 62
     7
100
AcDbCircle
 10
649.31001
 20
1888.84001
 30
0.0
 40
1.56
100
AcDbArc
 50
180.000135
 51
269.99991
  0
ARC
  5
1338
100
AcDbEntity
  8
10000_FRONT
370
    50
390
0
  6
CONTINUOUS
 62
     7
100
AcDbCircle
 10
649.31001
 20
1889.32001
 30
0.0
 40
1.56
100
AcDbArc
 50
90.00009
 51
179.999731
  0
ARC
  5
1339
100
AcDbEntity
  8
10000_FRONT
370
    50
390
0
  6
CONTINUOUS
 62
     7
100
AcDbCircle
 10
650.40001
 20
1749.85001
 30
0.0
 40
1.5
100
AcDbArc
 50
270.000058
 51
359.999067
  0
ARC
  5
133A
100
AcDbEntity
  8
10000_FRONT
370
    50
390
0
  6
CONTINUOUS
 62
     7
100
AcDbCircle
 10
650.40001
 20
1898.15001
 30
0.0
 40
1.5
100
AcDbArc
 50
359.999767
 51
89.999942
  0
ARC
  5
133B
100
AcDbEntity
  8
10000_FRONT
370
    50
390
0
  6
CONTINUOUS
 62
     7
100
AcDbCircle
 10
653.60001
 20
1749.85001
 30
0.0
 40
1.5
100
AcDbArc
 50
180.000933
 51
269.999942
  0
ARC
  5
133C
100
AcDbEntity
  8
10000_FRONT
370
    50
390
0
  6
CONTINUOUS
 62
     7
100
AcDbCircle
 10
653.60001
 20
1898.15001
 30
0.0
 40
1.5
100
AcDbArc
 50
90.000058
 51
180.000233
  0
ARC
  5
133D
100
AcDbEntity
  8
10000_FRONT
370
    50
390
0
  6
CONTINUOUS
 62
     7
100
AcDbCircle
 10
654.69001
 20
1758.68001
 30
0.0
 40
1.56
100
AcDbArc
 50
270.00009
 51
359.999731
  0
ARC
  5
133E
100
AcDbEntity
  8
10000_FRONT
370
    50
390
0
  6
CONTINUOUS
 62
     7
100
AcDbCircle
 10
654.69001
 20
1759.16001
 30
0.0
 40
1.56
100
AcDbArc
 50
0.000135
 51
89.99991
  0
ARC
  5
133F
100
AcDbEntity
  8
10000_FRONT
370
    50
390
0
  6
CONTINUOUS
 62
     7
100
AcDbCircle
 10
654.94001
 20
1888.84001
 30
0.0
 40
1.56
100
AcDbArc
 50
270.00009
 51
359.999865
  0
ARC
  5
1340
100
AcDbEntity
  8
10000_FRONT
370
    50
390
0
  6
CONTINUOUS
 62
     7
100
AcDbCircle
 10
654.94001
 20
1889.32001
 30
0.0
 40
1.56
100
AcDbArc
 50
0.000269
 51
89.99991
  0
ARC
  5
1341
100
AcDbEntity
  8
10000_FRONT
370
    50
390
0
  6
CONTINUOUS
 62
     7
100
AcDbCircle
 10
655.05001
 20
1753.57501
 30
0.0
 40
1.75
100
AcDbArc
 50
179.9996
 51
332.338978
  0
ARC
  5
1342
100
AcDbEntity
  8
10000_FRONT
370
    50
390
0
  6
CONTINUOUS
 62
     7
100
AcDbCircle
 10
655.05001
 20
1754.32501
 30
0.0
 40
1.75
100
AcDbArc
 50
27.65996
 51
179.9996
  0
ARC
  5
1343
100
AcDbEntity
  8
10000_FRONT
370
    50
390
0
  6
CONTINUOUS
 62
     7
100
AcDbCircle
 10
655.05001
 20
1893.67501
 30
0.0
 40
1.75
100
AcDbArc
 50
180.0004
 51
332.34004
  0
ARC
  5
1344
100
AcDbEntity
  8
10000_FRONT
370
    50
390
0
  6
CONTINUOUS
 62
     7
100
AcDbCircle
 10
655.05001
 20
1894.42501
 30
0.0
 40
1.75
100
AcDbArc
 50
27.660137
 51
180.0004
  0
ARC
  5
1345
100
AcDbEntity
  8
10000_FRONT
370
    50
390
0
  6
CONTINUOUS
 62
     7
100
AcDbCircle
 10
658.15001
 20
1753.57501
 30
0.0
 40
1.75
100
AcDbArc
 50
207.661207
 51
0.0004
  0
ARC
  5
1346
100
AcDbEntity
  8
10000_FRONT
370
    50
390
0
  6
CONTINUOUS
 62
     7
100
AcDbCircle
 10
658.15001
 20
1754.32501
 30
0.0
 40
1.75
100
AcDbArc
 50
0.0004
 51
152.339855
  0
ARC
  5
1347
100
AcDbEntity
  8
10000_FRONT
370
    50
390
0
  6
CONTINUOUS
 62
     7
100
AcDbCircle
 10
658.15001
 20
1893.67501
 30
0.0
 40
1.75
100
AcDbArc
 50
207.660145
 51
359.9996
  0
ARC
  5
1348
100
AcDbEntity
  8
10000_FRONT
370
    50
390
0
  6
CONTINUOUS
 62
     7
100
AcDbCircle
 10
658.15001
 20
1894.42501
 30
0.0
 40
1.75
100
AcDbArc
 50
359.9996
 51
152.339678
  0
ARC
  5
1349
100
AcDbEntity
  8
10000_FRONT
370
    50
390
0
  6
CONTINUOUS
 62
     7
100
AcDbCircle
 10
658.26001
 20
1758.68001
 30
0.0
 40
1.56
100
AcDbArc
 50
180.000269
 51
269.999798
  0
ARC
  5
134A
100
AcDbEntity
  8
10000_FRONT
370
    50
390
0
  6
CONTINUOUS
 62
     7
100
AcDbCircle
 10
658.26001
 20
1759.16001
 30
0.0
 40
1.56
100
AcDbArc
 50
90.000202
 51
179.999865
  0
ARC
  5
134B
100
AcDbEntity
  8
10000_FRONT
370
    50
390
0
  6
CONTINUOUS
 62
     7
100
AcDbCircle
 10
658.51001
 20
1888.84001
 30
0.0
 40
1.56
100
AcDbArc
 50
180.000135
 51
269.999798
  0
ARC
  5
134C
100
AcDbEntity
  8
10000_FRONT
370
    50
390
0
  6
CONTINUOUS
 62
     7
100
AcDbCircle
 10
658.51001
 20
1889.32001
 30
0.0
 40
1.56
100
AcDbArc
 50
90.000202
 51
179.999731
  0
ARC
  5
134D
100
AcDbEntity
  8
10000_FRONT
370
    50
390
0
  6
CONTINUOUS
 62
     7
100
AcDbCircle
 10
661.89001
 20
1758.68001
 30
0.0
 40
1.56
100
AcDbArc
 50
269.999978
 51
359.999731
  0
ARC
  5
134E
100
AcDbEntity
  8
10000_FRONT
370
    50
390
0
  6
CONTINUOUS
 62
     7
100
AcDbCircle
 10
661.89001
 20
1759.16001
 30
0.0
 40
1.56
100
AcDbArc
 50
0.000135
 51
90.000022
  0
ARC
  5
134F
100
AcDbEntity
  8
10000_FRONT
370
    50
390
0
  6
CONTINUOUS
 62
     7
100
AcDbCircle
 10
662.14001
 20
1888.84001
 30
0.0
 40
1.56
100
AcDbArc
 50
269.999978
 51
359.999865
  0
ARC
  5
1350
100
AcDbEntity
  8
10000_FRONT
370
    50
390
0
  6
CONTINUOUS
 62
     7
100
AcDbCircle
 10
662.14001
 20
1889.32001
 30
0.0
 40
1.56
100
AcDbArc
 50
0.000269
 51
90.000022
  0
ARC
  5
1351
100
AcDbEntity
  8
10000_FRONT
370
    50
390
0
  6
CONTINUOUS
 62
     7
100
AcDbCircle
 10
662.25001
 20
1753.57501
 30
0.0
 40
1.75
100
AcDbArc
 50
179.9996
 51
332.338932
  0
ARC
  5
1352
100
AcDbEntity
  8
10000_FRONT
370
    50
390
0
  6
CONTINUOUS
 62
     7
100
AcDbCircle
 10
662.25001
 20
1754.32501
 30
0.0
 40
1.75
100
AcDbArc
 50
27.660006
 51
179.9996
  0
ARC
  5
1353
100
AcDbEntity
  8
10000_FRONT
370
    50
390
0
  6
CONTINUOUS
 62
     7
100
AcDbCircle
 10
662.25001
 20
1893.67501
 30
0.0
 40
1.75
100
AcDbArc
 50
180.0004
 51
332.339994
  0
ARC
  5
1354
100
AcDbEntity
  8
10000_FRONT
370
    50
390
0
  6
CONTINUOUS
 62
     7
100
AcDbCircle
 10
662.25001
 20
1894.42501
 30
0.0
 40
1.75
100
AcDbArc
 50
27.660183
 51
180.0004
  0
ARC
  5
1355
100
AcDbEntity
  8
10000_FRONT
370
    50
390
0
  6
CONTINUOUS
 62
     7
100
AcDbCircle
 10
665.35001
 20
1753.57501
 30
0.0
 40
1.75
100
AcDbArc
 50
207.661161
 51
0.0004
  0
ARC
  5
1356
100
AcDbEntity
  8
10000_FRONT
370
    50
390
0
  6
CONTINUOUS
 62
     7
100
AcDbCircle
 10
665.35001
 20
1754.32501
 30
0.0
 40
1.75
100
AcDbArc
 50
0.0004
 51
152.339901
  0
ARC
  5
1357
100
AcDbEntity
  8
10000_FRONT
370
    50
390
0
  6
CONTINUOUS
 62
     7
100
AcDbCircle
 10
665.35001
 20
1893.67501
 30
0.0
 40
1.75
100
AcDbArc
 50
207.660099
 51
359.9996
  0
ARC
  5
1358
100
AcDbEntity
  8
10000_FRONT
370
    50
390
0
  6
CONTINUOUS
 62
     7
100
AcDbCircle
 10
665.35001
 20
1894.42501
 30
0.0
 40
1.75
100
AcDbArc
 50
359.9996
 51
152.339724
  0
ARC
  5
1359
100
AcDbEntity
  8
10000_FRONT
370
    50
390
0
  6
CONTINUOUS
 62
     7
100
AcDbCircle
 10
665.46001
 20
1758.68001
 30
0.0
 40
1.56
100
AcDbArc
 50
180.000269
 51
270.000247
  0
ARC
  5
135A
100
AcDbEntity
  8
10000_FRONT
370
    50
390
0
  6
CONTINUOUS
 62
     7
100
AcDbCircle
 10
665.46001
 20
1759.16001
 30
0.0
 40
1.56
100
AcDbArc
 50
89.999753
 51
179.999865
  0
ARC
  5
135B
100
AcDbEntity
  8
10000_FRONT
370
    50
390
0
  6
CONTINUOUS
 62
     7
100
AcDbCircle
 10
665.71001
 20
1888.84001
 30
0.0
 40
1.56
100
AcDbArc
 50
180.000135
 51
270.000247
  0
ARC
  5
135C
100
AcDbEntity
  8
10000_FRONT
370
    50
390
0
  6
CONTINUOUS
 62
     7
100
AcDbCircle
 10
665.71001
 20
1889.32001
 30
0.0
 40
1.56
100
AcDbArc
 50
89.999753
 51
179.999731
  0
ARC
  5
135D
100
AcDbEntity
  8
10000_FRONT
370
    50
390
0
  6
CONTINUOUS
 62
     7
100
AcDbCircle
 10
669.09001
 20
1758.68001
 30
0.0
 40
1.56
100
AcDbArc
 50
269.999865
 51
359.999731
  0
ARC
  5
135E
100
AcDbEntity
  8
10000_FRONT
370
    50
390
0
  6
CONTINUOUS
 62
     7
100
AcDbCircle
 10
669.09001
 20
1759.16001
 30
0.0
 40
1.56
100
AcDbArc
 50
0.000135
 51
90.000135
  0
ARC
  5
135F
100
AcDbEntity
  8
10000_FRONT
370
    50
390
0
  6
CONTINUOUS
 62
     7
100
AcDbCircle
 10
669.34001
 20
1888.84001
 30
0.0
 40
1.56
100
AcDbArc
 50
269.999865
 51
359.999865
  0
ARC
  5
1360
100
AcDbEntity
  8
10000_FRONT
370
    50
390
0
  6
CONTINUOUS
 62
     7
100
AcDbCircle
 10
669.34001
 20
1889.32001
 30
0.0
 40
1.56
100
AcDbArc
 50
0.000269
 51
90.000135
  0
ARC
  5
1361
100
AcDbEntity
  8
10000_FRONT
370
    50
390
0
  6
CONTINUOUS
 62
     7
100
AcDbCircle
 10
669.45001
 20
1753.57501
 30
0.0
 40
1.75
100
AcDbArc
 50
179.9996
 51
332.338886
  0
ARC
  5
1362
100
AcDbEntity
  8
10000_FRONT
370
    50
390
0
  6
CONTINUOUS
 62
     7
100
AcDbCircle
 10
669.45001
 20
1754.32501
 30
0.0
 40
1.75
100
AcDbArc
 50
27.660053
 51
179.9996
  0
ARC
  5
1363
100
AcDbEntity
  8
10000_FRONT
370
    50
390
0
  6
CONTINUOUS
 62
     7
100
AcDbCircle
 10
669.45001
 20
1893.67501
 30
0.0
 40
1.75
100
AcDbArc
 50
180.0004
 51
332.339947
  0
ARC
  5
1364
100
AcDbEntity
  8
10000_FRONT
370
    50
390
0
  6
CONTINUOUS
 62
     7
100
AcDbCircle
 10
669.45001
 20
1894.42501
 30
0.0
 40
1.75
100
AcDbArc
 50
27.66023
 51
180.0004
  0
ARC
  5
1365
100
AcDbEntity
  8
10000_FRONT
370
    50
390
0
  6
CONTINUOUS
 62
     7
100
AcDbCircle
 10
672.55001
 20
1753.57501
 30
0.0
 40
1.75
100
AcDbArc
 50
207.661114
 51
0.0004
  0
ARC
  5
1366
100
AcDbEntity
  8
10000_FRONT
370
    50
390
0
  6
CONTINUOUS
 62
     7
100
AcDbCircle
 10
672.55001
 20
1754.32501
 30
0.0
 40
1.75
100
AcDbArc
 50
0.0004
 51
152.339947
  0
ARC
  5
1367
100
AcDbEntity
  8
10000_FRONT
370
    50
390
0
  6
CONTINUOUS
 62
     7
100
AcDbCircle
 10
672.55001
 20
1893.67501
 30
0.0
 40
1.75
100
AcDbArc
 50
207.660053
 51
359.9996
  0
ARC
  5
1368
100
AcDbEntity
  8
10000_FRONT
370
    50
390
0
  6
CONTINUOUS
 62
     7
100
AcDbCircle
 10
672.55001
 20
1894.42501
 30
0.0
 40
1.75
100
AcDbArc
 50
359.9996
 51
152.33977
  0
ARC
  5
1369
100
AcDbEntity
  8
10000_FRONT
370
    50
390
0
  6
CONTINUOUS
 62
     7
100
AcDbCircle
 10
672.66001
 20
1758.68001
 30
0.0
 40
1.56
100
AcDbArc
 50
180.000269
 51
270.000135
  0
ARC
  5
136A
100
AcDbEntity
  8
10000_FRONT
370
    50
390
0
  6
CONTINUOUS
 62
     7
100
AcDbCircle
 10
672.66001
 20
1759.16001
 30
0.0
 40
1.56
100
AcDbArc
 50
89.999865
 51
179.999865
  0
ARC
  5
136B
100
AcDbEntity
  8
10000_FRONT
370
    50
390
0
  6
CONTINUOUS
 62
     7
100
AcDbCircle
 10
672.91001
 20
1888.84001
 30
0.0
 40
1.56
100
AcDbArc
 50
180.000135
 51
270.000135
  0
ARC
  5
136C
100
AcDbEntity
  8
10000_FRONT
370
    50
390
0
  6
CONTINUOUS
 62
     7
100
AcDbCircle
 10
672.91001
 20
1889.32001
 30
0.0
 40
1.56
100
AcDbArc
 50
89.999865
 51
179.999731
  0
ARC
  5
136D
100
AcDbEntity
  8
10000_FRONT
370
    50
390
0
  6
CONTINUOUS
 62
     7
100
AcDbCircle
 10
676.29001
 20
1758.68001
 30
0.0
 40
1.56
100
AcDbArc
 50
269.999753
 51
359.999731
  0
ARC
  5
136E
100
AcDbEntity
  8
10000_FRONT
370
    50
390
0
  6
CONTINUOUS
 62
     7
100
AcDbCircle
 10
676.29001
 20
1759.16001
 30
0.0
 40
1.56
100
AcDbArc
 50
0.000135
 51
90.000247
  0
ARC
  5
136F
100
AcDbEntity
  8
10000_FRONT
370
    50
390
0
  6
CONTINUOUS
 62
     7
100
AcDbCircle
 10
676.54001
 20
1888.84001
 30
0.0
 40
1.56
100
AcDbArc
 50
269.999753
 51
359.999865
  0
ARC
  5
1370
100
AcDbEntity
  8
10000_FRONT
370
    50
390
0
  6
CONTINUOUS
 62
     7
100
AcDbCircle
 10
676.54001
 20
1889.32001
 30
0.0
 40
1.56
100
AcDbArc
 50
0.000269
 51
90.000247
  0
ARC
  5
1371
100
AcDbEntity
  8
10000_FRONT
370
    50
390
0
  6
CONTINUOUS
 62
     7
100
AcDbCircle
 10
676.65001
 20
1753.57501
 30
0.0
 40
1.75
100
AcDbArc
 50
179.9996
 51
332.338839
  0
ARC
  5
1372
100
AcDbEntity
  8
10000_FRONT
370
    50
390
0
  6
CONTINUOUS
 62
     7
100
AcDbCircle
 10
676.65001
 20
1754.32501
 30
0.0
 40
1.75
100
AcDbArc
 50
27.660099
 51
179.9996
  0
ARC
  5
1373
100
AcDbEntity
  8
10000_FRONT
370
    50
390
0
  6
CONTINUOUS
 62
     7
100
AcDbCircle
 10
676.65001
 20
1893.67501
 30
0.0
 40
1.75
100
AcDbArc
 50
180.0004
 51
332.339901
  0
ARC
  5
1374
100
AcDbEntity
  8
10000_FRONT
370
    50
390
0
  6
CONTINUOUS
 62
     7
100
AcDbCircle
 10
676.65001
 20
1894.42501
 30
0.0
 40
1.75
100
AcDbArc
 50
27.660276
 51
180.0004
  0
ARC
  5
1375
100
AcDbEntity
  8
10000_FRONT
370
    50
390
0
  6
CONTINUOUS
 62
     7
100
AcDbCircle
 10
679.75001
 20
1753.57501
 30
0.0
 40
1.75
100
AcDbArc
 50
207.661068
 51
0.0004
  0
ARC
  5
1376
100
AcDbEntity
  8
10000_FRONT
370
    50
390
0
  6
CONTINUOUS
 62
     7
100
AcDbCircle
 10
679.75001
 20
1754.32501
 30
0.0
 40
1.75
100
AcDbArc
 50
0.0004
 51
152.339994
  0
ARC
  5
1377
100
AcDbEntity
  8
10000_FRONT
370
    50
390
0
  6
CONTINUOUS
 62
     7
100
AcDbCircle
 10
679.75001
 20
1893.67501
 30
0.0
 40
1.75
100
AcDbArc
 50
207.660006
 51
359.9996
  0
ARC
  5
1378
100
AcDbEntity
  8
10000_FRONT
370
    50
390
0
  6
CONTINUOUS
 62
     7
100
AcDbCircle
 10
679.75001
 20
1894.42501
 30
0.0
 40
1.75
100
AcDbArc
 50
359.9996
 51
152.339817
  0
ARC
  5
1379
100
AcDbEntity
  8
10000_FRONT
370
    50
390
0
  6
CONTINUOUS
 62
     7
100
AcDbCircle
 10
679.86001
 20
1758.68001
 30
0.0
 40
1.56
100
AcDbArc
 50
180.000269
 51
270.000022
  0
ARC
  5
137A
100
AcDbEntity
  8
10000_FRONT
370
    50
390
0
  6
CONTINUOUS
 62
     7
100
AcDbCircle
 10
679.86001
 20
1759.16001
 30
0.0
 40
1.56
100
AcDbArc
 50
89.999978
 51
179.999865
  0
ARC
  5
137B
100
AcDbEntity
  8
10000_FRONT
370
    50
390
0
  6
CONTINUOUS
 62
     7
100
AcDbCircle
 10
680.11001
 20
1888.84001
 30
0.0
 40
1.56
100
AcDbArc
 50
180.000135
 51
270.000022
  0
ARC
  5
137C
100
AcDbEntity
  8
10000_FRONT
370
    50
390
0
  6
CONTINUOUS
 62
     7
100
AcDbCircle
 10
680.11001
 20
1889.32001
 30
0.0
 40
1.56
100
AcDbArc
 50
89.999978
 51
179.999731
  0
ARC
  5
137D
100
AcDbEntity
  8
10000_FRONT
370
    50
390
0
  6
CONTINUOUS
 62
     7
100
AcDbCircle
 10
683.49001
 20
1758.68001
 30
0.0
 40
1.56
100
AcDbArc
 50
270.000202
 51
359.999731
  0
ARC
  5
137E
100
AcDbEntity
  8
10000_FRONT
370
    50
390
0
  6
CONTINUOUS
 62
     7
100
AcDbCircle
 10
683.49001
 20
1759.16001
 30
0.0
 40
1.56
100
AcDbArc
 50
0.000135
 51
89.999798
  0
ARC
  5
137F
100
AcDbEntity
  8
10000_FRONT
370
    50
390
0
  6
CONTINUOUS
 62
     7
100
AcDbCircle
 10
683.74001
 20
1888.84001
 30
0.0
 40
1.56
100
AcDbArc
 50
270.000202
 51
359.999865
  0
ARC
  5
1380
100
AcDbEntity
  8
10000_FRONT
370
    50
390
0
  6
CONTINUOUS
 62
     7
100
AcDbCircle
 10
683.74001
 20
1889.32001
 30
0.0
 40
1.56
100
AcDbArc
 50
0.000269
 51
89.999798
  0
ARC
  5
1381
100
AcDbEntity
  8
10000_FRONT
370
    50
390
0
  6
CONTINUOUS
 62
     7
100
AcDbCircle
 10
683.85001
 20
1753.57501
 30
0.0
 40
1.75
100
AcDbArc
 50
179.9996
 51
332.338793
  0
ARC
  5
1382
100
AcDbEntity
  8
10000_FRONT
370
    50
390
0
  6
CONTINUOUS
 62
     7
100
AcDbCircle
 10
683.85001
 20
1754.32501
 30
0.0
 40
1.75
100
AcDbArc
 50
27.660145
 51
179.9996
  0
ARC
  5
1383
100
AcDbEntity
  8
10000_FRONT
370
    50
390
0
  6
CONTINUOUS
 62
     7
100
AcDbCircle
 10
683.85001
 20
1893.67501
 30
0.0
 40
1.75
100
AcDbArc
 50
180.0004
 51
332.339855
  0
ARC
  5
1384
100
AcDbEntity
  8
10000_FRONT
370
    50
390
0
  6
CONTINUOUS
 62
     7
100
AcDbCircle
 10
683.85001
 20
1894.42501
 30
0.0
 40
1.75
100
AcDbArc
 50
27.660322
 51
180.0004
  0
ARC
  5
1385
100
AcDbEntity
  8
10000_FRONT
370
    50
390
0
  6
CONTINUOUS
 62
     7
100
AcDbCircle
 10
686.95001
 20
1753.57501
 30
0.0
 40
1.75
100
AcDbArc
 50
207.661022
 51
0.0004
  0
ARC
  5
1386
100
AcDbEntity
  8
10000_FRONT
370
    50
390
0
  6
CONTINUOUS
 62
     7
100
AcDbCircle
 10
686.95001
 20
1754.32501
 30
0.0
 40
1.75
100
AcDbArc
 50
0.0004
 51
152.34004
  0
ARC
  5
1387
100
AcDbEntity
  8
10000_FRONT
370
    50
390
0
  6
CONTINUOUS
 62
     7
100
AcDbCircle
 10
686.95001
 20
1893.67501
 30
0.0
 40
1.75
100
AcDbArc
 50
207.65996
 51
359.9996
  0
ARC
  5
1388
100
AcDbEntity
  8
10000_FRONT
370
    50
390
0
  6
CONTINUOUS
 62
     7
100
AcDbCircle
 10
686.95001
 20
1894.42501
 30
0.0
 40
1.75
100
AcDbArc
 50
359.9996
 51
152.339863
  0
ARC
  5
1389
100
AcDbEntity
  8
10000_FRONT
370
    50
390
0
  6
CONTINUOUS
 62
     7
100
AcDbCircle
 10
687.06001
 20
1758.68001
 30
0.0
 40
1.56
100
AcDbArc
 50
180.000269
 51
269.99991
  0
ARC
  5
138A
100
AcDbEntity
  8
10000_FRONT
370
    50
390
0
  6
CONTINUOUS
 62
     7
100
AcDbCircle
 10
687.06001
 20
1759.16001
 30
0.0
 40
1.56
100
AcDbArc
 50
90.00009
 51
179.999865
  0
ARC
  5
138B
100
AcDbEntity
  8
10000_FRONT
370
    50
390
0
  6
CONTINUOUS
 62
     7
100
AcDbCircle
 10
687.31001
 20
1888.84001
 30
0.0
 40
1.56
100
AcDbArc
 50
180.000135
 51
269.99991
  0
ARC
  5
138C
100
AcDbEntity
  8
10000_FRONT
370
    50
390
0
  6
CONTINUOUS
 62
     7
100
AcDbCircle
 10
687.31001
 20
1889.32001
 30
0.0
 40
1.56
100
AcDbArc
 50
90.00009
 51
179.999731
  0
ARC
  5
138D
100
AcDbEntity
  8
10000_FRONT
370
    50
390
0
  6
CONTINUOUS
 62
     7
100
AcDbCircle
 10
690.69001
 20
1758.68001
 30
0.0
 40
1.56
100
AcDbArc
 50
270.00009
 51
359.999731
  0
ARC
  5
138E
100
AcDbEntity
  8
10000_FRONT
370
    50
390
0
  6
CONTINUOUS
 62
     7
100
AcDbCircle
 10
690.69001
 20
1759.16001
 30
0.0
 40
1.56
100
AcDbArc
 50
0.000135
 51
89.99991
  0
ARC
  5
138F
100
AcDbEntity
  8
10000_FRONT
370
    50
390
0
  6
CONTINUOUS
 62
     7
100
AcDbCircle
 10
690.94001
 20
1888.84001
 30
0.0
 40
1.56
100
AcDbArc
 50
270.00009
 51
359.999865
  0
ARC
  5
1390
100
AcDbEntity
  8
10000_FRONT
370
    50
390
0
  6
CONTINUOUS
 62
     7
100
AcDbCircle
 10
690.94001
 20
1889.32001
 30
0.0
 40
1.56
100
AcDbArc
 50
0.000269
 51
89.99991
  0
ARC
  5
1391
100
AcDbEntity
  8
10000_FRONT
370
    50
390
0
  6
CONTINUOUS
 62
     7
100
AcDbCircle
 10
691.05001
 20
1753.57501
 30
0.0
 40
1.75
100
AcDbArc
 50
179.9996
 51
332.338978
  0
ARC
  5
1392
100
AcDbEntity
  8
10000_FRONT
370
    50
390
0
  6
CONTINUOUS
 62
     7
100
AcDbCircle
 10
691.05001
 20
1754.32501
 30
0.0
 40
1.75
100
AcDbArc
 50
27.65996
 51
179.9996
  0
ARC
  5
1393
100
AcDbEntity
  8
10000_FRONT
370
    50
390
0
  6
CONTINUOUS
 62
     7
100
AcDbCircle
 10
691.05001
 20
1893.67501
 30
0.0
 40
1.75
100
AcDbArc
 50
180.0004
 51
332.34004
  0
ARC
  5
1394
100
AcDbEntity
  8
10000_FRONT
370
    50
390
0
  6
CONTINUOUS
 62
     7
100
AcDbCircle
 10
691.05001
 20
1894.42501
 30
0.0
 40
1.75
100
AcDbArc
 50
27.660137
 51
180.0004
  0
ARC
  5
1395
100
AcDbEntity
  8
10000_FRONT
370
    50
390
0
  6
CONTINUOUS
 62
     7
100
AcDbCircle
 10
691.449017
 20
1799.90001
 30
0.0
 40
0.3
100
AcDbArc
 50
180.001166
 51
269.999642
  0
ARC
  5
1396
100
AcDbEntity
  8
10000_FRONT
370
    50
390
0
  6
CONTINUOUS
 62
     7
100
AcDbCircle
 10
691.449017
 20
1808.20001
 30
0.0
 40
0.3
100
AcDbArc
 50
90.000358
 51
179.997669
  0
ARC
  5
1397
100
AcDbEntity
  8
10000_FRONT
370
    50
390
0
  6
CONTINUOUS
 62
     7
100
AcDbCircle
 10
694.15001
 20
1753.57501
 30
0.0
 40
1.75
100
AcDbArc
 50
207.661207
 51
0.0004
  0
ARC
  5
1398
100
AcDbEntity
  8
10000_FRONT
370
    50
390
0
  6
CONTINUOUS
 62
     7
100
AcDbCircle
 10
694.15001
 20
1754.32501
 30
0.0
 40
1.75
100
AcDbArc
 50
0.0004
 51
152.339855
  0
ARC
  5
1399
100
AcDbEntity
  8
10000_FRONT
370
    50
390
0
  6
CONTINUOUS
 62
     7
100
AcDbCircle
 10
694.15001
 20
1893.67501
 30
0.0
 40
1.75
100
AcDbArc
 50
207.660145
 51
359.9996
  0
ARC
  5
139A
100
AcDbEntity
  8
10000_FRONT
370
    50
390
0
  6
CONTINUOUS
 62
     7
100
AcDbCircle
 10
694.15001
 20
1894.42501
 30
0.0
 40
1.75
100
AcDbArc
 50
359.9996
 51
152.339678
  0
ARC
  5
139B
100
AcDbEntity
  8
10000_FRONT
370
    50
390
0
  6
CONTINUOUS
 62
     7
100
AcDbCircle
 10
694.26001
 20
1758.68001
 30
0.0
 40
1.56
100
AcDbArc
 50
180.000269
 51
269.999798
  0
ARC
  5
139C
100
AcDbEntity
  8
10000_FRONT
370
    50
390
0
  6
CONTINUOUS
 62
     7
100
AcDbCircle
 10
694.26001
 20
1759.16001
 30
0.0
 40
1.56
100
AcDbArc
 50
90.000202
 51
179.999865
  0
ARC
  5
139D
100
AcDbEntity
  8
10000_FRONT
370
    50
390
0
  6
CONTINUOUS
 62
     7
100
AcDbCircle
 10
694.51001
 20
1888.84001
 30
0.0
 40
1.56
100
AcDbArc
 50
180.000135
 51
269.999798
  0
ARC
  5
139E
100
AcDbEntity
  8
10000_FRONT
370
    50
390
0
  6
CONTINUOUS
 62
     7
100
AcDbCircle
 10
694.51001
 20
1889.32001
 30
0.0
 40
1.56
100
AcDbArc
 50
90.000202
 51
179.999731
  0
ARC
  5
139F
100
AcDbEntity
  8
10000_FRONT
370
    50
390
0
  6
CONTINUOUS
 62
     7
100
AcDbCircle
 10
695.60001
 20
1749.85001
 30
0.0
 40
1.5
100
AcDbArc
 50
270.000233
 51
359.999067
  0
ARC
  5
13A0
100
AcDbEntity
  8
10000_FRONT
370
    50
390
0
  6
CONTINUOUS
 62
     7
100
AcDbCircle
 10
695.60001
 20
1898.15001
 30
0.0
 40
1.5
100
AcDbArc
 50
359.999767
 51
89.999767
  0
ARC
  5
13A1
100
AcDbEntity
  8
10000_FRONT
370
    50
390
0
  6
CONTINUOUS
 62
     7
100
AcDbCircle
 10
706.50001
 20
1669.50001
 30
0.0
 40
0.8
100
AcDbArc
 50
270.0
 51
90.0
  0
ARC
  5
13A2
100
AcDbEntity
  8
10000_FRONT
370
    50
390
0
  6
CONTINUOUS
 62
     7
100
AcDbCircle
 10
716.849017
 20
1799.90001
 30
0.0
 40
0.3
100
AcDbArc
 50
270.001391
 51
359.998834
  0
ARC
  5
13A3
100
AcDbEntity
  8
10000_FRONT
370
    50
390
0
  6
CONTINUOUS
 62
     7
100
AcDbCircle
 10
716.849017
 20
1808.20001
 30
0.0
 40
0.3
100
AcDbArc
 50
0.002331
 51
89.998609
  0
ARC
  5
13A4
100
AcDbEntity
  8
10000_FRONT
370
    50
390
0
  6
CONTINUOUS
 62
     7
100
AcDbCircle
 10
763.50001
 20
1661.50001
 30
0.0
 40
6.75
100
AcDbArc
 50
0.0
 51
180.0
  0
CIRCLE
  5
13A5
100
AcDbEntity
  8
10000_FRONT
370
    50
390
0
  6
CONTINUOUS
 62
     7
100
AcDbCircle
 10
765.50001
 20
2251.50001
 30
0.0
 40
6.75
  0
LINE
  5
13A6
100
AcDbEntity
  8
10100_FRONT_DIM
370
    13
390
0
  6
CONTINUOUS
 62
     7
100
AcDbLine
 10
781.04402
 20
1645.0
 30
0.0
 11
835.00002
 21
1645.0
 31
0.0
  0
LINE
  5
13A7
100
AcDbEntity
  8
10100_FRONT_DIM
370
    13
390
0
  6
CONTINUOUS
 62
     7
100
AcDbLine
 10
835.00002
 20
2268.0
 30
0.0
 11
781.04402
 21
2268.0
 31
0.0
  0
LINE
  5
13A8
100
AcDbEntity
  8
10100_FRONT_DIM
370
    13
390
0
  6
CONTINUOUS
 62
     7
100
AcDbLine
 10
830.00002
 20
1645.0
 30
0.0
 11
830.00002
 21
2268.0
 31
0.0
  0
TEXT
  5
13A9
100
AcDbEntity
  8
10100_FRONT_DIM
370
    13
390
0
  6
CONTINUOUS
 62
     7
100
AcDbText
 10
825.00002
 20
1943.166667
 30
0.0
 40
10.0
  1
623
 50
90.0
 72
     1
 11
825.00002
 21
1956.5
 31
0.0
100
AcDbText
  0
LINE
  5
13AA
100
AcDbEntity
  8
10100_FRONT_DIM
370
    13
390
0
  6
CONTINUOUS
 62
     7
100
AcDbLine
 10
276.0
 20
1645.0
 30
0.0
 11
222.0
 21
1645.0
 31
0.0
  0
LINE
  5
13AB
100
AcDbEntity
  8
10100_FRONT_DIM
370
    13
390
0
  6
CONTINUOUS
 62
     7
100
AcDbLine
 10
222.0
 20
2283.5
 30
0.0
 11
297.5
 21
2283.5
 31
0.0
  0
LINE
  5
13AC
100
AcDbEntity
  8
10100_FRONT_DIM
370
    13
390
0
  6
CONTINUOUS
 62
     7
100
AcDbLine
 10
227.0
 20
1645.0
 30
0.0
 11
227.0
 21
2283.5
 31
0.0
  0
TEXT
  5
13AD
100
AcDbEntity
  8
10100_FRONT_DIM
370
    13
390
0
  6
CONTINUOUS
 62
     7
100
AcDbText
 10
222.0
 20
1944.25
 30
0.0
 40
10.0
  1
638.5
 50
90.0
 72
     1
 11
222.0
 21
1964.25
 31
0.0
100
AcDbText
  0
LINE
  5
13AE
100
AcDbEntity
  8
10100_FRONT_DIM
370
    13
390
0
  6
CONTINUOUS
 62
     7
100
AcDbLine
 10
273.0
 20
1683.5
 30
0.0
 11
273.0
 21
1594.0
 31
0.0
  0
LINE
  5
13AF
100
AcDbEntity
  8
10100_FRONT_DIM
370
    13
390
0
  6
CONTINUOUS
 62
     7
100
AcDbLine
 10
784.0
 20
1594.0
 30
0.0
 11
784.0
 21
1683.5
 31
0.0
  0
LINE
  5
13B0
100
AcDbEntity
  8
10100_FRONT_DIM
370
    13
390
0
  6
CONTINUOUS
 62
     7
100
AcDbLine
 10
273.0
 20
1599.0
 30
0.0
 11
784.0
 21
1599.0
 31
0.0
  0
TEXT
  5
13B1
100
AcDbEntity
  8
10100_FRONT_DIM
370
    13
390
0
  6
CONTINUOUS
 62
     7
100
AcDbText
 10
518.5
 20
1604.0
 30
0.0
 40
10.0
  1
511
 72
     1
 11
528.5
 21
1604.0
 31
0.0
100
AcDbText
  0
SOLID
  5
13B2
100
AcDbEntity
  8
10100_FRONT_DIM
370
    13
390
0
  6
CONTINUOUS
 62
     7
100
AcDbTrace
 10
826.708708
 20
1670.0
 30
0.0
 11
830.00002
 21
1645.0
 31
0.0
 12
833.291332
 22
1670.0
 32
0.0
 13
830.00002
 23
1645.0
 33
0.0
  0
SOLID
  5
13B3
100
AcDbEntity
  8
10100_FRONT_DIM
370
    13
390
0
  6
CONTINUOUS
 62
     7
100
AcDbTrace
 10
833.291332
 20
2243.0
 30
0.0
 11
830.00002
 21
2268.0
 31
0.0
 12
826.708708
 22
2243.0
 32
0.0
 13
830.00002
 23
2268.0
 33
0.0
  0
SOLID
  5
13B4
100
AcDbEntity
  8
10100_FRONT_DIM
370
    13
390
0
  6
CONTINUOUS
 62
     7
100
AcDbTrace
 10
223.708688
 20
1670.0
 30
0.0
 11
227.0
 21
1645.0
 31
0.0
 12
230.291312
 22
1670.0
 32
0.0
 13
227.0
 23
1645.0
 33
0.0
  0
SOLID
  5
13B5
100
AcDbEntity
  8
10100_FRONT_DIM
370
    13
390
0
  6
CONTINUOUS
 62
     7
100
AcDbTrace
 10
230.291312
 20
2258.5
 30
0.0
 11
227.0
 21
2283.5
 31
0.0
 12
223.708688
 22
2258.5
 32
0.0
 13
227.0
 23
2283.5
 33
0.0
  0
SOLID
  5
13B6
100
AcDbEntity
  8
10100_FRONT_DIM
370
    13
390
0
  6
CONTINUOUS
 62
     7
100
AcDbTrace
 10
298.0
 20
1602.291312
 30
0.0
 11
273.0
 21
1599.0
 31
0.0
 12
298.0
 22
1595.708688
 32
0.0
 13
273.0
 23
1599.0
 33
0.0
  0
SOLID
  5
13B7
100
AcDbEntity
  8
10100_FRONT_DIM
370
    13
390
0
  6
CONTINUOUS
 62
     7
100
AcDbTrace
 10
759.0
 20
1595.708688
 30
0.0
 11
784.0
 21
1599.0
 31
0.0
 12
759.0
 22
1602.291312
 32
0.0
 13
784.0
 23
1599.0
 33
0.0
  0
LINE
  5
13B8
100
AcDbEntity
  8
11000_LEFT
370
    50
390
0
  6
CONTINUOUS
 62
     7
100
AcDbLine
 10
1307.324987
 20
2214.499995
 30
0.0
 11
1293.074987
 21
2228.50001
 31
0.0
  0
LINE
  5
13B9
100
AcDbEntity
  8
11000_LEFT
370
    50
390
0
  6
CONTINUOUS
 62
     7
100
AcDbLine
 10
1271.574987
 20
1703.50001
 30
0.0
 11
1262.560949
 21
1712.355906
 31
0.0
  0
LINE
  5
13BA
100
AcDbEntity
  8
11000_LEFT
370
    50
390
0
  6
CONTINUOUS
 62
     7
100
AcDbLine
 10
1328.62499
 20
1677.00001
 30
0.0
 11
1317.87499
 21
1683.200022
 31
0.0
  0
LINE
  5
13BB
100
AcDbEntity
  8
11000_LEFT
370
    50
390
0
  6
CONTINUOUS
 62
     7
100
AcDbLine
 10
1167.87499
 20
1711.799998
 30
0.0
 11
1157.12499
 21
1718.00001
 31
0.0
  0
LINE
  5
13BC
100
AcDbEntity
  8
11000_LEFT
370
    50
390
0
  6
CONTINUOUS
 62
     7
100
AcDbLine
 10
1275.624959
 20
2208.50001
 30
0.0
 11
1223.248617
 21
2231.50001
 31
0.0
  0
LINE
  5
13BD
100
AcDbEntity
  8
11000_LEFT
370
    50
390
0
  6
CONTINUOUS
 62
     7
100
AcDbLine
 10
1125.62499
 20
1645.00001
 30
0.0
 11
1127.62499
 21
1645.00001
 31
0.0
  0
LINE
  5
13BE
100
AcDbEntity
  8
11000_LEFT
370
    50
390
0
  6
CONTINUOUS
 62
     7
100
AcDbLine
 10
1277.324987
 20
1648.50001
 30
0.0
 11
1287.324987
 21
1648.50001
 31
0.0
  0
LINE
  5
13BF
100
AcDbEntity
  8
11000_LEFT
370
    50
390
0
  6
CONTINUOUS
 62
     7
100
AcDbLine
 10
1127.62499
 20
1652.00001
 30
0.0
 11
1152.62499
 21
1652.00001
 31
0.0
  0
LINE
  5
13C0
100
AcDbEntity
  8
11000_LEFT
370
    50
390
0
  6
CONTINUOUS
 62
     7
100
AcDbLine
 10
1125.62499
 20
1661.50001
 30
0.0
 11
1125.625325
 21
1661.50001
 31
0.0
  0
LINE
  5
13C1
100
AcDbEntity
  8
11000_LEFT
370
    50
390
0
  6
CONTINUOUS
 62
     7
100
AcDbLine
 10
1127.62499
 20
1664.00001
 30
0.0
 11
1152.62499
 21
1664.00001
 31
0.0
  0
LINE
  5
13C2
100
AcDbEntity
  8
11000_LEFT
370
    50
390
0
  6
CONTINUOUS
 62
     7
100
AcDbLine
 10
1173.87499
 20
1668.700022
 30
0.0
 11
1277.324987
 21
1668.700022
 31
0.0
  0
LINE
  5
13C3
100
AcDbEntity
  8
11000_LEFT
370
    50
390
0
  6
CONTINUOUS
 62
     7
100
AcDbLine
 10
1287.324911
 20
1668.700022
 30
0.0
 11
1294.37499
 21
1668.700022
 31
0.0
  0
LINE
  5
13C4
100
AcDbEntity
  8
11000_LEFT
370
    50
390
0
  6
CONTINUOUS
 62
     7
100
AcDbLine
 10
1287.324911
 20
1668.700022
 30
0.0
 11
1294.37499
 21
1668.700022
 31
0.0
  0
LINE
  5
13C5
100
AcDbEntity
  8
11000_LEFT
370
    50
390
0
  6
CONTINUOUS
 62
     7
100
AcDbLine
 10
1287.324987
 20
1668.700022
 30
0.0
 11
1311.87499
 21
1668.700022
 31
0.0
  0
LINE
  5
13C6
100
AcDbEntity
  8
11000_LEFT
370
    50
390
0
  6
CONTINUOUS
 62
     7
100
AcDbLine
 10
1287.324987
 20
1668.700022
 30
0.0
 11
1311.87499
 21
1668.700022
 31
0.0
  0
LINE
  5
13C7
100
AcDbEntity
  8
11000_LEFT
370
    50
390
0
  6
CONTINUOUS
 62
     7
100
AcDbLine
 10
1173.87499
 20
1670.299998
 30
0.0
 11
1277.324987
 21
1670.299998
 31
0.0
  0
LINE
  5
13C8
100
AcDbEntity
  8
11000_LEFT
370
    50
390
0
  6
CONTINUOUS
 62
     7
100
AcDbLine
 10
1287.324911
 20
1670.299998
 30
0.0
 11
1294.37499
 21
1670.299998
 31
0.0
  0
LINE
  5
13C9
100
AcDbEntity
  8
11000_LEFT
370
    50
390
0
  6
CONTINUOUS
 62
     7
100
AcDbLine
 10
1287.324911
 20
1670.299998
 30
0.0
 11
1294.37499
 21
1670.299998
 31
0.0
  0
LINE
  5
13CA
100
AcDbEntity
  8
11000_LEFT
370
    50
390
0
  6
CONTINUOUS
 62
     7
100
AcDbLine
 10
1287.324987
 20
1670.299998
 30
0.0
 11
1311.87499
 21
1670.299998
 31
0.0
  0
LINE
  5
13CB
100
AcDbEntity
  8
11000_LEFT
370
    50
390
0
  6
CONTINUOUS
 62
     7
100
AcDbLine
 10
1287.3523
 20
1670.299998
 30
0.0
 11
1311.87499
 21
1670.299998
 31
0.0
  0
LINE
  5
13CC
100
AcDbEntity
  8
11000_LEFT
370
    50
390
0
  6
CONTINUOUS
 62
     7
100
AcDbLine
 10
1287.330099
 20
1672.00001
 30
0.0
 11
1328.62499
 21
1672.00001
 31
0.0
  0
LINE
  5
13CD
100
AcDbEntity
  8
11000_LEFT
370
    50
390
0
  6
CONTINUOUS
 62
     7
100
AcDbLine
 10
1242.87499
 20
1672.00001
 30
0.0
 11
1277.324987
 21
1672.00001
 31
0.0
  0
LINE
  5
13CE
100
AcDbEntity
  8
11000_LEFT
370
    50
390
0
  6
CONTINUOUS
 62
     7
100
AcDbLine
 10
1157.12499
 20
1672.00001
 30
0.0
 11
1242.87499
 21
1672.00001
 31
0.0
  0
LINE
  5
13CF
100
AcDbEntity
  8
11000_LEFT
370
    50
390
0
  6
CONTINUOUS
 62
     7
100
AcDbLine
 10
1287.330129
 20
1677.00001
 30
0.0
 11
1328.62499
 21
1677.00001
 31
0.0
  0
LINE
  5
13D0
100
AcDbEntity
  8
11000_LEFT
370
    50
390
0
  6
CONTINUOUS
 62
     7
100
AcDbLine
 10
1242.87499
 20
1677.00001
 30
0.0
 11
1277.324987
 21
1677.00001
 31
0.0
  0
LINE
  5
13D1
100
AcDbEntity
  8
11000_LEFT
370
    50
390
0
  6
CONTINUOUS
 62
     7
100
AcDbLine
 10
1157.12499
 20
1677.00001
 30
0.0
 11
1242.87499
 21
1677.00001
 31
0.0
  0
LINE
  5
13D2
100
AcDbEntity
  8
11000_LEFT
370
    50
390
0
  6
CONTINUOUS
 62
     7
100
AcDbLine
 10
1127.62499
 20
1679.00001
 30
0.0
 11
1143.62499
 21
1679.00001
 31
0.0
  0
LINE
  5
13D3
100
AcDbEntity
  8
11000_LEFT
370
    50
390
0
  6
CONTINUOUS
 62
     7
100
AcDbLine
 10
1287.324972
 20
1683.200022
 30
0.0
 11
1317.87499
 21
1683.200022
 31
0.0
  0
LINE
  5
13D4
100
AcDbEntity
  8
11000_LEFT
370
    50
390
0
  6
CONTINUOUS
 62
     7
100
AcDbLine
 10
1242.87499
 20
1683.200022
 30
0.0
 11
1277.324987
 21
1683.200022
 31
0.0
  0
LINE
  5
13D5
100
AcDbEntity
  8
11000_LEFT
370
    50
390
0
  6
CONTINUOUS
 62
     7
100
AcDbLine
 10
1167.87499
 20
1683.200022
 30
0.0
 11
1242.87499
 21
1683.200022
 31
0.0
  0
LINE
  5
13D6
100
AcDbEntity
  8
11000_LEFT
370
    50
390
0
  6
CONTINUOUS
 62
     7
100
AcDbLine
 10
1125.62499
 20
1683.50001
 30
0.0
 11
1228.733678
 21
1683.50001
 31
0.0
  0
LINE
  5
13D7
100
AcDbEntity
  8
11000_LEFT
370
    50
390
0
  6
CONTINUOUS
 62
     7
100
AcDbLine
 10
1160.62499
 20
1690.50001
 30
0.0
 11
1220.62499
 21
1690.50001
 31
0.0
  0
LINE
  5
13D8
100
AcDbEntity
  8
11000_LEFT
370
    50
390
0
  6
CONTINUOUS
 62
     7
100
AcDbLine
 10
1274.824987
 20
1693.50001
 30
0.0
 11
1289.824987
 21
1693.50001
 31
0.0
  0
LINE
  5
13D9
100
AcDbEntity
  8
11000_LEFT
370
    50
390
0
  6
CONTINUOUS
 62
     7
100
AcDbLine
 10
1271.574987
 20
1703.50001
 30
0.0
 11
1293.074987
 21
1703.50001
 31
0.0
  0
LINE
  5
13DA
100
AcDbEntity
  8
11000_LEFT
370
    50
390
0
  6
CONTINUOUS
 62
     7
100
AcDbLine
 10
1301.560567
 20
1711.799998
 30
0.0
 11
1317.87499
 21
1711.799998
 31
0.0
  0
LINE
  5
13DB
100
AcDbEntity
  8
11000_LEFT
370
    50
390
0
  6
CONTINUOUS
 62
     7
100
AcDbLine
 10
1261.909276
 20
1711.799998
 30
0.0
 11
1263.126775
 21
1711.799998
 31
0.0
  0
LINE
  5
13DC
100
AcDbEntity
  8
11000_LEFT
370
    50
390
0
  6
CONTINUOUS
 62
     7
100
AcDbLine
 10
1167.87499
 20
1711.799998
 30
0.0
 11
1234.237852
 21
1711.799998
 31
0.0
  0
LINE
  5
13DD
100
AcDbEntity
  8
11000_LEFT
370
    50
390
0
  6
CONTINUOUS
 62
     7
100
AcDbLine
 10
1307.324987
 20
1718.00001
 30
0.0
 11
1328.62499
 21
1718.00001
 31
0.0
  0
LINE
  5
13DE
100
AcDbEntity
  8
11000_LEFT
370
    50
390
0
  6
CONTINUOUS
 62
     7
100
AcDbLine
 10
1157.12499
 20
1718.00001
 30
0.0
 11
1228.916463
 21
1718.00001
 31
0.0
  0
LINE
  5
13DF
100
AcDbEntity
  8
11000_LEFT
370
    50
390
0
  6
CONTINUOUS
 62
     7
100
AcDbLine
 10
1160.62499
 20
1720.50001
 30
0.0
 11
1220.62499
 21
1720.50001
 31
0.0
  0
LINE
  5
13E0
100
AcDbEntity
  8
11000_LEFT
370
    50
390
0
  6
CONTINUOUS
 62
     7
100
AcDbLine
 10
1307.324987
 20
1723.00001
 30
0.0
 11
1328.62499
 21
1723.00001
 31
0.0
  0
LINE
  5
13E1
100
AcDbEntity
  8
11000_LEFT
370
    50
390
0
  6
CONTINUOUS
 62
     7
100
AcDbLine
 10
1275.62499
 20
1723.50001
 30
0.0
 11
1374.62499
 21
1723.50001
 31
0.0
  0
LINE
  5
13E2
100
AcDbEntity
  8
11000_LEFT
370
    50
390
0
  6
CONTINUOUS
 62
     7
100
AcDbLine
 10
1378.424993
 20
1748.349986
 30
0.0
 11
1407.62499
 21
1748.349986
 31
0.0
  0
LINE
  5
13E3
100
AcDbEntity
  8
11000_LEFT
370
    50
390
0
  6
CONTINUOUS
 62
     7
100
AcDbLine
 10
1378.424993
 20
1749.849986
 30
0.0
 11
1407.62499
 21
1749.849986
 31
0.0
  0
LINE
  5
13E4
100
AcDbEntity
  8
11000_LEFT
370
    50
390
0
  6
CONTINUOUS
 62
     7
100
AcDbLine
 10
1374.625219
 20
1750.00001
 30
0.0
 11
1407.62499
 21
1750.00001
 31
0.0
  0
LINE
  5
13E5
100
AcDbEntity
  8
11000_LEFT
370
    50
390
0
  6
CONTINUOUS
 62
     7
100
AcDbLine
 10
1407.62499
 20
1797.650004
 30
0.0
 11
1415.62499
 21
1797.650004
 31
0.0
  0
LINE
  5
13E6
100
AcDbEntity
  8
11000_LEFT
370
    50
390
0
  6
CONTINUOUS
 62
     7
100
AcDbLine
 10
1407.62499
 20
1799.600016
 30
0.0
 11
1415.62499
 21
1799.600016
 31
0.0
  0
LINE
  5
13E7
100
AcDbEntity
  8
11000_LEFT
370
    50
390
0
  6
CONTINUOUS
 62
     7
100
AcDbLine
 10
1407.62499
 20
1799.900004
 30
0.0
 11
1415.62499
 21
1799.900004
 31
0.0
  0
LINE
  5
13E8
100
AcDbEntity
  8
11000_LEFT
370
    50
390
0
  6
CONTINUOUS
 62
     7
100
AcDbLine
 10
1407.62499
 20
1808.200022
 30
0.0
 11
1415.62499
 21
1808.200022
 31
0.0
  0
LINE
  5
13E9
100
AcDbEntity
  8
11000_LEFT
370
    50
390
0
  6
CONTINUOUS
 62
     7
100
AcDbLine
 10
1407.62499
 20
1808.50001
 30
0.0
 11
1415.62499
 21
1808.50001
 31
0.0
  0
LINE
  5
13EA
100
AcDbEntity
  8
11000_LEFT
370
    50
390
0
  6
CONTINUOUS
 62
     7
100
AcDbLine
 10
1407.62499
 20
1810.450022
 30
0.0
 11
1415.62499
 21
1810.450022
 31
0.0
  0
LINE
  5
13EB
100
AcDbEntity
  8
11000_LEFT
370
    50
390
0
  6
CONTINUOUS
 62
     7
100
AcDbLine
 10
1374.625219
 20
1898.00001
 30
0.0
 11
1407.62499
 21
1898.00001
 31
0.0
  0
LINE
  5
13EC
100
AcDbEntity
  8
11000_LEFT
370
    50
390
0
  6
CONTINUOUS
 62
     7
100
AcDbLine
 10
1378.424993
 20
1898.150004
 30
0.0
 11
1407.62499
 21
1898.150004
 31
0.0
  0
LINE
  5
13ED
100
AcDbEntity
  8
11000_LEFT
370
    50
390
0
  6
CONTINUOUS
 62
     7
100
AcDbLine
 10
1378.424993
 20
1899.650004
 30
0.0
 11
1407.62499
 21
1899.650004
 31
0.0
  0
LINE
  5
13EE
100
AcDbEntity
  8
11000_LEFT
370
    50
390
0
  6
CONTINUOUS
 62
     7
100
AcDbLine
 10
1275.624959
 20
2208.50001
 30
0.0
 11
1374.62499
 21
2208.50001
 31
0.0
  0
LINE
  5
13EF
100
AcDbEntity
  8
11000_LEFT
370
    50
390
0
  6
CONTINUOUS
 62
     7
100
AcDbLine
 10
1160.62499
 20
2211.50001
 30
0.0
 11
1220.62499
 21
2211.50001
 31
0.0
  0
LINE
  5
13F0
100
AcDbEntity
  8
11000_LEFT
370
    50
390
0
  6
CONTINUOUS
 62
     7
100
AcDbLine
 10
1160.62499
 20
2226.50001
 30
0.0
 11
1220.62499
 21
2226.50001
 31
0.0
  0
LINE
  5
13F1
100
AcDbEntity
  8
11000_LEFT
370
    50
390
0
  6
CONTINUOUS
 62
     7
100
AcDbLine
 10
1271.574987
 20
2228.50001
 30
0.0
 11
1293.074987
 21
2228.50001
 31
0.0
  0
LINE
  5
13F2
100
AcDbEntity
  8
11000_LEFT
370
    50
390
0
  6
CONTINUOUS
 62
     7
100
AcDbLine
 10
1125.62499
 20
2231.50001
 30
0.0
 11
1223.248617
 21
2231.50001
 31
0.0
  0
LINE
  5
13F3
100
AcDbEntity
  8
11000_LEFT
370
    50
390
0
  6
CONTINUOUS
 62
     7
100
AcDbLine
 10
1127.62499
 20
2234.00001
 30
0.0
 11
1143.62499
 21
2234.00001
 31
0.0
  0
LINE
  5
13F4
100
AcDbEntity
  8
11000_LEFT
370
    50
390
0
  6
CONTINUOUS
 62
     7
100
AcDbLine
 10
1274.824987
 20
2238.50001
 30
0.0
 11
1289.824987
 21
2238.50001
 31
0.0
  0
LINE
  5
13F5
100
AcDbEntity
  8
11000_LEFT
370
    50
390
0
  6
CONTINUOUS
 62
     7
100
AcDbLine
 10
1127.62499
 20
2249.00001
 30
0.0
 11
1152.62499
 21
2249.00001
 31
0.0
  0
LINE
  5
13F6
100
AcDbEntity
  8
11000_LEFT
370
    50
390
0
  6
CONTINUOUS
 62
     7
100
AcDbLine
 10
1127.62499
 20
2261.00001
 30
0.0
 11
1152.62499
 21
2261.00001
 31
0.0
  0
LINE
  5
13F7
100
AcDbEntity
  8
11000_LEFT
370
    50
390
0
  6
CONTINUOUS
 62
     7
100
AcDbLine
 10
1125.62499
 20
2268.00001
 30
0.0
 11
1127.62499
 21
2268.00001
 31
0.0
  0
LINE
  5
13F8
100
AcDbEntity
  8
11000_LEFT
370
    50
390
0
  6
CONTINUOUS
 62
     7
100
AcDbLine
 10
1277.324987
 20
2283.50001
 30
0.0
 11
1287.324987
 21
2283.50001
 31
0.0
  0
LINE
  5
13F9
100
AcDbEntity
  8
11000_LEFT
370
    50
390
0
  6
CONTINUOUS
 62
     7
100
AcDbLine
 10
1157.12499
 20
1677.00001
 30
0.0
 11
1167.87499
 21
1683.200022
 31
0.0
  0
LINE
  5
13FA
100
AcDbEntity
  8
11000_LEFT
370
    50
390
0
  6
CONTINUOUS
 62
     7
100
AcDbLine
 10
1317.87499
 20
1711.799998
 30
0.0
 11
1328.62499
 21
1718.00001
 31
0.0
  0
LINE
  5
13FB
100
AcDbEntity
  8
11000_LEFT
370
    50
390
0
  6
CONTINUOUS
 62
     7
100
AcDbLine
 10
1228.733678
 20
1683.50001
 30
0.0
 11
1275.62499
 21
1723.50001
 31
0.0
  0
LINE
  5
13FC
100
AcDbEntity
  8
11000_LEFT
370
    50
390
0
  6
CONTINUOUS
 62
     7
100
AcDbLine
 10
1293.074987
 20
1703.50001
 30
0.0
 11
1307.324987
 21
1717.50001
 31
0.0
  0
LINE
  5
13FD
100
AcDbEntity
  8
11000_LEFT
370
    50
390
0
  6
CONTINUOUS
 62
     7
100
AcDbLine
 10
1258.757238
 20
2215.907134
 30
0.0
 11
1271.574987
 21
2228.50001
 31
0.0
  0
LINE
  5
13FE
100
AcDbEntity
  8
11000_LEFT
370
    50
390
0
  6
CONTINUOUS
 62
     7
100
AcDbLine
 10
1125.62499
 20
1645.00001
 30
0.0
 11
1125.62499
 21
2268.00001
 31
0.0
  0
LINE
  5
13FF
100
AcDbEntity
  8
11000_LEFT
370
    50
390
0
  6
CONTINUOUS
 62
     7
100
AcDbLine
 10
1127.62499
 20
2234.00001
 30
0.0
 11
1127.62499
 21
2268.00001
 31
0.0
  0
LINE
  5
1400
100
AcDbEntity
  8
11000_LEFT
370
    50
390
0
  6
CONTINUOUS
 62
     7
100
AcDbLine
 10
1127.62499
 20
1645.00001
 30
0.0
 11
1127.62499
 21
1679.00001
 31
0.0
  0
LINE
  5
1401
100
AcDbEntity
  8
11000_LEFT
370
    50
390
0
  6
CONTINUOUS
 62
     7
100
AcDbLine
 10
1143.62499
 20
1679.00001
 30
0.0
 11
1143.62499
 21
1683.50001
 31
0.0
  0
LINE
  5
1402
100
AcDbEntity
  8
11000_LEFT
370
    50
390
0
  6
CONTINUOUS
 62
     7
100
AcDbLine
 10
1143.62499
 20
2231.50001
 30
0.0
 11
1143.62499
 21
2234.00001
 31
0.0
  0
LINE
  5
1403
100
AcDbEntity
  8
11000_LEFT
370
    50
390
0
  6
CONTINUOUS
 62
     7
100
AcDbLine
 10
1152.62499
 20
2249.00001
 30
0.0
 11
1152.62499
 21
2261.00001
 31
0.0
  0
LINE
  5
1404
100
AcDbEntity
  8
11000_LEFT
370
    50
390
0
  6
CONTINUOUS
 62
     7
100
AcDbLine
 10
1152.62499
 20
1652.00001
 30
0.0
 11
1152.62499
 21
1658.00001
 31
0.0
  0
LINE
  5
1405
100
AcDbEntity
  8
11000_LEFT
370
    50
390
0
  6
CONTINUOUS
 62
     7
100
AcDbLine
 10
1152.62499
 20
1658.00001
 30
0.0
 11
1152.62499
 21
1664.00001
 31
0.0
  0
LINE
  5
1406
100
AcDbEntity
  8
11000_LEFT
370
    50
390
0
  6
CONTINUOUS
 62
     7
100
AcDbLine
 10
1157.12499
 20
1718.00001
 30
0.0
 11
1157.12499
 21
1720.085886
 31
0.0
  0
LINE
  5
1407
100
AcDbEntity
  8
11000_LEFT
370
    50
390
0
  6
CONTINUOUS
 62
     7
100
AcDbLine
 10
1157.12499
 20
1672.00001
 30
0.0
 11
1157.12499
 21
1677.00001
 31
0.0
  0
LINE
  5
1408
100
AcDbEntity
  8
11000_LEFT
370
    50
390
0
  6
CONTINUOUS
 62
     7
100
AcDbLine
 10
1167.87499
 20
1683.200022
 30
0.0
 11
1167.87499
 21
1683.50001
 31
0.0
  0
LINE
  5
1409
100
AcDbEntity
  8
11000_LEFT
370
    50
390
0
  6
CONTINUOUS
 62
     7
100
AcDbLine
 10
1167.87499
 20
1690.50001
 30
0.0
 11
1167.87499
 21
1711.799998
 31
0.0
  0
LINE
  5
140A
100
AcDbEntity
  8
11000_LEFT
370
    50
390
0
  6
CONTINUOUS
 62
     7
100
AcDbLine
 10
1274.824987
 20
1693.50001
 30
0.0
 11
1274.824987
 21
1703.50001
 31
0.0
  0
LINE
  5
140B
100
AcDbEntity
  8
11000_LEFT
370
    50
390
0
  6
CONTINUOUS
 62
     7
100
AcDbLine
 10
1274.824987
 20
2228.50001
 30
0.0
 11
1274.824987
 21
2238.50001
 31
0.0
  0
LINE
  5
140C
100
AcDbEntity
  8
11000_LEFT
370
    50
390
0
  6
CONTINUOUS
 62
     7
100
AcDbLine
 10
1277.324987
 20
1648.50001
 30
0.0
 11
1277.324987
 21
1693.50001
 31
0.0
  0
LINE
  5
140D
100
AcDbEntity
  8
11000_LEFT
370
    50
390
0
  6
CONTINUOUS
 62
     7
100
AcDbLine
 10
1277.324987
 20
2238.50001
 30
0.0
 11
1277.324987
 21
2283.50001
 31
0.0
  0
LINE
  5
140E
100
AcDbEntity
  8
11000_LEFT
370
    50
390
0
  6
CONTINUOUS
 62
     7
100
AcDbLine
 10
1287.324987
 20
1648.50001
 30
0.0
 11
1287.324987
 21
1693.50001
 31
0.0
  0
LINE
  5
140F
100
AcDbEntity
  8
11000_LEFT
370
    50
390
0
  6
CONTINUOUS
 62
     7
100
AcDbLine
 10
1287.324987
 20
2238.50001
 30
0.0
 11
1287.324987
 21
2283.50001
 31
0.0
  0
LINE
  5
1410
100
AcDbEntity
  8
11000_LEFT
370
    50
390
0
  6
CONTINUOUS
 62
     7
100
AcDbLine
 10
1289.824987
 20
1693.50001
 30
0.0
 11
1289.824987
 21
1703.50001
 31
0.0
  0
LINE
  5
1411
100
AcDbEntity
  8
11000_LEFT
370
    50
390
0
  6
CONTINUOUS
 62
     7
100
AcDbLine
 10
1289.824987
 20
2228.50001
 30
0.0
 11
1289.824987
 21
2238.50001
 31
0.0
  0
LINE
  5
1412
100
AcDbEntity
  8
11000_LEFT
370
    50
390
0
  6
CONTINUOUS
 62
     7
100
AcDbLine
 10
1307.324987
 20
1717.50001
 30
0.0
 11
1307.324987
 21
1723.50001
 31
0.0
  0
LINE
  5
1413
100
AcDbEntity
  8
11000_LEFT
370
    50
390
0
  6
CONTINUOUS
 62
     7
100
AcDbLine
 10
1307.324987
 20
2208.50001
 30
0.0
 11
1307.324987
 21
2214.499995
 31
0.0
  0
LINE
  5
1414
100
AcDbEntity
  8
11000_LEFT
370
    50
390
0
  6
CONTINUOUS
 62
     7
100
AcDbLine
 10
1317.87499
 20
1683.200022
 30
0.0
 11
1317.87499
 21
1711.799998
 31
0.0
  0
LINE
  5
1415
100
AcDbEntity
  8
11000_LEFT
370
    50
390
0
  6
CONTINUOUS
 62
     7
100
AcDbLine
 10
1328.62499
 20
1672.00001
 30
0.0
 11
1328.62499
 21
1677.00001
 31
0.0
  0
LINE
  5
1416
100
AcDbEntity
  8
11000_LEFT
370
    50
390
0
  6
CONTINUOUS
 62
     7
100
AcDbLine
 10
1328.62499
 20
1718.00001
 30
0.0
 11
1328.62499
 21
1723.00001
 31
0.0
  0
LINE
  5
1417
100
AcDbEntity
  8
11000_LEFT
370
    50
390
0
  6
CONTINUOUS
 62
     7
100
AcDbLine
 10
1374.624929
 20
1723.50001
 30
0.0
 11
1374.624929
 21
2208.50001
 31
0.0
  0
LINE
  5
1418
100
AcDbEntity
  8
11000_LEFT
370
    50
390
0
  6
CONTINUOUS
 62
     7
100
AcDbLine
 10
1374.62499
 20
1723.50001
 30
0.0
 11
1374.62499
 21
2208.50001
 31
0.0
  0
LINE
  5
1419
100
AcDbEntity
  8
11000_LEFT
370
    50
390
0
  6
CONTINUOUS
 62
     7
100
AcDbLine
 10
1378.424993
 20
1748.349986
 30
0.0
 11
1378.424993
 21
1750.00001
 31
0.0
  0
LINE
  5
141A
100
AcDbEntity
  8
11000_LEFT
370
    50
390
0
  6
CONTINUOUS
 62
     7
100
AcDbLine
 10
1378.424993
 20
1898.00001
 30
0.0
 11
1378.424993
 21
1898.150004
 31
0.0
  0
LINE
  5
141B
100
AcDbEntity
  8
11000_LEFT
370
    50
390
0
  6
CONTINUOUS
 62
     7
100
AcDbLine
 10
1378.424993
 20
1898.150004
 30
0.0
 11
1378.424993
 21
1899.650004
 31
0.0
  0
LINE
  5
141C
100
AcDbEntity
  8
11000_LEFT
370
    50
390
0
  6
CONTINUOUS
 62
     7
100
AcDbLine
 10
1407.62499
 20
1748.349986
 30
0.0
 11
1407.62499
 21
1818.150004
 31
0.0
  0
LINE
  5
141D
100
AcDbEntity
  8
11000_LEFT
370
    50
390
0
  6
CONTINUOUS
 62
     7
100
AcDbLine
 10
1407.62499
 20
1898.150004
 30
0.0
 11
1407.62499
 21
1899.650004
 31
0.0
  0
LINE
  5
141E
100
AcDbEntity
  8
11000_LEFT
370
    50
390
0
  6
CONTINUOUS
 62
     7
100
AcDbLine
 10
1407.62499
 20
1898.00001
 30
0.0
 11
1407.62499
 21
1898.150004
 31
0.0
  0
LINE
  5
141F
100
AcDbEntity
  8
11000_LEFT
370
    50
390
0
  6
CONTINUOUS
 62
     7
100
AcDbLine
 10
1407.62499
 20
1873.850016
 30
0.0
 11
1407.62499
 21
1898.00001
 31
0.0
  0
LINE
  5
1420
100
AcDbEntity
  8
11000_LEFT
370
    50
390
0
  6
CONTINUOUS
 62
     7
100
AcDbLine
 10
1415.62499
 20
1797.650004
 30
0.0
 11
1415.62499
 21
1810.450022
 31
0.0
  0
ARC
  5
1421
100
AcDbEntity
  8
11000_LEFT
370
    50
390
0
  6
CONTINUOUS
 62
     7
100
AcDbCircle
 10
1160.62499
 20
1705.50001
 30
0.0
 40
15.0
100
AcDbArc
 50
90.0
 51
270.0
  0
ARC
  5
1422
100
AcDbEntity
  8
11000_LEFT
370
    50
390
0
  6
CONTINUOUS
 62
     7
100
AcDbCircle
 10
1160.62499
 20
2219.00001
 30
0.0
 40
7.5
100
AcDbArc
 50
90.0
 51
270.0
  0
ARC
  5
1423
100
AcDbEntity
  8
11000_LEFT
370
    50
390
0
  6
CONTINUOUS
 62
     7
100
AcDbCircle
 10
1173.87499
 20
1669.50001
 30
0.0
 40
0.8
100
AcDbArc
 50
90.0
 51
270.0
  0
ARC
  5
1424
100
AcDbEntity
  8
11000_LEFT
370
    50
390
0
  6
CONTINUOUS
 62
     7
100
AcDbCircle
 10
1220.62499
 20
1705.50001
 30
0.0
 40
15.0
100
AcDbArc
 50
270.0
 51
90.0
  0
ARC
  5
1425
100
AcDbEntity
  8
11000_LEFT
370
    50
390
0
  6
CONTINUOUS
 62
     7
100
AcDbCircle
 10
1220.62499
 20
2219.00001
 30
0.0
 40
7.5
100
AcDbArc
 50
270.0
 51
90.0
  0
ARC
  5
1426
100
AcDbEntity
  8
11000_LEFT
370
    50
390
0
  6
CONTINUOUS
 62
     7
100
AcDbCircle
 10
1225.37499
 20
1669.50001
 30
0.0
 40
0.8
100
AcDbArc
 50
269.586911
 51
270.0
  0
ARC
  5
1427
100
AcDbEntity
  8
11000_LEFT
370
    50
390
0
  6
CONTINUOUS
 62
     7
100
AcDbCircle
 10
1311.58137
 20
1846.00001
 30
0.0
 40
100.0
100
AcDbArc
 50
343.829296
 51
16.170704
  0
ARC
  5
1428
100
AcDbEntity
  8
11000_LEFT
370
    50
390
0
  6
CONTINUOUS
 62
     7
100
AcDbCircle
 10
1311.87499
 20
1669.50001
 30
0.0
 40
0.8
100
AcDbArc
 50
270.0
 51
90.0
  0
LINE
  5
1429
100
AcDbEntity
  8
11100_LEFT_DIM
370
    13
390
0
  6
CONTINUOUS
 62
     7
100
AcDbLine
 10
1125.625
 20
1645.0
 30
0.0
 11
1125.625
 21
1594.0
 31
0.0
  0
LINE
  5
142A
100
AcDbEntity
  8
11100_LEFT_DIM
370
    13
390
0
  6
CONTINUOUS
 62
     7
100
AcDbLine
 10
1127.625
 20
1594.0
 30
0.0
 11
1127.625
 21
1645.0
 31
0.0
  0
LINE
  5
142B
100
AcDbEntity
  8
11100_LEFT_DIM
370
    13
390
0
  6
CONTINUOUS
 62
     7
100
AcDbLine
 10
1075.0
 20
1599.0
 30
0.0
 11
1165.125
 21
1599.0
 31
0.0
  0
TEXT
  5
142C
100
AcDbEntity
  8
11100_LEFT_DIM
370
    13
390
0
  6
CONTINUOUS
 62
     7
100
AcDbText
 10
1078.229167
 20
1604.0
 30
0.0
 40
10.0
  1
2
 72
     1
 11
1081.5625
 21
1604.0
 31
0.0
100
AcDbText
  0
LINE
  5
142D
100
AcDbEntity
  8
11100_LEFT_DIM
370
    13
390
0
  6
CONTINUOUS
 62
     7
100
AcDbLine
 10
1125.625
 20
1645.0
 30
0.0
 11
1125.625
 21
1554.0
 31
0.0
  0
LINE
  5
142E
100
AcDbEntity
  8
11100_LEFT_DIM
370
    13
390
0
  6
CONTINUOUS
 62
     7
100
AcDbLine
 10
1415.625
 20
1554.0
 30
0.0
 11
1415.625
 21
1797.65
 31
0.0
  0
LINE
  5
142F
100
AcDbEntity
  8
11100_LEFT_DIM
370
    13
390
0
  6
CONTINUOUS
 62
     7
100
AcDbLine
 10
1125.625
 20
1559.0
 30
0.0
 11
1415.625
 21
1559.0
 31
0.0
  0
TEXT
  5
1430
100
AcDbEntity
  8
11100_LEFT_DIM
370
    13
390
0
  6
CONTINUOUS
 62
     7
100
AcDbText
 10
1258.125
 20
1564.0
 30
0.0
 40
10.0
  1
290
 72
     1
 11
1270.625
 21
1564.0
 31
0.0
100
AcDbText
  0
SOLID
  5
1431
100
AcDbEntity
  8
11100_LEFT_DIM
370
    13
390
0
  6
CONTINUOUS
 62
     7
100
AcDbTrace
 10
1100.625
 20
1595.708688
 30
0.0
 11
1125.625
 21
1599.0
 31
0.0
 12
1100.625
 22
1602.291312
 32
0.0
 13
1125.625
 23
1599.0
 33
0.0
  0
SOLID
  5
1432
100
AcDbEntity
  8
11100_LEFT_DIM
370
    13
390
0
  6
CONTINUOUS
 62
     7
100
AcDbTrace
 10
1152.625
 20
1602.291312
 30
0.0
 11
1127.625
 21
1599.0
 31
0.0
 12
1152.625
 22
1595.708688
 32
0.0
 13
1127.625
 23
1599.0
 33
0.0
  0
SOLID
  5
1433
100
AcDbEntity
  8
11100_LEFT_DIM
370
    13
390
0
  6
CONTINUOUS
 62
     7
100
AcDbTrace
 10
1150.625
 20
1562.291312
 30
0.0
 11
1125.625
 21
1559.0
 31
0.0
 12
1150.625
 22
1555.708688
 32
0.0
 13
1125.625
 23
1559.0
 33
0.0
  0
SOLID
  5
1434
100
AcDbEntity
  8
11100_LEFT_DIM
370
    13
390
0
  6
CONTINUOUS
 62
     7
100
AcDbTrace
 10
1390.625
 20
1555.708688
 30
0.0
 11
1415.625
 21
1559.0
 31
0.0
 12
1390.625
 22
1562.291312
 32
0.0
 13
1415.625
 23
1559.0
 33
0.0
  0
CIRCLE
  5
1435
100
AcDbEntity
  8
30000_DRILLING
370
    13
390
0
  6
DASHED
 62
     7
100
AcDbCircle
 10
2234.5
 20
2251.50001
 30
0.0
 40
6.75
  0
LINE
  5
1436
100
AcDbEntity
  8
30000_DRILLING
370
    13
390
0
  6
DASHED
 62
     7
100
AcDbLine
 10
2254.0
 20
2268.00001
 30
0.0
 11
1749.0
 21
2268.00001
 31
0.0
  0
LINE
  5
1437
100
AcDbEntity
  8
30000_DRILLING
370
    13
390
0
  6
DASHED
 62
     7
100
AcDbLine
 10
1749.0
 20
2268.00001
 30
0.0
 11
1749.0
 21
2231.50001
 31
0.0
  0
LINE
  5
1438
100
AcDbEntity
  8
30000_DRILLING
370
    13
390
0
  6
DASHED
 62
     7
100
AcDbLine
 10
1749.0
 20
2231.50001
 30
0.0
 11
1746.0
 21
2231.50001
 31
0.0
  0
LINE
  5
1439
100
AcDbEntity
  8
30000_DRILLING
370
    13
390
0
  6
DASHED
 62
     7
100
AcDbLine
 10
1746.0
 20
2231.50001
 30
0.0
 11
1746.0
 21
1683.50001
 31
0.0
  0
LINE
  5
143A
100
AcDbEntity
  8
30000_DRILLING
370
    13
390
0
  6
DASHED
 62
     7
100
AcDbLine
 10
1746.0
 20
1683.50001
 30
0.0
 11
1749.0
 21
1683.50001
 31
0.0
  0
LINE
  5
143B
100
AcDbEntity
  8
30000_DRILLING
370
    13
390
0
  6
DASHED
 62
     7
100
AcDbLine
 10
1749.0
 20
1683.50001
 30
0.0
 11
1749.0
 21
1645.00001
 31
0.0
  0
LINE
  5
143C
100
AcDbEntity
  8
30000_DRILLING
370
    13
390
0
  6
DASHED
 62
     7
100
AcDbLine
 10
1749.0
 20
1645.00001
 30
0.0
 11
1759.75
 21
1645.00001
 31
0.0
  0
LINE
  5
143D
100
AcDbEntity
  8
30000_DRILLING
370
    13
390
0
  6
DASHED
 62
     7
100
AcDbLine
 10
1759.75
 20
1645.00001
 30
0.0
 11
1759.75
 21
1661.50001
 31
0.0
  0
ARC
  5
143E
100
AcDbEntity
  8
30000_DRILLING
370
    13
390
0
  6
DASHED
 62
     7
100
AcDbCircle
 10
1766.5
 20
1661.50001
 30
0.0
 40
6.75
100
AcDbArc
 50
0.0
 51
180.0
  0
LINE
  5
143F
100
AcDbEntity
  8
30000_DRILLING
370
    13
390
0
  6
DASHED
 62
     7
100
AcDbLine
 10
1773.25
 20
1661.50001
 30
0.0
 11
1773.25
 21
1645.00001
 31
0.0
  0
LINE
  5
1440
100
AcDbEntity
  8
30000_DRILLING
370
    13
390
0
  6
DASHED
 62
     7
100
AcDbLine
 10
1773.25
 20
1645.00001
 30
0.0
 11
2229.75
 21
1645.00001
 31
0.0
  0
LINE
  5
1441
100
AcDbEntity
  8
30000_DRILLING
370
    13
390
0
  6
DASHED
 62
     7
100
AcDbLine
 10
2229.75
 20
1645.00001
 30
0.0
 11
2229.75
 21
1661.50001
 31
0.0
  0
ARC
  5
1442
100
AcDbEntity
  8
30000_DRILLING
370
    13
390
0
  6
DASHED
 62
     7
100
AcDbCircle
 10
2236.5
 20
1661.50001
 30
0.0
 40
6.75
100
AcDbArc
 50
0.0
 51
180.0
  0
LINE
  5
1443
100
AcDbEntity
  8
30000_DRILLING
370
    13
390
0
  6
DASHED
 62
     7
100
AcDbLine
 10
2243.25
 20
1661.50001
 30
0.0
 11
2243.25
 21
1645.00001
 31
0.0
  0
LINE
  5
1444
100
AcDbEntity
  8
30000_DRILLING
370
    13
390
0
  6
DASHED
 62
     7
100
AcDbLine
 10
2243.25
 20
1645.00001
 30
0.0
 11
2254.0
 21
1645.00001
 31
0.0
  0
LINE
  5
1445
100
AcDbEntity
  8
30000_DRILLING
370
    13
390
0
  6
DASHED
 62
     7
100
AcDbLine
 10
2254.0
 20
1645.00001
 30
0.0
 11
2254.0
 21
1683.50001
 31
0.0
  0
LINE
  5
1446
100
AcDbEntity
  8
30000_DRILLING
370
    13
390
0
  6
DASHED
 62
     7
100
AcDbLine
 10
2254.0
 20
1683.50001
 30
0.0
 11
2257.0
 21
1683.50001
 31
0.0
  0
LINE
  5
1447
100
AcDbEntity
  8
30000_DRILLING
370
    13
390
0
  6
DASHED
 62
     7
100
AcDbLine
 10
2257.0
 20
1683.50001
 30
0.0
 11
2257.0
 21
2231.50001
 31
0.0
  0
LINE
  5
1448
100
AcDbEntity
  8
30000_DRILLING
370
    13
390
0
  6
DASHED
 62
     7
100
AcDbLine
 10
2257.0
 20
2231.50001
 30
0.0
 11
2254.0
 21
2231.50001
 31
0.0
  0
LINE
  5
1449
100
AcDbEntity
  8
30000_DRILLING
370
    13
390
0
  6
DASHED
 62
     7
100
AcDbLine
 10
2254.0
 20
2231.50001
 30
0.0
 11
2254.0
 21
2268.00001
 31
0.0
  0
CIRCLE
  5
144A
100
AcDbEntity
  8
30000_DRILLING
370
    13
390
0
  6
DASHED
 62
     7
100
AcDbCircle
 10
1764.5
 20
2251.50001
 30
0.0
 40
6.75
  0
LINE
  5
144B
100
AcDbEntity
  8
30000_DRILLING
370
    13
390
0
  6
CONTINUOUS
 62
     7
100
AcDbLine
 10
1746.0
 20
2231.50001
 30
0.0
 11
1746.0
 21
2359.00001
 31
0.0
  0
LINE
  5
144C
100
AcDbEntity
  8
30000_DRILLING
370
    13
390
0
  6
CONTINUOUS
 62
     7
100
AcDbLine
 10
1764.5
 20
2359.00001
 30
0.0
 11
1764.5
 21
2251.00001
 31
0.0
  0
LINE
  5
144D
100
AcDbEntity
  8
30000_DRILLING
370
    13
390
0
  6
CONTINUOUS
 62
     7
100
AcDbLine
 10
1656.0
 20
2354.00001
 30
0.0
 11
1802.0
 21
2354.00001
 31
0.0
  0
TEXT
  5
144E
100
AcDbEntity
  8
30000_DRILLING
370
    13
390
0
  6
CONTINUOUS
 62
     7
100
AcDbText
 10
1668.916667
 20
2359.00001
 30
0.0
 40
10.0
  1
18.5
 72
     1
 11
1682.25
 21
2359.00001
 31
0.0
100
AcDbText
  0
LINE
  5
144F
100
AcDbEntity
  8
30000_DRILLING
370
    13
390
0
  6
CONTINUOUS
 62
     7
100
AcDbLine
 10
1764.5
 20
2268.00001
 30
0.0
 11
1764.5
 21
2319.00001
 31
0.0
  0
LINE
  5
1450
100
AcDbEntity
  8
30000_DRILLING
370
    13
390
0
  6
CONTINUOUS
 62
     7
100
AcDbLine
 10
2234.5
 20
2319.00001
 30
0.0
 11
2234.5
 21
2251.00001
 31
0.0
  0
LINE
  5
1451
100
AcDbEntity
  8
30000_DRILLING
370
    13
390
0
  6
CONTINUOUS
 62
     7
100
AcDbLine
 10
1764.5
 20
2314.00001
 30
0.0
 11
2234.5
 21
2314.00001
 31
0.0
  0
TEXT
  5
1452
100
AcDbEntity
  8
30000_DRILLING
370
    13
390
0
  6
CONTINUOUS
 62
     7
100
AcDbText
 10
1987.0
 20
2319.00001
 30
0.0
 40
10.0
  1
470
 72
     1
 11
1999.5
 21
2319.00001
 31
0.0
100
AcDbText
  0
LINE
  5
1453
100
AcDbEntity
  8
30000_DRILLING
370
    13
390
0
  6
CONTINUOUS
 62
     7
100
AcDbLine
 10
1768.5
 20
2251.00001
 30
0.0
 11
1695.0
 21
2251.00001
 31
0.0
  0
LINE
  5
1454
100
AcDbEntity
  8
30000_DRILLING
370
    13
390
0
  6
CONTINUOUS
 62
     7
100
AcDbLine
 10
1695.0
 20
2268.00001
 30
0.0
 11
1748.0
 21
2268.00001
 31
0.0
  0
LINE
  5
1455
100
AcDbEntity
  8
30000_DRILLING
370
    13
390
0
  6
CONTINUOUS
 62
     7
100
AcDbLine
 10
1700.0
 20
2305.50001
 30
0.0
 11
1700.0
 21
2213.50001
 31
0.0
  0
TEXT
  5
1456
100
AcDbEntity
  8
30000_DRILLING
370
    13
390
0
  6
CONTINUOUS
 62
     7
100
AcDbText
 10
1695.0
 20
2252.833343
 30
0.0
 40
10.0
  1
17
 50
90.0
 72
     1
 11
1695.0
 21
2259.50001
 31
0.0
100
AcDbText
  0
LINE
  5
1457
100
AcDbEntity
  8
30000_DRILLING
370
    13
390
0
  6
CONTINUOUS
 62
     7
100
AcDbLine
 10
2234.5
 20
1661.50001
 30
0.0
 11
2308.0
 21
1661.50001
 31
0.0
  0
LINE
  5
1458
100
AcDbEntity
  8
30000_DRILLING
370
    13
390
0
  6
CONTINUOUS
 62
     7
100
AcDbLine
 10
2308.0
 20
2251.50001
 30
0.0
 11
2234.5
 21
2251.50001
 31
0.0
  0
LINE
  5
1459
100
AcDbEntity
  8
30000_DRILLING
370
    13
390
0
  6
CONTINUOUS
 62
     7
100
AcDbLine
 10
2303.0
 20
1661.50001
 30
0.0
 11
2303.0
 21
2251.50001
 31
0.0
  0
TEXT
  5
145A
100
AcDbEntity
  8
30000_DRILLING
370
    13
390
0
  6
CONTINUOUS
 62
     7
100
AcDbText
 10
2298.0
 20
1944.00001
 30
0.0
 40
10.0
  1
590
 50
90.0
 72
     1
 11
2298.0
 21
1956.50001
 31
0.0
100
AcDbText
  0
LINE
  5
145B
100
AcDbEntity
  8
30000_DRILLING
370
    13
390
0
  6
CONTINUOUS
 62
     7
100
AcDbLine
 10
2257.0
 20
1645.00001
 30
0.0
 11
2308.0
 21
1645.00001
 31
0.0
  0
LINE
  5
145C
100
AcDbEntity
  8
30000_DRILLING
370
    13
390
0
  6
CONTINUOUS
 62
     7
100
AcDbLine
 10
2308.0
 20
1661.50001
 30
0.0
 11
2234.5
 21
1661.50001
 31
0.0
  0
LINE
  5
145D
100
AcDbEntity
  8
30000_DRILLING
370
    13
390
0
  6
CONTINUOUS
 62
     7
100
AcDbLine
 10
2303.0
 20
1555.00001
 30
0.0
 11
2303.0
 21
1699.00001
 31
0.0
  0
TEXT
  5
145E
100
AcDbEntity
  8
30000_DRILLING
370
    13
390
0
  6
CONTINUOUS
 62
     7
100
AcDbText
 10
2298.0
 20
1567.916677
 30
0.0
 40
10.0
  1
16.5
 50
90.0
 72
     1
 11
2298.0
 21
1581.25001
 31
0.0
100
AcDbText
  0
LINE
  5
145F
100
AcDbEntity
  8
30000_DRILLING
370
    13
390
0
  6
CONTINUOUS
 62
     7
100
AcDbLine
 10
2238.5
 20
2251.00001
 30
0.0
 11
2213.5
 21
2226.00001
 31
0.0
  0
TEXT
  5
1460
100
AcDbEntity
  8
30000_DRILLING
370
    13
390
0
  6
CONTINUOUS
 62
     7
100
AcDbText
 10
2213.5
 20
2208.50001
 30
0.0
 40
10.0
  1
13.5
100
AcDbText
  0
CIRCLE
  5
1461
100
AcDbEntity
  8
30000_DRILLING
370
    13
390
0
  6
CONTINUOUS
 62
     7
100
AcDbCircle
 10
2206.5
 20
2209.37501
 30
0.0
 40
4.375
  0
LINE
  5
1462
100
AcDbEntity
  8
30000_DRILLING
370
    13
390
0
  6
CONTINUOUS
 62
     7
100
AcDbLine
 10
2202.125
 20
2205.00001
 30
0.0
 11
2210.875
 21
2213.75001
 31
0.0
  0
LINE
  5
1463
100
AcDbEntity
  8
30000_DRILLING
370
    13
390
0
  6
CONTINUOUS
 62
     7
100
AcDbLine
 10
2238.5
 20
1661.50001
 30
0.0
 11
2213.5
 21
1686.50001
 31
0.0
  0
TEXT
  5
1464
100
AcDbEntity
  8
30000_DRILLING
370
    13
390
0
  6
CONTINUOUS
 62
     7
100
AcDbText
 10
2213.5
 20
1686.50001
 30
0.0
 40
10.0
  1
13.5
100
AcDbText
  0
CIRCLE
  5
1465
100
AcDbEntity
  8
30000_DRILLING
370
    13
390
0
  6
CONTINUOUS
 62
     7
100
AcDbCircle
 10
2206.5
 20
1687.37501
 30
0.0
 40
4.375
  0
LINE
  5
1466
100
AcDbEntity
  8
30000_DRILLING
370
    13
390
0
  6
CONTINUOUS
 62
     7
100
AcDbLine
 10
2202.125
 20
1683.00001
 30
0.0
 11
2210.875
 21
1691.75001
 31
0.0
  0
LINE
  5
1467
100
AcDbEntity
  8
30000_DRILLING
370
    13
390
0
  6
CONTINUOUS
 62
     7
100
AcDbLine
 10
1746.0
 20
1683.50001
 30
0.0
 11
1746.0
 21
1594.00001
 31
0.0
  0
LINE
  5
1468
100
AcDbEntity
  8
30000_DRILLING
370
    13
390
0
  6
CONTINUOUS
 62
     7
100
AcDbLine
 10
1766.5
 20
1594.00001
 30
0.0
 11
1766.5
 21
1661.50001
 31
0.0
  0
LINE
  5
1469
100
AcDbEntity
  8
30000_DRILLING
370
    13
390
0
  6
CONTINUOUS
 62
     7
100
AcDbLine
 10
1856.5
 20
1599.00001
 30
0.0
 11
1708.5
 21
1599.00001
 31
0.0
  0
TEXT
  5
146A
100
AcDbEntity
  8
30000_DRILLING
370
    13
390
0
  6
CONTINUOUS
 62
     7
100
AcDbText
 10
1816.083333
 20
1604.00001
 30
0.0
 40
10.0
  1
20.5
 72
     1
 11
1830.25
 21
1604.00001
 31
0.0
100
AcDbText
  0
LINE
  5
146B
100
AcDbEntity
  8
30000_DRILLING
370
    13
390
0
  6
CONTINUOUS
 62
     7
100
AcDbLine
 10
1766.5
 20
1661.50001
 30
0.0
 11
1766.5
 21
1594.00001
 31
0.0
  0
LINE
  5
146C
100
AcDbEntity
  8
30000_DRILLING
370
    13
390
0
  6
CONTINUOUS
 62
     7
100
AcDbLine
 10
2236.5
 20
1594.00001
 30
0.0
 11
2236.5
 21
1661.50001
 31
0.0
  0
LINE
  5
146D
100
AcDbEntity
  8
30000_DRILLING
370
    13
390
0
  6
CONTINUOUS
 62
     7
100
AcDbLine
 10
1766.5
 20
1599.00001
 30
0.0
 11
2236.5
 21
1599.00001
 31
0.0
  0
TEXT
  5
146E
100
AcDbEntity
  8
30000_DRILLING
370
    13
390
0
  6
CONTINUOUS
 62
     7
100
AcDbText
 10
1989.0
 20
1604.00001
 30
0.0
 40
10.0
  1
470
 72
     1
 11
2001.5
 21
1604.00001
 31
0.0
100
AcDbText
  0
SOLID
  5
146F
100
AcDbEntity
  8
30000_DRILLING
370
    13
390
0
  6
CONTINUOUS
 62
     7
100
AcDbTrace
 10
1721.0
 20
2350.708698
 30
0.0
 11
1746.0
 21
2354.00001
 31
0.0
 12
1721.0
 22
2357.291322
 32
0.0
 13
1746.0
 23
2354.00001
 33
0.0
  0
SOLID
  5
1470
100
AcDbEntity
  8
30000_DRILLING
370
    13
390
0
  6
CONTINUOUS
 62
     7
100
AcDbTrace
 10
1789.5
 20
2357.291322
 30
0.0
 11
1764.5
 21
2354.00001
 31
0.0
 12
1789.5
 22
2350.708698
 32
0.0
 13
1764.5
 23
2354.00001
 33
0.0
  0
SOLID
  5
1471
100
AcDbEntity
  8
30000_DRILLING
370
    13
390
0
  6
CONTINUOUS
 62
     7
100
AcDbTrace
 10
1789.5
 20
2317.291322
 30
0.0
 11
1764.5
 21
2314.00001
 31
0.0
 12
1789.5
 22
2310.708698
 32
0.0
 13
1764.5
 23
2314.00001
 33
0.0
  0
SOLID
  5
1472
100
AcDbEntity
  8
30000_DRILLING
370
    13
390
0
  6
CONTINUOUS
 62
     7
100
AcDbTrace
 10
2209.5
 20
2310.708698
 30
0.0
 11
2234.5
 21
2314.00001
 31
0.0
 12
2209.5
 22
2317.291322
 32
0.0
 13
2234.5
 23
2314.00001
 33
0.0
  0
SOLID
  5
1473
100
AcDbEntity
  8
30000_DRILLING
370
    13
390
0
  6
CONTINUOUS
 62
     7
100
AcDbTrace
 10
1703.291312
 20
2226.00001
 30
0.0
 11
1700.0
 21
2251.00001
 31
0.0
 12
1696.708688
 22
2226.00001
 32
0.0
 13
1700.0
 23
2251.00001
 33
0.0
  0
SOLID
  5
1474
100
AcDbEntity
  8
30000_DRILLING
370
    13
390
0
  6
CONTINUOUS
 62
     7
100
AcDbTrace
 10
1696.708688
 20
2293.00001
 30
0.0
 11
1700.0
 21
2268.00001
 31
0.0
 12
1703.291312
 22
2293.00001
 32
0.0
 13
1700.0
 23
2268.00001
 33
0.0
  0
SOLID
  5
1475
100
AcDbEntity
  8
30000_DRILLING
370
    13
390
0
  6
CONTINUOUS
 62
     7
100
AcDbTrace
 10
2299.708688
 20
1686.50001
 30
0.0
 11
2303.0
 21
1661.50001
 31
0.0
 12
2306.291312
 22
1686.50001
 32
0.0
 13
2303.0
 23
1661.50001
 33
0.0
  0
SOLID
  5
1476
100
AcDbEntity
  8
30000_DRILLING
370
    13
390
0
  6
CONTINUOUS
 62
     7
100
AcDbTrace
 10
2306.291312
 20
2226.50001
 30
0.0
 11
2303.0
 21
2251.50001
 31
0.0
 12
2299.708688
 22
2226.50001
 32
0.0
 13
2303.0
 23
2251.50001
 33
0.0
  0
SOLID
  5
1477
100
AcDbEntity
  8
30000_DRILLING
370
    13
390
0
  6
CONTINUOUS
 62
     7
100
AcDbTrace
 10
2306.291312
 20
1620.00001
 30
0.0
 11
2303.0
 21
1645.00001
 31
0.0
 12
2299.708688
 22
1620.00001
 32
0.0
 13
2303.0
 23
1645.00001
 33
0.0
  0
LINE
  5
1478
100
AcDbEntity
  8
30000_DRILLING
370
    13
390
0
  6
CONTINUOUS
 62
     7
100
AcDbLine
 10
2306.291312
 20
1686.50001
 30
0.0
 11
2299.708688
 21
1686.50001
 31
0.0
  0
LINE
  5
1479
100
AcDbEntity
  8
30000_DRILLING
370
    13
390
0
  6
CONTINUOUS
 62
     7
100
AcDbLine
 10
2299.708688
 20
1686.50001
 30
0.0
 11
2303.0
 21
1661.50001
 31
0.0
  0
LINE
  5
147A
100
AcDbEntity
  8
30000_DRILLING
370
    13
390
0
  6
CONTINUOUS
 62
     7
100
AcDbLine
 10
2306.291312
 20
1686.50001
 30
0.0
 11
2303.0
 21
1661.50001
 31
0.0
  0
SOLID
  5
147B
100
AcDbEntity
  8
30000_DRILLING
370
    13
390
0
  6
CONTINUOUS
 62
     7
100
AcDbTrace
 10
1721.0
 20
1595.708698
 30
0.0
 11
1746.0
 21
1599.00001
 31
0.0
 12
1721.0
 22
1602.291322
 32
0.0
 13
1746.0
 23
1599.00001
 33
0.0
  0
SOLID
  5
147C
100
AcDbEntity
  8
30000_DRILLING
370
    13
390
0
  6
CONTINUOUS
 62
     7
100
AcDbTrace
 10
1791.5
 20
1602.291322
 30
0.0
 11
1766.5
 21
1599.00001
 31
0.0
 12
1791.5
 22
1595.708698
 32
0.0
 13
1766.5
 23
1599.00001
 33
0.0
  0
LINE
  5
147D
100
AcDbEntity
  8
30000_DRILLING
370
    13
390
0
  6
CONTINUOUS
 62
     7
100
AcDbLine
 10
1791.5
 20
1595.708698
 30
0.0
 11
1791.5
 21
1602.291322
 31
0.0
  0
LINE
  5
147E
100
AcDbEntity
  8
30000_DRILLING
370
    13
390
0
  6
CONTINUOUS
 62
     7
100
AcDbLine
 10
1791.5
 20
1602.291322
 30
0.0
 11
1766.5
 21
1599.00001
 31
0.0
  0
LINE
  5
147F
100
AcDbEntity
  8
30000_DRILLING
370
    13
390
0
  6
CONTINUOUS
 62
     7
100
AcDbLine
 10
1791.5
 20
1595.708698
 30
0.0
 11
1766.5
 21
1599.00001
 31
0.0
  0
SOLID
  5
1480
100
AcDbEntity
  8
30000_DRILLING
370
    13
390
0
  6
CONTINUOUS
 62
     7
100
AcDbTrace
 10
2211.5
 20
1595.708698
 30
0.0
 11
2236.5
 21
1599.00001
 31
0.0
 12
2211.5
 22
1602.291322
 32
0.0
 13
2236.5
 23
1599.00001
 33
0.0
  0
LINE
  5
1481
100
AcDbEntity
  8
90000_FRAME
370
    13
  6
CONTINUOUS
 62
     7
100
AcDbLine
 10
59.999589
 20
59.999718
 30
0.0
 11
59.999589
 21
3503.999718
 31
0.0
  0
LINE
  5
1482
100
AcDbEntity
  8
91000_TIP
370
    13
  6
CONTINUOUS
 62
     7
100
AcDbLine
 10
436.553119
 20
254.520809
 30
0.0
 11
556.553117
 21
284.520809
 31
0.0
  0
LINE
  5
1483
100
AcDbEntity
  8
91000_TIP
370
    13
  6
CONTINUOUS
 62
     7
100
AcDbLine
 10
421.198994
 20
224.52081
 30
0.0
 11
704.422865
 21
224.52081
 31
0.0
  0
LINE
  5
1484
100
AcDbEntity
  8
91000_TIP
370
    13
  6
CONTINUOUS
 62
     7
100
AcDbLine
 10
436.553119
 20
194.52081
 30
0.0
 11
556.553117
 21
164.520811
 31
0.0
  0
LINE
  5
1485
100
AcDbEntity
  8
91000_TIP
370
    13
  6
CONTINUOUS
 62
     7
100
AcDbLine
 10
436.553119
 20
254.520809
 30
0.0
 11
436.553119
 21
194.52081
 31
0.0
  0
LINE
  5
1486
100
AcDbEntity
  8
91000_TIP
370
    13
  6
CONTINUOUS
 62
     7
100
AcDbLine
 10
556.553117
 20
284.520809
 30
0.0
 11
556.553117
 21
164.520811
 31
0.0
  0
LINE
  5
1487
100
AcDbEntity
  8
91000_TIP
370
    13
  6
CONTINUOUS
 62
     7
100
AcDbLine
 10
634.553115
 20
155.863035
 30
0.0
 11
634.553115
 21
291.263667
 31
0.0
  0
CIRCLE
  5
1488
100
AcDbEntity
  8
91000_TIP
370
    13
  6
CONTINUOUS
 62
     7
100
AcDbCircle
 10
634.553115
 20
224.52081
 30
0.0
 40
59.999999
  0
CIRCLE
  5
1489
100
AcDbEntity
  8
91000_TIP
370
    13
  6
CONTINUOUS
 62
     7
100
AcDbCircle
 10
634.553115
 20
224.52081
 30
0.0
 40
29.999999
  0
TEXT
  5
148A
100
AcDbEntity
  8
90000_FRAME
370
    13
  6
CONTINUOUS
 62
     7
100
AcDbText
 10
786.714076
 20
357.332167
 30
0.0
 40
26.4
  1
All dimensions are in millimeters (mm)
 41
0.961374
100
AcDbText
  0
TEXT
  5
148B
100
AcDbEntity
  8
90000_FRAME
370
    13
  6
CONTINUOUS
 62
     7
100
AcDbText
 10
786.714076
 20
394.880436
 30
0.0
 40
26.4
  1
Alle Bemassungswerte sind in Millimeter (mm) angegeben.
 41
0.825144
100
AcDbText
  0
LINE
  5
148C
100
AcDbEntity
  8
90000_FRAME
370
    13
  6
CONTINUOUS
 62
     7
100
AcDbLine
 10
2459.999589
 20
59.999718
 30
0.0
 11
2459.999589
 21
3503.999718
 31
0.0
  0
LINE
  5
148D
100
AcDbEntity
  8
90000_FRAME
370
    13
  6
CONTINUOUS
 62
     7
100
AcDbLine
 10
2459.999589
 20
59.999718
 30
0.0
 11
59.999589
 21
59.999718
 31
0.0
  0
TEXT
  5
148E
100
AcDbEntity
  8
90000_FRAME
370
    13
  6
CONTINUOUS
 62
     7
100
AcDbText
 10
1397.376588
 20
272.437418
 30
0.0
 40
36.0
  1
3RW445.-2BC..
 41
0.784213
100
AcDbText
  0
TEXT
  5
148F
100
AcDbEntity
  8
90000_FRAME
370
    13
  6
CONTINUOUS
 62
     7
100
AcDbText
 10
1897.919589
 20
142.799718
 30
0.0
 40
26.4
  1
Massstab/Scale: 1:1
 41
0.9
100
AcDbText
  0
TEXT
  5
1490
100
AcDbEntity
  8
90000_FRAME
370
    13
  6
CONTINUOUS
 62
     7
100
AcDbText
 10
1395.550726
 20
142.799718
 30
0.0
 40
26.4
  1
Format/Size: DIN A4
 41
0.803258
100
AcDbText
  0
LINE
  5
1491
100
AcDbEntity
  8
90000_FRAME
370
    13
  6
CONTINUOUS
 62
     7
100
AcDbLine
 10
2399.999589
 20
119.999718
 30
0.0
 11
2399.999589
 21
335.999718
 31
0.0
  0
LINE
  5
1492
100
AcDbEntity
  8
90000_FRAME
370
    13
  6
CONTINUOUS
 62
     7
100
AcDbLine
 10
1889.999589
 20
119.999718
 30
0.0
 11
1889.999589
 21
191.999718
 31
0.0
  0
LINE
  5
1493
100
AcDbEntity
  8
90000_FRAME
370
    13
  6
CONTINUOUS
 62
     7
100
AcDbLine
 10
1379.999589
 20
119.999718
 30
0.0
 11
1379.999589
 21
335.999718
 31
0.0
  0
LINE
  5
1494
100
AcDbEntity
  8
90000_FRAME
370
    13
  6
CONTINUOUS
 62
     7
100
AcDbLine
 10
779.999589
 20
335.999718
 30
0.0
 11
2399.999589
 21
335.999718
 31
0.0
  0
LINE
  5
1495
100
AcDbEntity
  8
90000_FRAME
370
    13
  6
CONTINUOUS
 62
     7
100
AcDbLine
 10
1379.999589
 20
191.999718
 30
0.0
 11
2399.999589
 21
191.999718
 31
0.0
  0
LINE
  5
1496
100
AcDbEntity
  8
90000_FRAME
370
    13
  6
CONTINUOUS
 62
     7
100
AcDbLine
 10
779.999589
 20
119.999718
 30
0.0
 11
779.999589
 21
335.999718
 31
0.0
  0
LINE
  5
1497
100
AcDbEntity
  8
90000_FRAME
370
    13
  6
CONTINUOUS
 62
     7
100
AcDbLine
 10
779.999589
 20
119.999718
 30
0.0
 11
2399.999589
 21
119.999718
 31
0.0
  0
LINE
  5
1498
100
AcDbEntity
  8
90000_FRAME
370
    13
  6
CONTINUOUS
 62
     7
100
AcDbLine
 10
950.233995
 20
256.974292
 30
0.0
 11
950.233995
 21
199.935063
 31
0.0
  0
LINE
  5
1499
100
AcDbEntity
  8
90000_FRAME
370
    13
  6
CONTINUOUS
 62
     7
100
AcDbLine
 10
967.345764
 20
256.974292
 30
0.0
 11
967.345764
 21
199.935063
 31
0.0
  0
LINE
  5
149A
100
AcDbEntity
  8
90000_FRAME
370
    13
  6
CONTINUOUS
 62
     7
100
AcDbLine
 10
950.233995
 20
199.935063
 30
0.0
 11
967.345764
 21
199.935063
 31
0.0
  0
LINE
  5
149B
100
AcDbEntity
  8
90000_FRAME
370
    13
  6
CONTINUOUS
 62
     7
100
AcDbLine
 10
950.233995
 20
256.974292
 30
0.0
 11
967.345764
 21
256.974292
 31
0.0
  0
LINE
  5
149C
100
AcDbEntity
  8
90000_FRAME
370
    13
  6
CONTINUOUS
 62
     7
100
AcDbLine
 10
980.464787
 20
256.974292
 30
0.0
 11
980.464787
 21
199.935063
 31
0.0
  0
LINE
  5
149D
100
AcDbEntity
  8
90000_FRAME
370
    13
  6
CONTINUOUS
 62
     7
100
AcDbLine
 10
980.464787
 20
199.935063
 30
0.0
 11
1023.244208
 21
199.935063
 31
0.0
  0
LINE
  5
149E
100
AcDbEntity
  8
90000_FRAME
370
    13
  6
CONTINUOUS
 62
     7
100
AcDbLine
 10
1023.244208
 20
210.772517
 30
0.0
 11
997.006163
 21
210.772517
 31
0.0
  0
LINE
  5
149F
100
AcDbEntity
  8
90000_FRAME
370
    13
  6
CONTINUOUS
 62
     7
100
AcDbLine
 10
1023.244208
 20
210.772517
 30
0.0
 11
1023.244208
 21
199.935063
 31
0.0
  0
LINE
  5
14A0
100
AcDbEntity
  8
90000_FRAME
370
    13
  6
CONTINUOUS
 62
     7
100
AcDbLine
 10
1022.673816
 20
256.974292
 30
0.0
 11
980.464787
 21
256.974292
 31
0.0
  0
LINE
  5
14A1
100
AcDbEntity
  8
90000_FRAME
370
    13
  6
CONTINUOUS
 62
     7
100
AcDbLine
 10
1022.673816
 20
246.422035
 30
0.0
 11
997.006163
 21
246.422035
 31
0.0
  0
LINE
  5
14A2
100
AcDbEntity
  8
90000_FRAME
370
    13
  6
CONTINUOUS
 62
     7
100
AcDbLine
 10
1022.673816
 20
256.974292
 30
0.0
 11
1022.673816
 21
246.422035
 31
0.0
  0
LINE
  5
14A3
100
AcDbEntity
  8
90000_FRAME
370
    13
  6
CONTINUOUS
 62
     7
100
AcDbLine
 10
1019.251462
 20
224.176736
 30
0.0
 11
997.006163
 21
224.176736
 31
0.0
  0
LINE
  5
14A4
100
AcDbEntity
  8
90000_FRAME
370
    13
  6
CONTINUOUS
 62
     7
100
AcDbLine
 10
1019.251462
 20
233.588209
 30
0.0
 11
1019.251462
 21
224.176736
 31
0.0
  0
LINE
  5
14A5
100
AcDbEntity
  8
90000_FRAME
370
    13
  6
CONTINUOUS
 62
     7
100
AcDbLine
 10
1019.251462
 20
233.588209
 30
0.0
 11
997.006163
 21
233.588209
 31
0.0
  0
LINE
  5
14A6
100
AcDbEntity
  8
90000_FRAME
370
    13
  6
CONTINUOUS
 62
     7
100
AcDbLine
 10
997.006163
 20
246.422035
 30
0.0
 11
997.006163
 21
233.588209
 31
0.0
  0
LINE
  5
14A7
100
AcDbEntity
  8
90000_FRAME
370
    13
  6
CONTINUOUS
 62
     7
100
AcDbLine
 10
997.006163
 20
224.176736
 30
0.0
 11
997.006163
 21
210.772517
 31
0.0
  0
LINE
  5
14A8
100
AcDbEntity
  8
90000_FRAME
370
    13
  6
CONTINUOUS
 62
     7
100
AcDbLine
 10
1032.940877
 20
199.935063
 30
0.0
 11
1032.940877
 21
256.974292
 31
0.0
  0
LINE
  5
14A9
100
AcDbEntity
  8
90000_FRAME
370
    13
  6
CONTINUOUS
 62
     7
100
AcDbLine
 10
1032.940877
 20
199.935063
 30
0.0
 11
1044.348723
 21
199.935063
 31
0.0
  0
LINE
  5
14AA
100
AcDbEntity
  8
90000_FRAME
370
    13
  6
CONTINUOUS
 62
     7
100
AcDbLine
 10
1103.099129
 20
256.974292
 30
0.0
 11
1103.099129
 21
199.935063
 31
0.0
  0
LINE
  5
14AB
100
AcDbEntity
  8
90000_FRAME
370
    13
  6
CONTINUOUS
 62
     7
100
AcDbLine
 10
1103.099129
 20
199.935063
 30
0.0
 11
1086.557753
 21
199.935063
 31
0.0
  0
LINE
  5
14AC
100
AcDbEntity
  8
90000_FRAME
370
    13
  6
CONTINUOUS
 62
     7
100
AcDbLine
 10
1060.319707
 20
199.364671
 30
0.0
 11
1070.586768
 21
199.364671
 31
0.0
  0
LINE
  5
14AD
100
AcDbEntity
  8
90000_FRAME
370
    13
  6
CONTINUOUS
 62
     7
100
AcDbLine
 10
1060.319707
 20
199.364671
 30
0.0
 11
1044.348723
 21
236.44017
 31
0.0
  0
LINE
  5
14AE
100
AcDbEntity
  8
90000_FRAME
370
    13
  6
CONTINUOUS
 62
     7
100
AcDbLine
 10
1044.348723
 20
199.935063
 30
0.0
 11
1044.348723
 21
236.44017
 31
0.0
  0
LINE
  5
14AF
100
AcDbEntity
  8
90000_FRAME
370
    13
  6
CONTINUOUS
 62
     7
100
AcDbLine
 10
1086.557753
 20
237.010562
 30
0.0
 11
1070.586768
 21
199.364671
 31
0.0
  0
LINE
  5
14B0
100
AcDbEntity
  8
90000_FRAME
370
    13
  6
CONTINUOUS
 62
     7
100
AcDbLine
 10
1053.475
 20
256.974292
 30
0.0
 11
1032.940877
 21
256.974292
 31
0.0
  0
LINE
  5
14B1
100
AcDbEntity
  8
90000_FRAME
370
    13
  6
CONTINUOUS
 62
     7
100
AcDbLine
 10
1103.099129
 20
256.974292
 30
0.0
 11
1082.565007
 21
256.974292
 31
0.0
  0
LINE
  5
14B2
100
AcDbEntity
  8
90000_FRAME
370
    13
  6
CONTINUOUS
 62
     7
100
AcDbLine
 10
1053.475
 20
256.974292
 30
0.0
 11
1068.305199
 21
222.180363
 31
0.0
  0
LINE
  5
14B3
100
AcDbEntity
  8
90000_FRAME
370
    13
  6
CONTINUOUS
 62
     7
100
AcDbLine
 10
1082.565007
 20
256.974292
 30
0.0
 11
1068.305199
 21
222.180363
 31
0.0
  0
LINE
  5
14B4
100
AcDbEntity
  8
90000_FRAME
370
    13
  6
CONTINUOUS
 62
     7
100
AcDbLine
 10
1086.557753
 20
237.010562
 30
0.0
 11
1086.557753
 21
199.935063
 31
0.0
  0
LINE
  5
14B5
100
AcDbEntity
  8
90000_FRAME
370
    13
  6
CONTINUOUS
 62
     7
100
AcDbLine
 10
1116.218152
 20
256.974292
 30
0.0
 11
1116.218152
 21
199.935063
 31
0.0
  0
LINE
  5
14B6
100
AcDbEntity
  8
90000_FRAME
370
    13
  6
CONTINUOUS
 62
     7
100
AcDbLine
 10
1116.218152
 20
199.935063
 30
0.0
 11
1158.997573
 21
199.935063
 31
0.0
  0
LINE
  5
14B7
100
AcDbEntity
  8
90000_FRAME
370
    13
  6
CONTINUOUS
 62
     7
100
AcDbLine
 10
1158.997573
 20
210.772517
 30
0.0
 11
1132.759528
 21
210.772517
 31
0.0
  0
LINE
  5
14B8
100
AcDbEntity
  8
90000_FRAME
370
    13
  6
CONTINUOUS
 62
     7
100
AcDbLine
 10
1158.997573
 20
210.772517
 30
0.0
 11
1158.997573
 21
199.935063
 31
0.0
  0
LINE
  5
14B9
100
AcDbEntity
  8
90000_FRAME
370
    13
  6
CONTINUOUS
 62
     7
100
AcDbLine
 10
1158.427181
 20
256.974292
 30
0.0
 11
1116.218152
 21
256.974292
 31
0.0
  0
LINE
  5
14BA
100
AcDbEntity
  8
90000_FRAME
370
    13
  6
CONTINUOUS
 62
     7
100
AcDbLine
 10
1158.427181
 20
246.422035
 30
0.0
 11
1132.759528
 21
246.422035
 31
0.0
  0
LINE
  5
14BB
100
AcDbEntity
  8
90000_FRAME
370
    13
  6
CONTINUOUS
 62
     7
100
AcDbLine
 10
1158.427181
 20
256.974292
 30
0.0
 11
1158.427181
 21
246.422035
 31
0.0
  0
LINE
  5
14BC
100
AcDbEntity
  8
90000_FRAME
370
    13
  6
CONTINUOUS
 62
     7
100
AcDbLine
 10
1155.004827
 20
224.176736
 30
0.0
 11
1132.759528
 21
224.176736
 31
0.0
  0
LINE
  5
14BD
100
AcDbEntity
  8
90000_FRAME
370
    13
  6
CONTINUOUS
 62
     7
100
AcDbLine
 10
1155.004827
 20
233.588209
 30
0.0
 11
1155.004827
 21
224.176736
 31
0.0
  0
LINE
  5
14BE
100
AcDbEntity
  8
90000_FRAME
370
    13
  6
CONTINUOUS
 62
     7
100
AcDbLine
 10
1155.004827
 20
233.588209
 30
0.0
 11
1132.759528
 21
233.588209
 31
0.0
  0
LINE
  5
14BF
100
AcDbEntity
  8
90000_FRAME
370
    13
  6
CONTINUOUS
 62
     7
100
AcDbLine
 10
1132.759528
 20
246.422035
 30
0.0
 11
1132.759528
 21
233.588209
 31
0.0
  0
LINE
  5
14C0
100
AcDbEntity
  8
90000_FRAME
370
    13
  6
CONTINUOUS
 62
     7
100
AcDbLine
 10
1132.759528
 20
224.176736
 30
0.0
 11
1132.759528
 21
210.772517
 31
0.0
  0
LINE
  5
14C1
100
AcDbEntity
  8
90000_FRAME
370
    13
  6
CONTINUOUS
 62
     7
100
AcDbLine
 10
1168.409046
 20
199.935063
 30
0.0
 11
1168.409046
 21
256.974292
 31
0.0
  0
LINE
  5
14C2
100
AcDbEntity
  8
90000_FRAME
370
    13
  6
CONTINUOUS
 62
     7
100
AcDbLine
 10
1218.603568
 20
256.974292
 30
0.0
 11
1218.603568
 21
199.935063
 31
0.0
  0
LINE
  5
14C3
100
AcDbEntity
  8
90000_FRAME
370
    13
  6
CONTINUOUS
 62
     7
100
AcDbLine
 10
1168.409046
 20
199.935063
 30
0.0
 11
1179.816892
 21
199.935063
 31
0.0
  0
LINE
  5
14C4
100
AcDbEntity
  8
90000_FRAME
370
    13
  6
CONTINUOUS
 62
     7
100
AcDbLine
 10
1218.603568
 20
256.974292
 30
0.0
 11
1207.195722
 21
256.974292
 31
0.0
  0
LINE
  5
14C5
100
AcDbEntity
  8
90000_FRAME
370
    13
  6
CONTINUOUS
 62
     7
100
AcDbLine
 10
1186.946796
 20
256.974292
 30
0.0
 11
1168.409046
 21
256.974292
 31
0.0
  0
LINE
  5
14C6
100
AcDbEntity
  8
90000_FRAME
370
    13
  6
CONTINUOUS
 62
     7
100
AcDbLine
 10
1218.603568
 20
199.935063
 30
0.0
 11
1200.351014
 21
199.935063
 31
0.0
  0
LINE
  5
14C7
100
AcDbEntity
  8
90000_FRAME
370
    13
  6
CONTINUOUS
 62
     7
100
AcDbLine
 10
1200.351014
 20
199.935063
 30
0.0
 11
1179.816892
 21
236.44017
 31
0.0
  0
LINE
  5
14C8
100
AcDbEntity
  8
90000_FRAME
370
    13
  6
CONTINUOUS
 62
     7
100
AcDbLine
 10
1186.946796
 20
256.974292
 30
0.0
 11
1207.195722
 21
221.60997
 31
0.0
  0
LINE
  5
14C9
100
AcDbEntity
  8
90000_FRAME
370
    13
  6
CONTINUOUS
 62
     7
100
AcDbLine
 10
1207.195722
 20
256.974292
 30
0.0
 11
1207.195722
 21
221.60997
 31
0.0
  0
LINE
  5
14CA
100
AcDbEntity
  8
90000_FRAME
370
    13
  6
CONTINUOUS
 62
     7
100
AcDbLine
 10
1179.816892
 20
199.935063
 30
0.0
 11
1179.816892
 21
236.44017
 31
0.0
  0
LINE
  5
14CB
100
AcDbEntity
  8
90000_FRAME
370
    13
  6
CONTINUOUS
 62
     7
100
AcDbLine
 10
1228.300237
 20
201.075848
 30
0.0
 11
1228.300237
 21
212.483694
 31
0.0
  0
LINE
  5
14CC
100
AcDbEntity
  8
90000_FRAME
370
    13
  6
CONTINUOUS
 62
     7
100
AcDbLine
 10
1268.227697
 20
244.996054
 30
0.0
 11
1268.227697
 21
256.4039
 31
0.0
  0
ARC
  5
14CD
100
AcDbEntity
  8
90000_FRAME
370
    13
  6
CONTINUOUS
 62
     7
100
AcDbCircle
 10
1248.75593
 20
223.420966
 30
0.0
 40
13.339432
100
AcDbArc
 50
277.709996
 51
295.688493
  0
ARC
  5
14CE
100
AcDbEntity
  8
90000_FRAME
370
    13
  6
CONTINUOUS
 62
     7
100
AcDbCircle
 10
1252.16765
 20
214.723057
 30
0.0
 40
4.082027
100
AcDbArc
 50
305.503221
 51
72.46529
  0
ARC
  5
14CF
100
AcDbEntity
  8
90000_FRAME
370
    13
  6
CONTINUOUS
 62
     7
100
AcDbCircle
 10
1245.375724
 20
255.54354
 30
0.0
 40
57.081536
100
AcDbArc
 50
252.59392
 51
280.98166
  0
ARC
  5
14D0
100
AcDbEntity
  8
90000_FRAME
370
    13
  6
CONTINUOUS
 62
     7
100
AcDbCircle
 10
1250.833749
 20
224.127375
 30
0.0
 40
25.208719
100
AcDbArc
 50
282.405836
 51
311.864443
  0
ARC
  5
14D1
100
AcDbEntity
  8
90000_FRAME
370
    13
  6
CONTINUOUS
 62
     7
100
AcDbCircle
 10
1247.550976
 20
243.427476
 30
0.0
 40
3.635552
100
AcDbArc
 50
154.440035
 51
221.82017
  0
ARC
  5
14D2
100
AcDbEntity
  8
90000_FRAME
370
    13
  6
CONTINUOUS
 62
     7
100
AcDbCircle
 10
1248.50163
 20
242.476822
 30
0.0
 40
4.923708
100
AcDbArc
 50
102.828783
 51
149.225964
  0
ARC
  5
14D3
100
AcDbEntity
  8
90000_FRAME
370
    13
  6
CONTINUOUS
 62
     7
100
AcDbCircle
 10
1253.505952
 20
221.568798
 30
0.0
 40
26.422039
100
AcDbArc
 50
84.040006
 51
103.342766
  0
ARC
  5
14D4
100
AcDbEntity
  8
90000_FRAME
370
    13
  6
CONTINUOUS
 62
     7
100
AcDbCircle
 10
1249.414386
 20
192.560431
 30
0.0
 40
55.708485
100
AcDbArc
 50
70.262586
 51
82.952419
  0
ARC
  5
14D5
100
AcDbEntity
  8
90000_FRAME
370
    13
  6
CONTINUOUS
 62
     7
100
AcDbCircle
 10
1243.246168
 20
248.619905
 30
0.0
 40
39.105072
100
AcDbArc
 50
247.530021
 51
280.757952
  0
ARC
  5
14D6
100
AcDbEntity
  8
90000_FRAME
370
    13
  6
CONTINUOUS
 62
     7
100
AcDbCircle
 10
1166.62657
 20
29.601666
 30
0.0
 40
207.979301
100
AcDbArc
 50
65.341467
 51
67.399777
  0
ARC
  5
14D7
100
AcDbEntity
  8
90000_FRAME
370
    13
  6
CONTINUOUS
 62
     7
100
AcDbCircle
 10
1296.176919
 20
339.110782
 30
0.0
 40
127.54997
100
AcDbArc
 50
242.86201
 51
247.104203
  0
ARC
  5
14D8
100
AcDbEntity
  8
90000_FRAME
370
    13
  6
CONTINUOUS
 62
     7
100
AcDbCircle
 10
1249.918104
 20
248.703604
 30
0.0
 40
25.9955
100
AcDbArc
 50
227.311928
 51
242.704032
  0
ARC
  5
14D9
100
AcDbEntity
  8
90000_FRAME
370
    13
  6
CONTINUOUS
 62
     7
100
AcDbCircle
 10
1242.669735
 20
240.235473
 30
0.0
 40
14.862261
100
AcDbArc
 50
194.795219
 51
225.717655
  0
ARC
  5
14DA
100
AcDbEntity
  8
90000_FRAME
370
    13
  6
CONTINUOUS
 62
     7
100
AcDbCircle
 10
1243.415632
 20
240.718112
 30
0.0
 40
15.709105
100
AcDbArc
 50
164.197486
 51
195.802514
  0
ARC
  5
14DB
100
AcDbEntity
  8
90000_FRAME
370
    13
  6
CONTINUOUS
 62
     7
100
AcDbCircle
 10
1250.099917
 20
230.058906
 30
0.0
 40
28.403098
100
AcDbArc
 50
86.221802
 51
120.42726
  0
ARC
  5
14DC
100
AcDbEntity
  8
90000_FRAME
370
    13
  6
CONTINUOUS
 62
     7
100
AcDbCircle
 10
1246.873636
 20
149.704892
 30
0.0
 40
108.814862
100
AcDbArc
 50
78.682705
 51
87.31476
  0
ARC
  5
14DD
100
AcDbEntity
  8
90000_FRAME
370
    13
  6
CONTINUOUS
 62
     7
100
AcDbCircle
 10
1241.400805
 20
242.008205
 30
0.0
 40
13.436969
100
AcDbArc
 50
142.813918
 51
167.152295
  0
ARC
  5
14DE
100
AcDbEntity
  8
90000_FRAME
370
    13
  6
CONTINUOUS
 62
     7
100
AcDbCircle
 10
1245.544518
 20
238.329225
 30
0.0
 40
18.96656
100
AcDbArc
 50
121.214095
 51
141.525477
  0
ARC
  5
14DF
100
AcDbEntity
  8
90000_FRAME
370
    13
  6
CONTINUOUS
 62
     7
100
AcDbCircle
 10
1252.47061
 20
248.061913
 30
0.0
 40
10.393531
100
AcDbArc
 50
222.776039
 51
239.036243
  0
ARC
  5
14E0
100
AcDbEntity
  8
90000_FRAME
370
    13
  6
CONTINUOUS
 62
     7
100
AcDbCircle
 10
1222.390095
 20
160.098647
 30
0.0
 40
82.305283
100
AcDbArc
 50
59.902027
 51
68.203648
  0
ARC
  5
14E1
100
AcDbEntity
  8
90000_FRAME
370
    13
  6
CONTINUOUS
 62
     7
100
AcDbCircle
 10
1263.292029
 20
267.209285
 30
0.0
 40
32.384892
100
AcDbArc
 50
240.0482
 51
251.377967
  0
ARC
  5
14E2
100
AcDbEntity
  8
90000_FRAME
370
    13
  6
CONTINUOUS
 62
     7
100
AcDbCircle
 10
1255.306543
 20
217.326501
 30
0.0
 40
17.20137
100
AcDbArc
 50
315.890455
 51
333.522926
  0
ARC
  5
14E3
100
AcDbEntity
  8
90000_FRAME
370
    13
  6
CONTINUOUS
 62
     7
100
AcDbCircle
 10
1255.362202
 20
216.685615
 30
0.0
 40
16.874745
100
AcDbArc
 50
335.386797
 51
24.391512
  0
ARC
  5
14E4
100
AcDbEntity
  8
90000_FRAME
370
    13
  6
CONTINUOUS
 62
     7
100
AcDbCircle
 10
1254.495743
 20
215.751335
 30
0.0
 40
18.05643
100
AcDbArc
 50
25.956292
 51
59.483483
  0
LINE
  5
14E5
100
AcDbEntity
  8
90000_FRAME
370
    13
  6
CONTINUOUS
 62
     7
100
AcDbLine
 10
897.187512
 20
201.075848
 30
0.0
 11
897.187512
 21
212.483694
 31
0.0
  0
LINE
  5
14E6
100
AcDbEntity
  8
90000_FRAME
370
    13
  6
CONTINUOUS
 62
     7
100
AcDbLine
 10
937.114973
 20
244.996054
 30
0.0
 11
937.114973
 21
256.4039
 31
0.0
  0
ARC
  5
14E7
100
AcDbEntity
  8
90000_FRAME
370
    13
  6
CONTINUOUS
 62
     7
100
AcDbCircle
 10
917.643206
 20
223.420966
 30
0.0
 40
13.339432
100
AcDbArc
 50
277.709996
 51
295.688493
  0
ARC
  5
14E8
100
AcDbEntity
  8
90000_FRAME
370
    13
  6
CONTINUOUS
 62
     7
100
AcDbCircle
 10
921.054926
 20
214.723057
 30
0.0
 40
4.082027
100
AcDbArc
 50
305.503221
 51
72.46529
  0
ARC
  5
14E9
100
AcDbEntity
  8
90000_FRAME
370
    13
  6
CONTINUOUS
 62
     7
100
AcDbCircle
 10
914.263
 20
255.54354
 30
0.0
 40
57.081536
100
AcDbArc
 50
252.59392
 51
280.98166
  0
ARC
  5
14EA
100
AcDbEntity
  8
90000_FRAME
370
    13
  6
CONTINUOUS
 62
     7
100
AcDbCircle
 10
919.721024
 20
224.127375
 30
0.0
 40
25.208719
100
AcDbArc
 50
282.405836
 51
311.864443
  0
ARC
  5
14EB
100
AcDbEntity
  8
90000_FRAME
370
    13
  6
CONTINUOUS
 62
     7
100
AcDbCircle
 10
916.438252
 20
243.427476
 30
0.0
 40
3.635552
100
AcDbArc
 50
154.440035
 51
221.82017
  0
ARC
  5
14EC
100
AcDbEntity
  8
90000_FRAME
370
    13
  6
CONTINUOUS
 62
     7
100
AcDbCircle
 10
917.388906
 20
242.476822
 30
0.0
 40
4.923708
100
AcDbArc
 50
102.828783
 51
149.225964
  0
ARC
  5
14ED
100
AcDbEntity
  8
90000_FRAME
370
    13
  6
CONTINUOUS
 62
     7
100
AcDbCircle
 10
922.393228
 20
221.568798
 30
0.0
 40
26.422039
100
AcDbArc
 50
84.040006
 51
103.342766
  0
ARC
  5
14EE
100
AcDbEntity
  8
90000_FRAME
370
    13
  6
CONTINUOUS
 62
     7
100
AcDbCircle
 10
918.301662
 20
192.560431
 30
0.0
 40
55.708485
100
AcDbArc
 50
70.262586
 51
82.952419
  0
ARC
  5
14EF
100
AcDbEntity
  8
90000_FRAME
370
    13
  6
CONTINUOUS
 62
     7
100
AcDbCircle
 10
912.133444
 20
248.619905
 30
0.0
 40
39.105072
100
AcDbArc
 50
247.530021
 51
280.757952
  0
ARC
  5
14F0
100
AcDbEntity
  8
90000_FRAME
370
    13
  6
CONTINUOUS
 62
     7
100
AcDbCircle
 10
835.513846
 20
29.601666
 30
0.0
 40
207.979301
100
AcDbArc
 50
65.341467
 51
67.399777
  0
ARC
  5
14F1
100
AcDbEntity
  8
90000_FRAME
370
    13
  6
CONTINUOUS
 62
     7
100
AcDbCircle
 10
965.064195
 20
339.110782
 30
0.0
 40
127.54997
100
AcDbArc
 50
242.86201
 51
247.104203
  0
ARC
  5
14F2
100
AcDbEntity
  8
90000_FRAME
370
    13
  6
CONTINUOUS
 62
     7
100
AcDbCircle
 10
918.80538
 20
248.703604
 30
0.0
 40
25.9955
100
AcDbArc
 50
227.311928
 51
242.704032
  0
ARC
  5
14F3
100
AcDbEntity
  8
90000_FRAME
370
    13
  6
CONTINUOUS
 62
     7
100
AcDbCircle
 10
911.55701
 20
240.235473
 30
0.0
 40
14.862261
100
AcDbArc
 50
194.795219
 51
225.717655
  0
ARC
  5
14F4
100
AcDbEntity
  8
90000_FRAME
370
    13
  6
CONTINUOUS
 62
     7
100
AcDbCircle
 10
918.987193
 20
230.058906
 30
0.0
 40
28.403098
100
AcDbArc
 50
86.221802
 51
120.42726
  0
ARC
  5
14F5
100
AcDbEntity
  8
90000_FRAME
370
    13
  6
CONTINUOUS
 62
     7
100
AcDbCircle
 10
915.760911
 20
149.704892
 30
0.0
 40
108.814862
100
AcDbArc
 50
78.682705
 51
87.31476
  0
ARC
  5
14F6
100
AcDbEntity
  8
90000_FRAME
370
    13
  6
CONTINUOUS
 62
     7
100
AcDbCircle
 10
914.431793
 20
238.329225
 30
0.0
 40
18.96656
100
AcDbArc
 50
121.214095
 51
141.525477
  0
ARC
  5
14F7
100
AcDbEntity
  8
90000_FRAME
370
    13
  6
CONTINUOUS
 62
     7
100
AcDbCircle
 10
921.357886
 20
248.061913
 30
0.0
 40
10.393531
100
AcDbArc
 50
222.776039
 51
239.036243
  0
ARC
  5
14F8
100
AcDbEntity
  8
90000_FRAME
370
    13
  6
CONTINUOUS
 62
     7
100
AcDbCircle
 10
891.277371
 20
160.098647
 30
0.0
 40
82.305283
100
AcDbArc
 50
59.902027
 51
68.203648
  0
ARC
  5
14F9
100
AcDbEntity
  8
90000_FRAME
370
    13
  6
CONTINUOUS
 62
     7
100
AcDbCircle
 10
932.179305
 20
267.209285
 30
0.0
 40
32.384892
100
AcDbArc
 50
240.0482
 51
251.377967
  0
ARC
  5
14FA
100
AcDbEntity
  8
90000_FRAME
370
    13
  6
CONTINUOUS
 62
     7
100
AcDbCircle
 10
924.193819
 20
217.326501
 30
0.0
 40
17.20137
100
AcDbArc
 50
315.890455
 51
333.522926
  0
ARC
  5
14FB
100
AcDbEntity
  8
90000_FRAME
370
    13
  6
CONTINUOUS
 62
     7
100
AcDbCircle
 10
924.249477
 20
216.685615
 30
0.0
 40
16.874745
100
AcDbArc
 50
335.386797
 51
24.391512
  0
ARC
  5
14FC
100
AcDbEntity
  8
90000_FRAME
370
    13
  6
CONTINUOUS
 62
     7
100
AcDbCircle
 10
923.383019
 20
215.751335
 30
0.0
 40
18.05643
100
AcDbArc
 50
25.956292
 51
59.483483
  0
LINE
  5
14FD
100
AcDbEntity
  8
90000_FRAME
370
    13
  6
CONTINUOUS
 62
     7
100
AcDbLine
 10
899.489455
 20
250.004626
 30
0.0
 11
902.778245
 21
253.293503
 31
0.0
  0
ARC
  5
14FE
100
AcDbEntity
  8
90000_FRAME
370
    13
  6
CONTINUOUS
 62
     7
100
AcDbCircle
 10
912.302908
 20
240.718112
 30
0.0
 40
15.709105
100
AcDbArc
 50
164.197486
 51
195.802514
  0
ARC
  5
14FF
100
AcDbEntity
  8
90000_FRAME
370
    13
  6
CONTINUOUS
 62
     7
100
AcDbCircle
 10
910.288081
 20
242.008205
 30
0.0
 40
13.436969
100
AcDbArc
 50
142.813918
 51
167.152295
  0
LINE
  5
1500
100
AcDbEntity
  8
90000_FRAME
370
    13
  6
CONTINUOUS
 62
     7
100
AcDbLine
 10
2459.999589
 20
3503.999718
 30
0.0
 11
59.999589
 21
3503.999718
 31
0.0
  0
LINE
  5
1501
100
AcDbEntity
  8
90000_FRAME
370
    13
  6
CONTINUOUS
 62
     7
100
AcDbLine
 10
2519.999589
 20
3563.999718
 30
0.0
 11
-0.000411
 21
3563.999718
 31
0.0
  0
LINE
  5
1502
100
AcDbEntity
  8
90000_FRAME
370
    13
  6
CONTINUOUS
 62
     7
100
AcDbLine
 10
2519.999589
 20
-0.000282
 30
0.0
 11
-0.000411
 21
-0.000282
 31
0.0
  0
LINE
  5
1503
100
AcDbEntity
  8
90000_FRAME
370
    13
  6
CONTINUOUS
 62
     7
100
AcDbLine
 10
-0.000411
 20
-0.000282
 30
0.0
 11
-0.000411
 21
3563.999718
 31
0.0
  0
LINE
  5
1504
100
AcDbEntity
  8
90000_FRAME
370
    13
  6
CONTINUOUS
 62
     7
100
AcDbLine
 10
2519.999589
 20
-0.000282
 30
0.0
 11
2519.999589
 21
3563.999718
 31
0.0
  0
ENDSEC
  0
SECTION
  2
OBJECTS
  0
DICTIONARY
  5
10CF
100
AcDbDictionary
280
     0
281
     1
  3
ACAD_GROUP
350
10D0
  3
ACAD_MLINESTYLE
350
10D1
  0
DICTIONARY
  5
10D0
102
{ACAD_REACTORS
330
10CF
102
}
100
AcDbDictionary
280
     0
281
     1
  0
DICTIONARY
  5
10D1
102
{ACAD_REACTORS
330
10CF
102
}
100
AcDbDictionary
280
     0
281
     1
  3
Standard
350
10D2
  0
MLINESTYLE
  5
10D2
102
{ACAD_REACTORS
330
10D1
102
}
100
AcDbMlineStyle
  2
Standard
 70
     0
  3

 62
     0
 51
90.0
 52
90.0
 71
     2
 49
0.5
 62
   256
  6
ByLayer
 49
-0.5
 62
   256
  6
ByLayer
  0
ENDSEC
  0
EOF
