  0
SECTION
  2
HEADER
  9
$ACADVER
  1
AC1024
  9
$ACADMAINTVER
 70
     6
  9
$DWGCODEPAGE
  3
ANSI_1252
  9
$INSBASE
 10
0.0
 20
0.0
 30
0.0
  9
$EXTMIN
 10
-13.92
 20
-60.12500000000007
 30
0.0
  9
$EXTMAX
 10
68.125
 20
0.125
 30
0.0
  9
$LIMMIN
 10
-13.92
 20
-60.12500000000007
  9
$LIMMAX
 10
68.125
 20
0.125
  9
$ORTHOMODE
 70
     0
  9
$REGENMODE
 70
     1
  9
$FILLMODE
 70
     1
  9
$QTEXTMODE
 70
     0
  9
$MIRRTEXT
 70
     1
  9
$LTSCALE
 40
1.0
  9
$ATTMODE
 70
     1
  9
$TEXTSIZE
 40
2.5
  9
$TRACEWID
 40
1.0
  9
$TEXTSTYLE
  7
Standard
  9
$CLAYER
  8
0
  9
$CELTYPE
  6
ByLayer
  9
$CECOLOR
 62
   256
  9
$CELTSCALE
 40
1.0
  9
$DISPSILH
 70
     0
  9
$DIMSCALE
 40
1.0
  9
$DIMASZ
 40
2.5
  9
$DIMEXO
 40
0.625
  9
$DIMDLI
 40
3.75
  9
$DIMRND
 40
0.0
  9
$DIMDLE
 40
0.0
  9
$DIMEXE
 40
1.25
  9
$DIMTP
 40
0.0
  9
$DIMTM
 40
0.0
  9
$DIMTXT
 40
2.5
  9
$DIMCEN
 40
2.5
  9
$DIMTSZ
 40
0.0
  9
$DIMTOL
 70
     0
  9
$DIMLIM
 70
     0
  9
$DIMTIH
 70
     0
  9
$DIMTOH
 70
     0
  9
$DIMSE1
 70
     0
  9
$DIMSE2
 70
     0
  9
$DIMTAD
 70
     1
  9
$DIMZIN
 70
     8
  9
$DIMBLK
  1

  9
$DIMASO
 70
     1
  9
$DIMSHO
 70
     1
  9
$DIMPOST
  1

  9
$DIMAPOST
  1

  9
$DIMALT
 70
     0
  9
$DIMALTD
 70
     3
  9
$DIMALTF
 40
0.03937007874016
  9
$DIMLFAC
 40
1.0
  9
$DIMTOFL
 70
     1
  9
$DIMTVP
 40
0.0
  9
$DIMTIX
 70
     0
  9
$DIMSOXD
 70
     0
  9
$DIMSAH
 70
     0
  9
$DIMBLK1
  1

  9
$DIMBLK2
  1

  9
$DIMSTYLE
  2
ISO-25
  9
$DIMCLRD
 70
     0
  9
$DIMCLRE
 70
     0
  9
$DIMCLRT
 70
     0
  9
$DIMTFAC
 40
1.0
  9
$DIMGAP
 40
0.625
  9
$DIMJUST
 70
     0
  9
$DIMSD1
 70
     0
  9
$DIMSD2
 70
     0
  9
$DIMTOLJ
 70
     0
  9
$DIMTZIN
 70
     8
  9
$DIMALTZ
 70
     0
  9
$DIMALTTZ
 70
     0
  9
$DIMUPT
 70
     0
  9
$DIMDEC
 70
     2
  9
$DIMTDEC
 70
     2
  9
$DIMALTU
 70
     2
  9
$DIMALTTD
 70
     3
  9
$DIMTXSTY
  7
Standard
  9
$DIMAUNIT
 70
     0
  9
$DIMADEC
 70
     0
  9
$DIMALTRND
 40
0.0
  9
$DIMAZIN
 70
     0
  9
$DIMDSEP
 70
    44
  9
$DIMATFIT
 70
     3
  9
$DIMFRAC
 70
     0
  9
$DIMLDRBLK
  1

  9
$DIMLUNIT
 70
     2
  9
$DIMLWD
 70
    -2
  9
$DIMLWE
 70
    -2
  9
$DIMTMOVE
 70
     0
  9
$DIMFXL
 40
1.0
  9
$DIMFXLON
 70
     0
  9
$DIMJOGANG
 40
0.7853981633974483
  9
$DIMTFILL
 70
     0
  9
$DIMTFILLCLR
 70
     0
  9
$DIMARCSYM
 70
     0
  9
$DIMLTYPE
  6

  9
$DIMLTEX1
  6

  9
$DIMLTEX2
  6

  9
$DIMTXTDIRECTION
 70
     0
  9
$LUNITS
 70
     2
  9
$LUPREC
 70
     4
  9
$SKETCHINC
 40
1.0
  9
$FILLETRAD
 40
10.0
  9
$AUNITS
 70
     0
  9
$AUPREC
 70
     0
  9
$MENU
  1
.
  9
$ELEVATION
 40
0.0
  9
$PELEVATION
 40
0.0
  9
$THICKNESS
 40
0.0
  9
$LIMCHECK
 70
     0
  9
$CHAMFERA
 40
0.0
  9
$CHAMFERB
 40
0.0
  9
$CHAMFERC
 40
0.0
  9
$CHAMFERD
 40
0.0
  9
$SKPOLY
 70
     0
  9
$TDCREATE
 40
2458075.667291076
  9
$TDUCREATE
 40
2458075.62562441
  9
$TDUPDATE
 40
2458075.667291609
  9
$TDUUPDATE
 40
2458075.625624942
  9
$TDINDWG
 40
0.0000000116
  9
$TDUSRTIMER
 40
0.0000000116
  9
$USRTIMER
 70
     1
  9
$ANGBASE
 50
0.0
  9
$ANGDIR
 70
     0
  9
$PDMODE
 70
     0
  9
$PDSIZE
 40
0.0
  9
$PLINEWID
 40
0.0
  9
$SPLFRAME
 70
     0
  9
$SPLINETYPE
 70
     6
  9
$SPLINESEGS
 70
     8
  9
$HANDSEED
  5
11F
  9
$SURFTAB1
 70
     6
  9
$SURFTAB2
 70
     6
  9
$SURFTYPE
 70
     6
  9
$SURFU
 70
     6
  9
$SURFV
 70
     6
  9
$UCSBASE
  2

  9
$UCSNAME
  2

  9
$UCSORG
 10
0.0
 20
0.0
 30
0.0
  9
$UCSXDIR
 10
1.0
 20
0.0
 30
0.0
  9
$UCSYDIR
 10
0.0
 20
1.0
 30
0.0
  9
$UCSORTHOREF
  2

  9
$UCSORTHOVIEW
 70
     0
  9
$UCSORGTOP
 10
0.0
 20
0.0
 30
0.0
  9
$UCSORGBOTTOM
 10
0.0
 20
0.0
 30
0.0
  9
$UCSORGLEFT
 10
0.0
 20
0.0
 30
0.0
  9
$UCSORGRIGHT
 10
0.0
 20
0.0
 30
0.0
  9
$UCSORGFRONT
 10
0.0
 20
0.0
 30
0.0
  9
$UCSORGBACK
 10
0.0
 20
0.0
 30
0.0
  9
$PUCSBASE
  2

  9
$PUCSNAME
  2

  9
$PUCSORG
 10
0.0
 20
0.0
 30
0.0
  9
$PUCSXDIR
 10
1.0
 20
0.0
 30
0.0
  9
$PUCSYDIR
 10
0.0
 20
1.0
 30
0.0
  9
$PUCSORTHOREF
  2

  9
$PUCSORTHOVIEW
 70
     0
  9
$PUCSORGTOP
 10
0.0
 20
0.0
 30
0.0
  9
$PUCSORGBOTTOM
 10
0.0
 20
0.0
 30
0.0
  9
$PUCSORGLEFT
 10
0.0
 20
0.0
 30
0.0
  9
$PUCSORGRIGHT
 10
0.0
 20
0.0
 30
0.0
  9
$PUCSORGFRONT
 10
0.0
 20
0.0
 30
0.0
  9
$PUCSORGBACK
 10
0.0
 20
0.0
 30
0.0
  9
$USERI1
 70
     0
  9
$USERI2
 70
     0
  9
$USERI3
 70
     0
  9
$USERI4
 70
     0
  9
$USERI5
 70
     0
  9
$USERR1
 40
0.0
  9
$USERR2
 40
0.0
  9
$USERR3
 40
0.0
  9
$USERR4
 40
0.0
  9
$USERR5
 40
0.0
  9
$WORLDVIEW
 70
     1
  9
$SHADEDGE
 70
     3
  9
$SHADEDIF
 70
    70
  9
$TILEMODE
 70
     1
  9
$MAXACTVP
 70
    64
  9
$PINSBASE
 10
0.0
 20
0.0
 30
0.0
  9
$PLIMCHECK
 70
     0
  9
$PEXTMIN
 10
-13.92
 20
-60.12500000000007
 30
0.0
  9
$PEXTMAX
 10
68.125
 20
0.125
 30
0.0
  9
$PLIMMIN
 10
-13.92
 20
-60.12500000000007
  9
$PLIMMAX
 10
68.125
 20
0.125
  9
$UNITMODE
 70
     0
  9
$VISRETAIN
 70
     1
  9
$PLINEGEN
 70
     0
  9
$PSLTSCALE
 70
     1
  9
$TREEDEPTH
 70
  3020
  9
$CMLSTYLE
  2
Standard
  9
$CMLJUST
 70
     0
  9
$CMLSCALE
 40
20.0
  9
$PROXYGRAPHICS
 70
     1
  9
$MEASUREMENT
 70
     1
  9
$CELWEIGHT
370
    -1
  9
$ENDCAPS
280
     0
  9
$JOINSTYLE
280
     0
  9
$LWDISPLAY
290
     1
  9
$INSUNITS
 70
     4
  9
$HYPERLINKBASE
  1

  9
$STYLESHEET
  1

  9
$XEDIT
290
     1
  9
$CEPSNTYPE
380
     0
  9
$PSTYLEMODE
290
     1
  9
$FINGERPRINTGUID
  2
{1DDB0369-242C-454B-A565-8F4DF7AB5B31}
  9
$VERSIONGUID
  2
{FAEB1C32-E019-11D5-929B-00C0DF256EC4}
  9
$EXTNAMES
290
     1
  9
$PSVPSCALE
 40
0.0
  9
$OLESTARTUP
290
     0
  9
$SORTENTS
280
   127
  9
$INDEXCTL
280
     0
  9
$HIDETEXT
280
     1
  9
$XCLIPFRAME
280
     2
  9
$HALOGAP
280
     0
  9
$OBSCOLOR
 70
   257
  9
$OBSLTYPE
280
     0
  9
$INTERSECTIONDISPLAY
280
     0
  9
$INTERSECTIONCOLOR
 70
   257
  9
$DIMASSOC
280
     2
  9
$PROJECTNAME
  1

  9
$CAMERADISPLAY
290
     0
  9
$LENSLENGTH
 40
50.0
  9
$CAMERAHEIGHT
 40
0.0
  9
$STEPSPERSEC
 40
2.0
  9
$STEPSIZE
 40
6.0
  9
$3DDWFPREC
 40
2.0
  9
$PSOLWIDTH
 40
5.0
  9
$PSOLHEIGHT
 40
80.0
  9
$LOFTANG1
 40
1.570796326794897
  9
$LOFTANG2
 40
1.570796326794897
  9
$LOFTMAG1
 40
0.0
  9
$LOFTMAG2
 40
0.0
  9
$LOFTPARAM
 70
     7
  9
$LOFTNORMALS
280
     1
  9
$LATITUDE
 40
37.795
  9
$LONGITUDE
 40
-122.394
  9
$NORTHDIRECTION
 40
0.0
  9
$TIMEZONE
 70
 -8000
  9
$LIGHTGLYPHDISPLAY
280
     1
  9
$TILEMODELIGHTSYNCH
280
     1
  9
$CMATERIAL
347
44
  9
$SOLIDHIST
280
     0
  9
$SHOWHIST
280
     1
  9
$DWFFRAME
280
     2
  9
$DGNFRAME
280
     2
  9
$REALWORLDSCALE
290
     1
  9
$INTERFERECOLOR
 62
   256
  9
$CSHADOW
280
     0
  9
$SHADOWPLANELOCATION
 40
0.0
  0
ENDSEC
  0
SECTION
  2
CLASSES
  0
CLASS
  1
ACDBDICTIONARYWDFLT
  2
AcDbDictionaryWithDefault
  3
ObjectDBX Classes
 90
        0
 91
        4
280
     0
281
     0
  0
CLASS
  1
VISUALSTYLE
  2
AcDbVisualStyle
  3
ObjectDBX Classes
 90
     4095
 91
        4
280
     0
281
     0
  0
CLASS
  1
MATERIAL
  2
AcDbMaterial
  3
ObjectDBX Classes
 90
     1153
 91
        4
280
     0
281
     0
  0
CLASS
  1
SCALE
  2
AcDbScale
  3
ObjectDBX Classes
 90
     1153
 91
        4
280
     0
281
     0
  0
CLASS
  1
TABLESTYLE
  2
AcDbTableStyle
  3
ObjectDBX Classes
 90
     4095
 91
        4
280
     0
281
     0
  0
CLASS
  1
MLEADERSTYLE
  2
AcDbMLeaderStyle
  3
ACDB_MLEADERSTYLE_CLASS
 90
     4095
 91
        4
280
     0
281
     0
  0
CLASS
  1
SUN
  2
AcDbSun
  3
SCENEOE
 90
     1153
 91
        4
280
     0
281
     0
  0
CLASS
  1
RASTERVARIABLES
  2
AcDbRasterVariables
  3
ISM
 90
        0
 91
        4
280
     0
281
     0
  0
CLASS
  1
DICTIONARYVAR
  2
AcDbDictionaryVar
  3
ObjectDBX Classes
 90
        0
 91
        4
280
     0
281
     0
  0
CLASS
  1
CELLSTYLEMAP
  2
AcDbCellStyleMap
  3
ObjectDBX Classes
 90
     1152
 91
        4
280
     0
281
     0
  0
ENDSEC
  0
SECTION
  2
TABLES
  0
TABLE
  2
VPORT
  5
8
330
0
100
AcDbSymbolTable
 70
     1
  0
VPORT
  5
29
330
8
100
AcDbSymbolTableRecord
100
AcDbViewportTableRecord
  2
*Active
 70
     0
 10
0.0
 20
0.0
 11
1.0
 21
1.0
 12
27.1025
 22
-30.00000000000004
 13
0.0
 23
0.0
 14
10.0
 24
10.0
 15
10.0
 25
10.0
 16
0.0
 26
0.0
 36
1.0
 17
0.0
 27
0.0
 37
0.0
 40
62.15530303030303
 41
1.32
 42
50.0
 43
0.0
 44
0.0
 50
0.0
 51
0.0
 71
     0
 72
   100
 73
     1
 74
     3
 75
     0
 76
     0
 77
     0
 78
     0
281
     0
 65
     1
110
0.0
120
0.0
130
0.0
111
1.0
121
0.0
131
0.0
112
0.0
122
1.0
132
0.0
 79
     0
146
0.0
348
2F
 60
     3
 61
     5
292
     1
282
     1
141
0.0
142
0.0
 63
   250
361
6D
  0
ENDTAB
  0
TABLE
  2
LTYPE
  5
5
330
0
100
AcDbSymbolTable
 70
     6
  0
LTYPE
  5
14
330
5
100
AcDbSymbolTableRecord
100
AcDbLinetypeTableRecord
  2
ByBlock
 70
     0
  3

 72
    65
 73
     0
 40
0.0
  0
LTYPE
  5
15
330
5
100
AcDbSymbolTableRecord
100
AcDbLinetypeTableRecord
  2
ByLayer
 70
     0
  3

 72
    65
 73
     0
 40
0.0
  0
LTYPE
  5
16
330
5
100
AcDbSymbolTableRecord
100
AcDbLinetypeTableRecord
  2
Continuous
 70
     0
  3
Solid line
 72
    65
 73
     0
 40
0.0
  0
LTYPE
  5
71
330
5
100
AcDbSymbolTableRecord
100
AcDbLinetypeTableRecord
  2
EPL_DASH
 70
     0
  3

 72
    65
 73
     2
 40
1.0
 49
0.5
 74
     0
 49
-0.5
 74
     0
  0
LTYPE
  5
72
330
5
100
AcDbSymbolTableRecord
100
AcDbLinetypeTableRecord
  2
EPL_DASHDOT
 70
     0
  3

 72
    65
 73
     4
 40
1.0
 49
0.8
 74
     0
 49
-0.1
 74
     0
 49
0.0
 74
     0
 49
-0.1
 74
     0
  0
LTYPE
  5
74
330
5
100
AcDbSymbolTableRecord
100
AcDbLinetypeTableRecord
  2
EPL_DOT
 70
     0
  3

 72
    65
 73
     4
 40
1.0
 49
0.0
 74
     0
 49
-0.5
 74
     0
 49
0.0
 74
     0
 49
-0.5
 74
     0
  0
LTYPE
  5
7B
330
5
100
AcDbSymbolTableRecord
100
AcDbLinetypeTableRecord
  2
EPL_DASH2
 70
     0
  3

 72
    65
 73
     2
 40
1.0
 49
0.66
 74
     0
 49
-0.34
 74
     0
  0
LTYPE
  5
7C
330
5
100
AcDbSymbolTableRecord
100
AcDbLinetypeTableRecord
  2
EPL_DASHDOTDOT
 70
     0
  3

 72
    65
 73
     6
 40
0.9999999999999999
 49
0.5
 74
     0
 49
-0.1
 74
     0
 49
0.1
 74
     0
 49
-0.1
 74
     0
 49
0.1
 74
     0
 49
-0.1
 74
     0
  0
ENDTAB
  0
TABLE
  2
LAYER
  5
2
330
0
100
AcDbSymbolTable
 70
    10
  0
LAYER
  5
10
330
2
100
AcDbSymbolTableRecord
100
AcDbLayerTableRecord
  2
0
 70
     0
 62
     7
  6
Continuous
370
    -3
390
F
347
46
  0
LAYER
  5
6F
330
2
100
AcDbSymbolTableRecord
100
AcDbLayerTableRecord
  2
71_GS_LI
 70
     0
 62
     7
  6
Continuous
370
    50
390
F
347
46
1001
AcAecLayerStandard
1000

1000
Grafik.Allgemein
  0
LAYER
  5
73
330
2
100
AcDbSymbolTableRecord
100
AcDbLayerTableRecord
  2
75_GS_TXT
 70
     0
 62
     7
  6
Continuous
370
    35
390
F
347
46
1001
AcAecLayerStandard
1000

1000
Grafik.Texte
  0
LAYER
  5
75
330
2
100
AcDbSymbolTableRecord
100
AcDbLayerTableRecord
  2
70_GS
 70
     0
 62
     7
  6
Continuous
370
    35
390
F
347
46
1001
AcAecLayerStandard
1000

1000
Grafik.Normblätter
  0
LAYER
  5
76
330
2
100
AcDbSymbolTableRecord
100
AcDbLayerTableRecord
  2
76_GS_AP
 70
     0
 62
     7
  6
Continuous
370
    25
390
F
347
46
1001
AcAecLayerStandard
1000

1000
Symbolgrafik.Geräteanschlüsse
  0
LAYER
  5
77
330
2
100
AcDbSymbolTableRecord
100
AcDbLayerTableRecord
  2
77_GS_BP
 70
     0
 62
     7
  6
Continuous
370
    13
390
F
347
46
1001
AcAecLayerStandard
1000

1000
Symbolgrafik.Makro.Makroanfasspunkte
  0
LAYER
  5
78
330
2
100
AcDbSymbolTableRecord
100
AcDbLayerTableRecord
  2
74_GS_BMK
 70
     0
 62
     7
  6
Continuous
370
    35
390
F
347
46
1001
AcAecLayerStandard
1000

1000
Eigenschaftsplatzierung.Betriebsmittelkennzeichen
  0
LAYER
  5
79
330
2
100
AcDbSymbolTableRecord
100
AcDbLayerTableRecord
  2
72_GS_AB
 70
     0
 62
     7
  6
Continuous
370
    35
390
F
347
46
1001
AcAecLayerStandard
1000

1000
Eigenschaftsplatzierung.Anschlussbezeichnungen
  0
LAYER
  5
7A
330
2
100
AcDbSymbolTableRecord
100
AcDbLayerTableRecord
  2
73_GS_ABS
 70
     0
 62
     7
  6
Continuous
370
    35
390
F
347
46
1001
AcAecLayerStandard
1000

1000
Eigenschaftsplatzierung.Anschlussbeschreibungen
  0
LAYER
  5
7D
330
2
100
AcDbSymbolTableRecord
100
AcDbLayerTableRecord
  2
EPLAN547
 70
     0
 62
     7
  6
Continuous
370
    25
390
F
347
46
1001
AcAecLayerStandard
1000

1000
Symbolgrafik.Verbindungssymbole.Autoconnecting.Potenzialtyp [PEN]
  0
ENDTAB
  0
TABLE
  2
STYLE
  5
3
330
0
100
AcDbSymbolTable
 70
     1
  0
STYLE
  5
11
330
3
100
AcDbSymbolTableRecord
100
AcDbTextStyleTableRecord
  2
Standard
 70
     0
 40
0.0
 41
1.0
 50
0.0
 71
     0
 42
2.5
  3
txt
  4

  0
ENDTAB
  0
TABLE
  2
VIEW
  5
6
330
0
100
AcDbSymbolTable
 70
     0
  0
ENDTAB
  0
TABLE
  2
UCS
  5
7
330
0
100
AcDbSymbolTable
 70
     0
  0
ENDTAB
  0
TABLE
  2
APPID
  5
9
330
0
100
AcDbSymbolTable
 70
     2
  0
APPID
  5
12
330
9
100
AcDbSymbolTableRecord
100
AcDbRegAppTableRecord
  2
ACAD
 70
     0
  0
APPID
  5
70
330
9
100
AcDbSymbolTableRecord
100
AcDbRegAppTableRecord
  2
AcAecLayerStandard
 70
     0
  0
ENDTAB
  0
TABLE
  2
DIMSTYLE
  5
A
330
0
100
AcDbSymbolTable
 70
     1
100
AcDbDimStyleTable
  0
DIMSTYLE
105
27
330
A
100
AcDbSymbolTableRecord
100
AcDbDimStyleTableRecord
  2
ISO-25
 70
     0
 41
2.5
 42
0.625
 43
3.75
 44
1.25
 73
     0
 74
     0
 77
     1
 78
     8
140
2.5
141
2.5
143
0.03937007874016
147
0.625
171
     3
172
     1
178
     0
271
     2
272
     2
274
     3
278
    44
283
     0
284
     8
340
11
  0
ENDTAB
  0
TABLE
  2
BLOCK_RECORD
  5
1
330
0
100
AcDbSymbolTable
 70
     1
  0
BLOCK_RECORD
  5
1F
330
1
100
AcDbSymbolTableRecord
100
AcDbBlockTableRecord
  2
*Model_Space
340
22
 70
     0
280
     1
281
     0
  0
BLOCK_RECORD
  5
1B
330
1
100
AcDbSymbolTableRecord
100
AcDbBlockTableRecord
  2
*Paper_Space
340
1E
 70
     0
280
     1
281
     0
  0
BLOCK_RECORD
  5
23
330
1
100
AcDbSymbolTableRecord
100
AcDbBlockTableRecord
  2
*Paper_Space0
340
26
 70
     0
280
     1
281
     0
  0
ENDTAB
  0
ENDSEC
  0
SECTION
  2
BLOCKS
  0
BLOCK
  5
20
330
1F
100
AcDbEntity
  8
0
100
AcDbBlockBegin
  2
*Model_Space
 70
     0
 10
0.0
 20
0.0
 30
0.0
  3
*Model_Space
  1

  0
ENDBLK
  5
21
330
1F
100
AcDbEntity
  8
0
100
AcDbBlockEnd
  0
BLOCK
  5
1C
330
1B
100
AcDbEntity
 67
     1
  8
0
100
AcDbBlockBegin
  2
*Paper_Space
 70
     0
 10
0.0
 20
0.0
 30
0.0
  3
*Paper_Space
  1

  0
ENDBLK
  5
1D
330
1B
100
AcDbEntity
 67
     1
  8
0
100
AcDbBlockEnd
  0
BLOCK
  5
24
330
23
100
AcDbEntity
  8
0
100
AcDbBlockBegin
  2
*Paper_Space0
 70
     0
 10
0.0
 20
0.0
 30
0.0
  3
*Paper_Space0
  1

  0
ENDBLK
  5
25
330
23
100
AcDbEntity
  8
0
100
AcDbBlockEnd
  0
ENDSEC
  0
SECTION
  2
ENTITIES
  0
LINE
  5
80
102
{ACAD_REACTORS
330
7F
102
}
330
1F
100
AcDbEntity
  8
71_GS_LI
  6
Continuous
 48
4.0
370
    25
100
AcDbLine
 10
8.0
 20
-44.0
 30
0.0
 11
2.0
 21
-44.0
 31
0.0
  0
LINE
  5
81
102
{ACAD_REACTORS
330
7F
102
}
330
1F
100
AcDbEntity
  8
71_GS_LI
  6
Continuous
 48
4.0
370
    25
100
AcDbLine
 10
8.0
 20
-44.0
 30
0.0
 11
8.000000000000009
 21
-56.00000000000002
 31
0.0
  0
LINE
  5
82
102
{ACAD_REACTORS
330
7F
102
}
330
1F
100
AcDbEntity
  8
71_GS_LI
  6
Continuous
 48
4.0
370
    25
100
AcDbLine
 10
24.0
 20
-44.0
 30
0.0
 11
18.0
 21
-44.0
 31
0.0
  0
LINE
  5
83
102
{ACAD_REACTORS
330
7F
102
}
330
1F
100
AcDbEntity
  8
71_GS_LI
  6
Continuous
 48
4.0
370
    25
100
AcDbLine
 10
24.0
 20
-44.0
 30
0.0
 11
24.00000000000001
 21
-56.00000000000002
 31
0.0
  0
LINE
  5
84
102
{ACAD_REACTORS
330
7F
102
}
330
1F
100
AcDbEntity
  8
71_GS_LI
  6
Continuous
 48
4.0
370
    25
100
AcDbLine
 10
40.0
 20
-44.0
 30
0.0
 11
44.0
 21
-44.0
 31
0.0
  0
LINE
  5
85
102
{ACAD_REACTORS
330
7F
102
}
330
1F
100
AcDbEntity
  8
71_GS_LI
  6
Continuous
 48
4.0
370
    25
100
AcDbLine
 10
40.0
 20
-44.0
 30
0.0
 11
40.00000000000001
 21
-56.00000000000002
 31
0.0
  0
LINE
  5
86
102
{ACAD_REACTORS
330
7F
102
}
330
1F
100
AcDbEntity
  8
71_GS_LI
  6
Continuous
 48
4.0
370
    25
100
AcDbLine
 10
56.0
 20
-44.0
 30
0.0
 11
52.0
 21
-44.0
 31
0.0
  0
LINE
  5
87
102
{ACAD_REACTORS
330
7F
102
}
330
1F
100
AcDbEntity
  8
71_GS_LI
  6
Continuous
 48
4.0
370
    25
100
AcDbLine
 10
56.0
 20
-44.0
 30
0.0
 11
56.00000000000001
 21
-56.00000000000002
 31
0.0
  0
LINE
  5
88
102
{ACAD_REACTORS
330
7F
102
}
330
1F
100
AcDbEntity
  8
71_GS_LI
  6
Continuous
 48
4.0
370
    25
100
AcDbLine
 10
8.0
 20
-16.0
 30
0.0
 11
16.0
 21
-16.0
 31
0.0
  0
LINE
  5
89
102
{ACAD_REACTORS
330
7F
102
}
330
1F
100
AcDbEntity
  8
71_GS_LI
  6
Continuous
 48
4.0
370
    25
100
AcDbLine
 10
8.0
 20
-16.0
 30
0.0
 11
8.0
 21
-4.0
 31
0.0
  0
LINE
  5
8A
102
{ACAD_REACTORS
330
7F
102
}
330
1F
100
AcDbEntity
  8
71_GS_LI
  6
Continuous
 48
4.0
370
    25
100
AcDbLine
 10
0.0
 20
-44.0
 30
0.0
 11
0.0000000000000089
 21
-56.00000000000002
 31
0.0
  0
LINE
  5
8B
102
{ACAD_REACTORS
330
7F
102
}
330
1F
100
AcDbEntity
  8
71_GS_LI
  6
Continuous
 48
4.0
370
    25
100
AcDbLine
 10
0.0
 20
-44.0
 30
0.0
 11
0.0
 21
-32.0
 31
0.0
  0
LINE
  5
8C
102
{ACAD_REACTORS
330
7F
102
}
330
1F
100
AcDbEntity
  8
71_GS_LI
  6
Continuous
 48
4.0
370
    25
100
AcDbLine
 10
16.0
 20
-44.0
 30
0.0
 11
16.00000000000001
 21
-56.00000000000002
 31
0.0
  0
LINE
  5
8D
102
{ACAD_REACTORS
330
7F
102
}
330
1F
100
AcDbEntity
  8
71_GS_LI
  6
Continuous
 48
4.0
370
    25
100
AcDbLine
 10
16.0
 20
-44.0
 30
0.0
 11
16.0
 21
-32.0
 31
0.0
  0
LINE
  5
8E
102
{ACAD_REACTORS
330
7F
102
}
330
1F
100
AcDbEntity
  8
71_GS_LI
  6
Continuous
 48
4.0
370
    25
100
AcDbLine
 10
0.0
 20
-4.0
 30
0.0
 11
0.0
 21
-16.0
 31
0.0
  0
TEXT
  5
92
102
{ACAD_REACTORS
330
91
102
}
330
1F
100
AcDbEntity
  8
75_GS_TXT
100
AcDbText
 10
32.0
 20
-26.69214010979158
 30
0.0
 40
2.5284
  1
SIEMENS
 11
32.0
 21
-28.0
 31
0.0
100
AcDbText
 73
     1
  0
LWPOLYLINE
  5
93
102
{ACAD_REACTORS
330
91
102
}
330
1F
100
AcDbEntity
  8
71_GS_LI
  6
Continuous
 48
4.0
370
    13
100
AcDbPolyline
 90
        4
 70
     1
 43
0.0
 10
-4.0
 20
-56.0
 10
32.0
 20
-56.0
 10
32.0
 20
-48.0
 10
-4.0
 20
-48.0
  0
LWPOLYLINE
  5
94
102
{ACAD_REACTORS
330
91
102
}
330
1F
100
AcDbEntity
  8
71_GS_LI
  6
Continuous
 48
4.0
370
    13
100
AcDbPolyline
 90
        4
 70
     1
 43
0.0
 10
-4.0
 20
-12.0
 10
24.0
 20
-12.0
 10
24.0
 20
-4.0
 10
-4.0
 20
-4.0
  0
LINE
  5
96
102
{ACAD_REACTORS
330
95
102
}
330
1F
100
AcDbEntity
  8
71_GS_LI
  6
Continuous
 48
4.0
370
    25
100
AcDbLine
 10
6.0
 20
-44.0
 30
0.0
 11
8.0
 21
-44.0
 31
0.0
  0
LINE
  5
97
102
{ACAD_REACTORS
330
95
102
}
330
1F
100
AcDbEntity
  8
71_GS_LI
  6
Continuous
 48
4.0
370
    25
100
AcDbLine
 10
8.0
 20
-44.0
 30
0.0
 11
8.0
 21
-46.0
 31
0.0
  0
LINE
  5
99
102
{ACAD_REACTORS
330
98
102
}
330
1F
100
AcDbEntity
  8
71_GS_LI
  6
Continuous
 48
4.0
370
    25
100
AcDbLine
 10
22.0
 20
-44.0
 30
0.0
 11
24.0
 21
-44.0
 31
0.0
  0
LINE
  5
9A
102
{ACAD_REACTORS
330
98
102
}
330
1F
100
AcDbEntity
  8
71_GS_LI
  6
Continuous
 48
4.0
370
    25
100
AcDbLine
 10
24.0
 20
-44.0
 30
0.0
 11
24.0
 21
-46.0
 31
0.0
  0
LWPOLYLINE
  5
9C
102
{ACAD_REACTORS
330
91
102
}
330
1F
100
AcDbEntity
  8
71_GS_LI
  6
Continuous
 48
4.0
370
    13
100
AcDbPolyline
 90
        4
 70
     1
 43
0.0
 10
36.0
 20
-56.0
 10
64.0
 20
-56.0
 10
64.0
 20
-48.0
 10
36.0
 20
-48.0
  0
LINE
  5
9E
102
{ACAD_REACTORS
330
9D
102
}
330
1F
100
AcDbEntity
  8
71_GS_LI
  6
Continuous
 48
4.0
370
    25
100
AcDbLine
 10
42.0
 20
-44.0
 30
0.0
 11
40.0
 21
-44.0
 31
0.0
  0
LINE
  5
9F
102
{ACAD_REACTORS
330
9D
102
}
330
1F
100
AcDbEntity
  8
71_GS_LI
  6
Continuous
 48
4.0
370
    25
100
AcDbLine
 10
40.0
 20
-44.0
 30
0.0
 11
40.0
 21
-46.0
 31
0.0
  0
LINE
  5
A1
102
{ACAD_REACTORS
330
A0
102
}
330
1F
100
AcDbEntity
  8
71_GS_LI
  6
Continuous
 48
4.0
370
    25
100
AcDbLine
 10
54.0
 20
-44.0
 30
0.0
 11
56.0
 21
-44.0
 31
0.0
  0
LINE
  5
A2
102
{ACAD_REACTORS
330
A0
102
}
330
1F
100
AcDbEntity
  8
71_GS_LI
  6
Continuous
 48
4.0
370
    25
100
AcDbLine
 10
56.0
 20
-44.0
 30
0.0
 11
56.0
 21
-46.0
 31
0.0
  0
LINE
  5
A4
102
{ACAD_REACTORS
330
A3
102
}
330
1F
100
AcDbEntity
  8
71_GS_LI
  6
Continuous
 48
4.0
370
    25
100
AcDbLine
 10
8.0
 20
-14.0
 30
0.0
 11
8.0
 21
-16.0
 31
0.0
  0
LINE
  5
A5
102
{ACAD_REACTORS
330
A3
102
}
330
1F
100
AcDbEntity
  8
71_GS_LI
  6
Continuous
 48
4.0
370
    25
100
AcDbLine
 10
8.0
 20
-16.0
 30
0.0
 11
10.0
 21
-16.0
 31
0.0
  0
LINE
  5
A7
102
{ACAD_REACTORS
330
A6
102
}
330
1F
100
AcDbEntity
  8
71_GS_LI
  6
Continuous
 48
4.0
370
    25
100
AcDbLine
 10
14.0
 20
-16.0
 30
0.0
 11
16.0
 21
-16.0
 31
0.0
  0
LINE
  5
A8
102
{ACAD_REACTORS
330
A6
102
}
330
1F
100
AcDbEntity
  8
71_GS_LI
  6
Continuous
 48
4.0
370
    25
100
AcDbLine
 10
16.0
 20
-16.0
 30
0.0
 11
16.0
 21
-18.0
 31
0.0
  0
LINE
  5
AA
102
{ACAD_REACTORS
330
A9
102
}
330
1F
100
AcDbEntity
  8
71_GS_LI
  6
Continuous
 48
4.0
370
    25
100
AcDbLine
 10
0.0
 20
-42.0
 30
0.0
 11
0.0
 21
-46.0
 31
0.0
  0
LINE
  5
AB
102
{ACAD_REACTORS
330
A9
102
}
330
1F
100
AcDbEntity
  8
71_GS_LI
  6
Continuous
 48
4.0
370
    25
100
AcDbLine
 10
2.0
 20
-44.0
 30
0.0
 11
0.0
 21
-44.0
 31
0.0
  0
CIRCLE
  5
AC
102
{ACAD_REACTORS
330
AD
330
A9
102
}
330
1F
100
AcDbEntity
  8
71_GS_LI
  6
Continuous
 48
4.0
370
    25
100
AcDbCircle
 10
0.0
 20
-44.0
 30
0.0
 40
0.75
  0
HATCH
  5
AD
330
1F
100
AcDbEntity
  8
71_GS_LI
  6
Continuous
 48
4.0
370
    25
100
AcDbHatch
 10
0.0
 20
0.0
 30
0.0
210
0.0
220
0.0
230
1.0
  2
SOLID
 70
     1
 71
     1
 91
        1
 92
        0
 93
        1
 72
     2
 10
0.0
 20
-44.0
 40
0.75
 50
0.0
 51
360.0
 73
     1
 97
        1
330
AC
 75
     0
 76
     1
 98
        0
  0
LINE
  5
AF
102
{ACAD_REACTORS
330
AE
102
}
330
1F
100
AcDbEntity
  8
71_GS_LI
  6
Continuous
 48
4.0
370
    25
100
AcDbLine
 10
16.0
 20
-42.0
 30
0.0
 11
16.0
 21
-46.0
 31
0.0
  0
LINE
  5
B0
102
{ACAD_REACTORS
330
AE
102
}
330
1F
100
AcDbEntity
  8
71_GS_LI
  6
Continuous
 48
4.0
370
    25
100
AcDbLine
 10
18.0
 20
-44.0
 30
0.0
 11
16.0
 21
-44.0
 31
0.0
  0
CIRCLE
  5
B1
102
{ACAD_REACTORS
330
B2
330
AE
102
}
330
1F
100
AcDbEntity
  8
71_GS_LI
  6
Continuous
 48
4.0
370
    25
100
AcDbCircle
 10
16.0
 20
-44.0
 30
0.0
 40
0.75
  0
HATCH
  5
B2
330
1F
100
AcDbEntity
  8
71_GS_LI
  6
Continuous
 48
4.0
370
    25
100
AcDbHatch
 10
0.0
 20
0.0
 30
0.0
210
0.0
220
0.0
230
1.0
  2
SOLID
 70
     1
 71
     1
 91
        1
 92
        0
 93
        1
 72
     2
 10
16.0
 20
-44.0
 40
0.75
 50
0.0
 51
360.0
 73
     1
 97
        1
330
B1
 75
     0
 76
     1
 98
        0
  0
TEXT
  5
B5
102
{ACAD_REACTORS
330
91
102
}
330
1F
100
AcDbEntity
  8
74_GS_BMK
100
AcDbText
 10
-8.534185635863153
 20
-57.2
 30
0.0
 40
1.806
  1

 50
90.00000000000018
 72
     2
 11
-7.6
 21
-57.2
 31
0.0
100
AcDbText
 73
     1
  0
TEXT
  5
B6
102
{ACAD_REACTORS
330
91
102
}
330
1F
100
AcDbEntity
  8
75_GS_TXT
100
AcDbText
 10
-5.072613657821471
 20
-57.2
 30
0.0
 40
1.30032
  1

 50
90.00000000000018
 72
     2
 11
-4.4
 21
-57.2
 31
0.0
100
AcDbText
 73
     1
  0
TEXT
  5
B7
102
{ACAD_REACTORS
330
91
102
}
330
1F
100
AcDbEntity
  8
75_GS_TXT
100
AcDbText
 10
-4.67261365782147
 20
-46.0
 30
0.0
 40
1.30032
  1

 50
90.00000000000018
 11
-4.0
 21
-46.0
 31
0.0
100
AcDbText
 73
     1
  0
TEXT
  5
B8
102
{ACAD_REACTORS
330
91
102
}
330
1F
100
AcDbEntity
  8
72_GS_AB
100
AcDbText
 10
-1.872613657821438
 20
-59.36763344000006
 30
0.0
 40
1.30032
  1
1+
 50
90.00000000000018
 72
     2
 11
-1.199999999999973
 21
-57.20000000000005
 31
0.0
100
AcDbText
 73
     1
  0
TEXT
  5
B9
102
{ACAD_REACTORS
330
91
102
}
330
1F
100
AcDbEntity
  8
73_GS_ABS
100
AcDbText
 10
-1.472613640003266
 20
-46.00000000000005
 30
0.0
 40
1.300319965553281
  1

 50
90.00000000000018
 11
-0.7999999999999734
 21
-46.00000000000005
 31
0.0
100
AcDbText
 73
     1
  0
LINE
  5
BB
102
{ACAD_REACTORS
330
BA
102
}
330
1F
100
AcDbEntity
  8
76_GS_AP
  6
Continuous
 48
4.0
370
    25
100
AcDbLine
 10
0.0000000000000355
 20
-60.00000000000007
 30
0.0
 11
0.0000000000000355
 21
-56.00000000000007
 31
0.0
  0
TEXT
  5
BC
102
{ACAD_REACTORS
330
91
102
}
330
1F
100
AcDbEntity
  8
74_GS_BMK
100
AcDbText
 10
-0.5341856358631536
 20
-57.2
 30
0.0
 40
1.806
  1

 50
90.00000000000018
 72
     2
 11
0.4000000000000004
 21
-57.2
 31
0.0
100
AcDbText
 73
     1
  0
TEXT
  5
BD
102
{ACAD_REACTORS
330
91
102
}
330
1F
100
AcDbEntity
  8
75_GS_TXT
100
AcDbText
 10
2.927386342178529
 20
-57.2
 30
0.0
 40
1.30032
  1

 50
90.00000000000018
 72
     2
 11
3.6
 21
-57.2
 31
0.0
100
AcDbText
 73
     1
  0
TEXT
  5
BE
102
{ACAD_REACTORS
330
91
102
}
330
1F
100
AcDbEntity
  8
75_GS_TXT
100
AcDbText
 10
3.327386342178529
 20
-46.0
 30
0.0
 40
1.30032
  1

 50
90.00000000000018
 11
4.0
 21
-46.0
 31
0.0
100
AcDbText
 73
     1
  0
TEXT
  5
BF
102
{ACAD_REACTORS
330
91
102
}
330
1F
100
AcDbEntity
  8
72_GS_AB
100
AcDbText
 10
6.127386342178563
 20
-59.80064000000006
 30
0.0
 40
1.30032
  1
2+
 50
90.00000000000018
 72
     2
 11
6.800000000000026
 21
-57.20000000000005
 31
0.0
100
AcDbText
 73
     1
  0
TEXT
  5
C0
102
{ACAD_REACTORS
330
91
102
}
330
1F
100
AcDbEntity
  8
73_GS_ABS
100
AcDbText
 10
6.527386359996735
 20
-46.00000000000005
 30
0.0
 40
1.300319965553281
  1

 50
90.00000000000018
 11
7.200000000000027
 21
-46.00000000000005
 31
0.0
100
AcDbText
 73
     1
  0
LINE
  5
C2
102
{ACAD_REACTORS
330
C1
102
}
330
1F
100
AcDbEntity
  8
76_GS_AP
  6
Continuous
 48
4.0
370
    25
100
AcDbLine
 10
8.000000000000036
 20
-60.00000000000007
 30
0.0
 11
8.000000000000036
 21
-56.00000000000007
 31
0.0
  0
TEXT
  5
C3
102
{ACAD_REACTORS
330
91
102
}
330
1F
100
AcDbEntity
  8
74_GS_BMK
100
AcDbText
 10
7.465814364136847
 20
-57.2
 30
0.0
 40
1.806
  1

 50
90.00000000000018
 72
     2
 11
8.4
 21
-57.2
 31
0.0
100
AcDbText
 73
     1
  0
TEXT
  5
C4
102
{ACAD_REACTORS
330
91
102
}
330
1F
100
AcDbEntity
  8
75_GS_TXT
100
AcDbText
 10
10.92738634217853
 20
-57.2
 30
0.0
 40
1.30032
  1

 50
90.00000000000018
 72
     2
 11
11.6
 21
-57.2
 31
0.0
100
AcDbText
 73
     1
  0
TEXT
  5
C5
102
{ACAD_REACTORS
330
91
102
}
330
1F
100
AcDbEntity
  8
75_GS_TXT
100
AcDbText
 10
11.32738634217853
 20
-46.0
 30
0.0
 40
1.30032
  1

 50
90.00000000000018
 11
12.0
 21
-46.0
 31
0.0
100
AcDbText
 73
     1
  0
TEXT
  5
C6
102
{ACAD_REACTORS
330
91
102
}
330
1F
100
AcDbEntity
  8
72_GS_AB
100
AcDbText
 10
14.12738634217856
 20
-59.36763344000006
 30
0.0
 40
1.30032
  1
1-
 50
90.00000000000018
 72
     2
 11
14.80000000000003
 21
-57.20000000000005
 31
0.0
100
AcDbText
 73
     1
  0
TEXT
  5
C7
102
{ACAD_REACTORS
330
91
102
}
330
1F
100
AcDbEntity
  8
73_GS_ABS
100
AcDbText
 10
14.52738635999673
 20
-46.00000000000005
 30
0.0
 40
1.300319965553281
  1

 50
90.00000000000018
 11
15.20000000000003
 21
-46.00000000000005
 31
0.0
100
AcDbText
 73
     1
  0
LINE
  5
C9
102
{ACAD_REACTORS
330
C8
102
}
330
1F
100
AcDbEntity
  8
76_GS_AP
  6
Continuous
 48
4.0
370
    25
100
AcDbLine
 10
16.00000000000004
 20
-60.00000000000007
 30
0.0
 11
16.00000000000004
 21
-56.00000000000007
 31
0.0
  0
TEXT
  5
CA
102
{ACAD_REACTORS
330
91
102
}
330
1F
100
AcDbEntity
  8
74_GS_BMK
100
AcDbText
 10
15.46581436413685
 20
-57.2
 30
0.0
 40
1.806
  1

 50
90.00000000000018
 72
     2
 11
16.4
 21
-57.2
 31
0.0
100
AcDbText
 73
     1
  0
TEXT
  5
CB
102
{ACAD_REACTORS
330
91
102
}
330
1F
100
AcDbEntity
  8
75_GS_TXT
100
AcDbText
 10
18.92738634217853
 20
-57.2
 30
0.0
 40
1.30032
  1

 50
90.00000000000018
 72
     2
 11
19.6
 21
-57.2
 31
0.0
100
AcDbText
 73
     1
  0
TEXT
  5
CC
102
{ACAD_REACTORS
330
91
102
}
330
1F
100
AcDbEntity
  8
75_GS_TXT
100
AcDbText
 10
19.32738634217853
 20
-46.0
 30
0.0
 40
1.30032
  1

 50
90.00000000000018
 11
20.0
 21
-46.0
 31
0.0
100
AcDbText
 73
     1
  0
TEXT
  5
CD
102
{ACAD_REACTORS
330
91
102
}
330
1F
100
AcDbEntity
  8
72_GS_AB
100
AcDbText
 10
22.12738634217856
 20
-59.80064000000006
 30
0.0
 40
1.30032
  1
2-
 50
90.00000000000018
 72
     2
 11
22.80000000000003
 21
-57.20000000000005
 31
0.0
100
AcDbText
 73
     1
  0
TEXT
  5
CE
102
{ACAD_REACTORS
330
91
102
}
330
1F
100
AcDbEntity
  8
73_GS_ABS
100
AcDbText
 10
22.52738635999674
 20
-46.00000000000005
 30
0.0
 40
1.300319965553281
  1

 50
90.00000000000018
 11
23.20000000000003
 21
-46.00000000000005
 31
0.0
100
AcDbText
 73
     1
  0
LINE
  5
D0
102
{ACAD_REACTORS
330
CF
102
}
330
1F
100
AcDbEntity
  8
76_GS_AP
  6
Continuous
 48
4.0
370
    25
100
AcDbLine
 10
24.00000000000004
 20
-60.00000000000007
 30
0.0
 11
24.00000000000004
 21
-56.00000000000007
 31
0.0
  0
TEXT
  5
D1
102
{ACAD_REACTORS
330
91
102
}
330
1F
100
AcDbEntity
  8
74_GS_BMK
100
AcDbText
 10
-8.534185635863153
 20
-2.800000000000002
 30
0.0
 40
1.806
  1

 50
90.00000000000018
 11
-7.6
 21
-2.8
 31
0.0
100
AcDbText
 73
     1
  0
TEXT
  5
D2
102
{ACAD_REACTORS
330
91
102
}
330
1F
100
AcDbEntity
  8
75_GS_TXT
100
AcDbText
 10
-5.072613657821471
 20
-2.800000000000002
 30
0.0
 40
1.30032
  1

 50
90.00000000000018
 11
-4.4
 21
-2.8
 31
0.0
100
AcDbText
 73
     1
  0
TEXT
  5
D3
102
{ACAD_REACTORS
330
91
102
}
330
1F
100
AcDbEntity
  8
75_GS_TXT
100
AcDbText
 10
-4.67261365782147
 20
-14.0
 30
0.0
 40
1.30032
  1

 50
90.00000000000018
 72
     2
 11
-4.0
 21
-14.0
 31
0.0
100
AcDbText
 73
     1
  0
TEXT
  5
D4
102
{ACAD_REACTORS
330
91
102
}
330
1F
100
AcDbEntity
  8
72_GS_AB
100
AcDbText
 10
-1.872613657821471
 20
-2.800000000000002
 30
0.0
 40
1.30032
  1
L1
 50
90.00000000000018
 11
-1.2
 21
-2.8
 31
0.0
100
AcDbText
 73
     1
  0
TEXT
  5
D5
102
{ACAD_REACTORS
330
91
102
}
330
1F
100
AcDbEntity
  8
73_GS_ABS
100
AcDbText
 10
-1.472613640003292
 20
-14.0
 30
0.0
 40
1.300319965553281
  1

 50
90.00000000000018
 72
     2
 11
-0.8
 21
-14.0
 31
0.0
100
AcDbText
 73
     1
  0
LINE
  5
D7
102
{ACAD_REACTORS
330
D6
102
}
330
1F
100
AcDbEntity
  8
76_GS_AP
  6
Continuous
 48
4.0
370
    25
100
AcDbLine
 10
0.0
 20
0.0
 30
0.0
 11
0.0
 21
-4.0
 31
0.0
  0
TEXT
  5
D8
102
{ACAD_REACTORS
330
91
102
}
330
1F
100
AcDbEntity
  8
74_GS_BMK
100
AcDbText
 10
-0.5341856358631536
 20
-2.800000000000002
 30
0.0
 40
1.806
  1

 50
90.00000000000018
 11
0.4000000000000004
 21
-2.8
 31
0.0
100
AcDbText
 73
     1
  0
TEXT
  5
D9
102
{ACAD_REACTORS
330
91
102
}
330
1F
100
AcDbEntity
  8
75_GS_TXT
100
AcDbText
 10
2.927386342178529
 20
-2.800000000000002
 30
0.0
 40
1.30032
  1

 50
90.00000000000018
 11
3.6
 21
-2.8
 31
0.0
100
AcDbText
 73
     1
  0
TEXT
  5
DA
102
{ACAD_REACTORS
330
91
102
}
330
1F
100
AcDbEntity
  8
75_GS_TXT
100
AcDbText
 10
3.327386342178529
 20
-14.0
 30
0.0
 40
1.30032
  1

 50
90.00000000000018
 72
     2
 11
4.0
 21
-14.0
 31
0.0
100
AcDbText
 73
     1
  0
TEXT
  5
DB
102
{ACAD_REACTORS
330
91
102
}
330
1F
100
AcDbEntity
  8
72_GS_AB
100
AcDbText
 10
6.127386342178529
 20
-2.800000000000002
 30
0.0
 40
1.30032
  1
N
 50
90.00000000000018
 11
6.8
 21
-2.8
 31
0.0
100
AcDbText
 73
     1
  0
TEXT
  5
DC
102
{ACAD_REACTORS
330
91
102
}
330
1F
100
AcDbEntity
  8
73_GS_ABS
100
AcDbText
 10
6.527386359996708
 20
-14.0
 30
0.0
 40
1.300319965553281
  1

 50
90.00000000000018
 72
     2
 11
7.2
 21
-14.0
 31
0.0
100
AcDbText
 73
     1
  0
LINE
  5
DE
102
{ACAD_REACTORS
330
DD
102
}
330
1F
100
AcDbEntity
  8
76_GS_AP
  6
Continuous
 48
4.0
370
    25
100
AcDbLine
 10
8.0
 20
0.0
 30
0.0
 11
8.0
 21
-4.0
 31
0.0
  0
TEXT
  5
DF
102
{ACAD_REACTORS
330
91
102
}
330
1F
100
AcDbEntity
  8
74_GS_BMK
100
AcDbText
 10
7.465814364136847
 20
-2.800000000000002
 30
0.0
 40
1.806
  1

 50
90.00000000000018
 11
8.4
 21
-2.8
 31
0.0
100
AcDbText
 73
     1
  0
TEXT
  5
E0
102
{ACAD_REACTORS
330
91
102
}
330
1F
100
AcDbEntity
  8
75_GS_TXT
100
AcDbText
 10
10.92738634217853
 20
-2.800000000000002
 30
0.0
 40
1.30032
  1

 50
90.00000000000018
 11
11.6
 21
-2.8
 31
0.0
100
AcDbText
 73
     1
  0
TEXT
  5
E1
102
{ACAD_REACTORS
330
91
102
}
330
1F
100
AcDbEntity
  8
75_GS_TXT
100
AcDbText
 10
11.32738634217853
 20
-14.0
 30
0.0
 40
1.30032
  1

 50
90.00000000000018
 72
     2
 11
12.0
 21
-14.0
 31
0.0
100
AcDbText
 73
     1
  0
TEXT
  5
E2
102
{ACAD_REACTORS
330
91
102
}
330
1F
100
AcDbEntity
  8
72_GS_AB
100
AcDbText
 10
14.12738634217853
 20
-2.800000000000002
 30
0.0
 40
1.30032
  1
PE
 50
90.00000000000018
 11
14.8
 21
-2.8
 31
0.0
100
AcDbText
 73
     1
  0
TEXT
  5
E3
102
{ACAD_REACTORS
330
91
102
}
330
1F
100
AcDbEntity
  8
73_GS_ABS
100
AcDbText
 10
14.52738635999671
 20
-14.0
 30
0.0
 40
1.300319965553281
  1

 50
90.00000000000018
 72
     2
 11
15.2
 21
-14.0
 31
0.0
100
AcDbText
 73
     1
  0
LINE
  5
E5
102
{ACAD_REACTORS
330
E4
102
}
330
1F
100
AcDbEntity
  8
76_GS_AP
  6
Continuous
 48
4.0
370
    25
100
AcDbLine
 10
16.0
 20
0.0
 30
0.0
 11
16.0
 21
-4.0
 31
0.0
  0
TEXT
  5
E6
102
{ACAD_REACTORS
330
91
102
}
330
1F
100
AcDbEntity
  8
74_GS_BMK
100
AcDbText
 10
-14.618204
 20
-6.706
 30
0.0
 40
1.806
  1
-?T
 72
     2
 11
-9.5
 21
-4.9
 31
0.0
100
AcDbText
 73
     3
  0
TEXT
  5
E7
102
{ACAD_REACTORS
330
91
102
}
330
1F
100
AcDbEntity
  8
75_GS_TXT
100
AcDbText
 10
-8.0
 20
-5.58832
 30
0.0
 40
1.30032
  1

 72
     2
 11
-8.0
 21
-4.288
 31
0.0
100
AcDbText
 73
     3
  0
TEXT
  5
E8
102
{ACAD_REACTORS
330
91
102
}
330
1F
100
AcDbEntity
  8
75_GS_TXT
100
AcDbText
 10
-8.0
 20
-3.327386342178529
 30
0.0
 40
1.30032
  1

 11
-8.0
 21
-4.0
 31
0.0
100
AcDbText
 73
     1
  0
TEXT
  5
E9
102
{ACAD_REACTORS
330
91
102
}
330
1F
100
AcDbEntity
  8
75_GS_TXT
100
AcDbText
 10
35.19677968
 20
-29.58832
 30
0.0
 40
1.30032
  1
SITOP PSU100S
 72
     1
 11
43.0
 21
-28.288
 31
0.0
100
AcDbText
 73
     3
  0
TEXT
  5
EA
102
{ACAD_REACTORS
330
91
102
}
330
1F
100
AcDbEntity
  8
75_GS_TXT
100
AcDbText
 10
37.25648656
 20
-32.28832
 30
0.0
 40
1.30032
  1
24 V/10 A
 72
     1
 11
43.0
 21
-30.988
 31
0.0
100
AcDbText
 73
     3
  0
TEXT
  5
EB
102
{ACAD_REACTORS
330
91
102
}
330
1F
100
AcDbEntity
  8
75_GS_TXT
100
AcDbText
 10
34.87234984
 20
-34.98831999999999
 30
0.0
 40
1.30032
  1
6EP1334-2BA20
 72
     1
 11
43.0
 21
-33.688
 31
0.0
100
AcDbText
 73
     3
  0
TEXT
  5
EC
102
{ACAD_REACTORS
330
91
102
}
330
1F
100
AcDbEntity
  8
74_GS_BMK
100
AcDbText
 10
36.0
 20
-19.32738634217853
 30
0.0
 40
1.30032
  1

 11
36.0
 21
-20.0
 31
0.0
100
AcDbText
 73
     1
  0
TEXT
  5
ED
102
{ACAD_REACTORS
330
91
102
}
330
1F
100
AcDbEntity
  8
74_GS_BMK
100
AcDbText
 10
48.0
 20
-47.32738634217853
 30
0.0
 40
1.30032
  1

 72
     1
 11
48.0
 21
-48.0
 31
0.0
100
AcDbText
 73
     1
  0
LWPOLYLINE
  5
EE
102
{ACAD_REACTORS
330
91
102
}
330
1F
100
AcDbEntity
  8
71_GS_LI
  6
Continuous
 48
4.0
370
    25
100
AcDbPolyline
 90
        4
 70
     1
 43
0.0
 10
-8.0
 20
-56.0
 10
68.0
 20
-56.0
 10
68.0
 20
-4.0
 10
-8.0
 20
-4.0
  0
TEXT
  5
EF
102
{ACAD_REACTORS
330
91
102
}
330
1F
100
AcDbEntity
  8
74_GS_BMK
100
AcDbText
 10
47.46581436413685
 20
-57.2
 30
0.0
 40
1.806
  1

 50
90.00000000000018
 72
     2
 11
48.4
 21
-57.2
 31
0.0
100
AcDbText
 73
     1
  0
TEXT
  5
F0
102
{ACAD_REACTORS
330
91
102
}
330
1F
100
AcDbEntity
  8
75_GS_TXT
100
AcDbText
 10
50.92738634217853
 20
-57.2
 30
0.0
 40
1.30032
  1

 50
90.00000000000018
 72
     2
 11
51.6
 21
-57.2
 31
0.0
100
AcDbText
 73
     1
  0
TEXT
  5
F1
102
{ACAD_REACTORS
330
91
102
}
330
1F
100
AcDbEntity
  8
75_GS_TXT
100
AcDbText
 10
51.32738634217853
 20
-46.0
 30
0.0
 40
1.30032
  1

 50
90.00000000000018
 11
52.0
 21
-46.0
 31
0.0
100
AcDbText
 73
     1
  0
TEXT
  5
F2
102
{ACAD_REACTORS
330
91
102
}
330
1F
100
AcDbEntity
  8
72_GS_AB
100
AcDbText
 10
54.12738634217856
 20
-59.36763344000006
 30
0.0
 40
1.30032
  1
14
 50
90.00000000000018
 72
     2
 11
54.80000000000003
 21
-57.20000000000005
 31
0.0
100
AcDbText
 73
     1
  0
TEXT
  5
F3
102
{ACAD_REACTORS
330
91
102
}
330
1F
100
AcDbEntity
  8
73_GS_ABS
100
AcDbText
 10
54.52738635999673
 20
-46.00000000000005
 30
0.0
 40
1.300319965553281
  1

 50
90.00000000000018
 11
55.20000000000002
 21
-46.00000000000005
 31
0.0
100
AcDbText
 73
     1
  0
LINE
  5
F5
102
{ACAD_REACTORS
330
F4
102
}
330
1F
100
AcDbEntity
  8
76_GS_AP
  6
Continuous
 48
4.0
370
    25
100
AcDbLine
 10
56.00000000000004
 20
-60.00000000000007
 30
0.0
 11
56.00000000000004
 21
-56.00000000000007
 31
0.0
  0
TEXT
  5
F6
102
{ACAD_REACTORS
330
91
102
}
330
1F
100
AcDbEntity
  8
74_GS_BMK
100
AcDbText
 10
31.46581436413684
 20
-57.2
 30
0.0
 40
1.806
  1

 50
90.00000000000018
 72
     2
 11
32.4
 21
-57.2
 31
0.0
100
AcDbText
 73
     1
  0
TEXT
  5
F7
102
{ACAD_REACTORS
330
91
102
}
330
1F
100
AcDbEntity
  8
75_GS_TXT
100
AcDbText
 10
34.92738634217853
 20
-57.2
 30
0.0
 40
1.30032
  1

 50
90.00000000000018
 72
     2
 11
35.6
 21
-57.2
 31
0.0
100
AcDbText
 73
     1
  0
TEXT
  5
F8
102
{ACAD_REACTORS
330
91
102
}
330
1F
100
AcDbEntity
  8
75_GS_TXT
100
AcDbText
 10
35.32738634217853
 20
-46.0
 30
0.0
 40
1.30032
  1

 50
90.00000000000018
 11
36.0
 21
-46.0
 31
0.0
100
AcDbText
 73
     1
  0
TEXT
  5
F9
102
{ACAD_REACTORS
330
91
102
}
330
1F
100
AcDbEntity
  8
72_GS_AB
100
AcDbText
 10
38.12738634217856
 20
-59.36763344000006
 30
0.0
 40
1.30032
  1
13
 50
90.00000000000018
 72
     2
 11
38.80000000000003
 21
-57.20000000000005
 31
0.0
100
AcDbText
 73
     1
  0
TEXT
  5
FA
102
{ACAD_REACTORS
330
91
102
}
330
1F
100
AcDbEntity
  8
73_GS_ABS
100
AcDbText
 10
38.52738635999673
 20
-46.00000000000005
 30
0.0
 40
1.300319965553281
  1

 50
90.00000000000018
 11
39.20000000000002
 21
-46.00000000000005
 31
0.0
100
AcDbText
 73
     1
  0
LINE
  5
FC
102
{ACAD_REACTORS
330
FB
102
}
330
1F
100
AcDbEntity
  8
76_GS_AP
  6
Continuous
 48
4.0
370
    25
100
AcDbLine
 10
40.00000000000004
 20
-60.00000000000007
 30
0.0
 11
40.00000000000004
 21
-56.00000000000007
 31
0.0
  0
TEXT
  5
FD
102
{ACAD_REACTORS
330
91
102
}
330
1F
100
AcDbEntity
  8
73_GS_ABS
100
AcDbText
 10
43.44953028054629
 20
-45.58831995792389
 30
0.0
 40
1.300319965553281
  1
24V O.K.
 72
     1
 11
48.0
 21
-44.28799999237061
 31
0.0
100
AcDbText
 73
     3
  0
LINE
  5
FF
102
{ACAD_REACTORS
330
FE
102
}
330
1F
100
AcDbEntity
  8
71_GS_LI
  6
Continuous
370
    25
100
AcDbLine
 10
46.00210044568241
 20
-44.00341166647861
 30
0.0
 11
44.00210044568241
 21
-44.00341166647861
 31
0.0
  0
LINE
  5
100
102
{ACAD_REACTORS
330
FE
102
}
330
1F
100
AcDbEntity
  8
71_GS_LI
  6
Continuous
 48
4.0
370
    25
100
AcDbLine
 10
50.5
 20
-41.5
 30
0.0
 11
46.00210044568241
 21
-44.00341166647861
 31
0.0
  0
LINE
  5
101
102
{ACAD_REACTORS
330
FE
102
}
330
1F
100
AcDbEntity
  8
71_GS_LI
  6
Continuous
370
    25
100
AcDbLine
 10
52.0
 20
-44.0
 30
0.0
 11
50.0
 21
-44.0
 31
0.0
  0
ARC
  5
103
102
{ACAD_REACTORS
330
102
102
}
330
1F
100
AcDbEntity
  8
71_GS_LI
  6
Continuous
 48
4.0
370
    25
100
AcDbCircle
 10
3.34777082672301
 20
-20.21773294264599
 30
0.0
 40
1.55
100
AcDbArc
 50
209.9999999999999
 51
0.0
  0
LINE
  5
104
102
{ACAD_REACTORS
330
102
102
}
330
1F
100
AcDbEntity
  8
71_GS_LI
  6
Continuous
 48
4.0
370
    25
100
AcDbLine
 10
10.97858738743
 20
-27.468069107232
 30
0.0
 11
13.17858738743
 21
-27.468069107232
 31
0.0
  0
LINE
  5
105
102
{ACAD_REACTORS
330
102
102
}
330
1F
100
AcDbEntity
  8
71_GS_LI
  6
Continuous
 48
4.0
370
    25
100
AcDbLine
 10
0.0
 20
-18.0
 30
0.0
 11
0.0
 21
-16.0
 31
0.0
  0
LINE
  5
106
102
{ACAD_REACTORS
330
102
102
}
330
1F
100
AcDbEntity
  8
71_GS_LI
  6
Continuous
 48
4.0
370
    25
100
AcDbLine
 10
16.0
 20
-32.0
 30
0.0
 11
16.0
 21
-30.0
 31
0.0
  0
LINE
  5
107
102
{ACAD_REACTORS
330
102
102
}
330
1F
100
AcDbEntity
  8
71_GS_LI
  6
Continuous
 48
4.0
370
    25
100
AcDbLine
 10
16.97858738743
 20
-27.468069107232
 30
0.0
 11
14.77858738743
 21
-27.468069107232
 31
0.0
  0
ARC
  5
108
102
{ACAD_REACTORS
330
102
102
}
330
1F
100
AcDbEntity
  8
71_GS_LI
  6
Continuous
 48
4.0
370
    25
100
AcDbCircle
 10
0.619790804802026
 20
-21.79273294264598
 30
0.0
 40
1.6
100
AcDbArc
 50
30.00000000000031
 51
179.9999999999998
  0
LINE
  5
109
102
{ACAD_REACTORS
330
102
102
}
330
1F
100
AcDbEntity
  8
71_GS_LI
  6
Continuous
 48
4.0
370
    25
100
AcDbLine
 10
-2.0
 20
-30.0
 30
0.0
 11
18.0
 21
-18.0
 31
0.0
  0
LINE
  5
10A
102
{ACAD_REACTORS
330
102
102
}
330
1F
100
AcDbEntity
  8
71_GS_LI
  6
Continuous
 48
4.0
370
    25
100
AcDbLine
 10
16.0
 20
-18.0
 30
0.0
 11
16.0
 21
-16.0
 31
0.0
  0
LINE
  5
10B
102
{ACAD_REACTORS
330
102
102
}
330
1F
100
AcDbEntity
  8
71_GS_LI
  6
Continuous
 48
4.0
370
    25
100
AcDbLine
 10
10.97858738743
 20
-26.468069107232
 30
0.0
 11
16.97858738743
 21
-26.468069107232
 31
0.0
  0
LWPOLYLINE
  5
10C
102
{ACAD_REACTORS
330
102
102
}
330
1F
100
AcDbEntity
  8
71_GS_LI
  6
Continuous
 48
4.0
370
    25
100
AcDbPolyline
 90
        4
 70
     1
 43
0.0
 10
-2.0
 20
-30.0
 10
18.0
 20
-30.0
 10
18.0
 20
-18.0
 10
-2.0
 20
-18.0
  0
LINE
  5
10D
102
{ACAD_REACTORS
330
102
102
}
330
1F
100
AcDbEntity
  8
71_GS_LI
  6
Continuous
 48
4.0
370
    25
100
AcDbLine
 10
0.0
 20
-32.0
 30
0.0
 11
0.0
 21
-30.0
 31
0.0
  0
MTEXT
  5
10E
102
{ACAD_REACTORS
330
91
102
}
330
1F
100
AcDbEntity
  8
75_GS_TXT
100
AcDbMText
 10
56.0
 20
-14.0864
 30
0.0
 40
1.30032
 41
0.0
 46
0.0
 71
     6
 72
     1
  1
ADJUST\P22.8...28V\PDEFAULT VALUE\P24V
 73
     2
 44
1.0
  0
LINE
  5
110
102
{ACAD_REACTORS
330
10F
102
}
330
1F
100
AcDbEntity
  8
71_GS_LI
  6
Continuous
 48
4.0
370
    25
100
AcDbLine
 10
63.0
 20
-17.0
 30
0.0
 11
58.0
 21
-12.0
 31
0.0
  0
LINE
  5
111
102
{ACAD_REACTORS
330
10F
102
}
330
1F
100
AcDbEntity
  8
71_GS_LI
  6
Continuous
 48
4.0
370
    25
100
AcDbLine
 10
60.0
 20
-17.0
 30
0.0
 11
60.0
 21
-20.0
 31
0.0
  0
LINE
  5
112
102
{ACAD_REACTORS
330
10F
102
}
330
1F
100
AcDbEntity
  8
71_GS_LI
  6
Continuous
 48
4.0
370
    25
100
AcDbLine
 10
62.4375
 20
-17.5625
 30
0.0
 11
63.5625
 21
-16.4375
 31
0.0
  0
LINE
  5
113
102
{ACAD_REACTORS
330
10F
102
}
330
1F
100
AcDbEntity
  8
71_GS_LI
  6
Continuous
 48
4.0
370
    25
100
AcDbLine
 10
60.0
 20
-8.0
 30
0.0
 11
60.0
 21
-11.0
 31
0.0
  0
LWPOLYLINE
  5
114
102
{ACAD_REACTORS
330
10F
102
}
330
1F
100
AcDbEntity
  8
71_GS_LI
  6
Continuous
 48
4.0
370
    25
100
AcDbPolyline
 90
        4
 70
     1
 43
0.0
 10
59.0
 20
-17.0
 10
61.0
 20
-17.0
 10
61.0
 20
-11.0
 10
59.0
 20
-11.0
  0
ENDSEC
  0
SECTION
  2
OBJECTS
  0
DICTIONARY
  5
C
330
0
100
AcDbDictionary
281
     1
  3
ACAD_DETAILVIEWSTYLE
350
11C
  3
ACAD_GROUP
350
D
  3
ACAD_IMAGE_VARS
350
6E
  3
ACAD_LAYOUT
350
1A
  3
ACAD_MATERIAL
350
43
  3
ACAD_MLEADERSTYLE
350
6B
  3
ACAD_MLINESTYLE
350
17
  3
ACAD_PLOTSETTINGS
350
19
  3
ACAD_PLOTSTYLENAME
350
E
  3
ACAD_SCALELIST
350
47
  3
ACAD_SECTIONVIEWSTYLE
350
11D
  3
ACAD_TABLESTYLE
350
69
  3
ACAD_VISUALSTYLE
350
2A
  3
ACDB_RECOMPOSE_DATA
350
119
  3
AcDbVariableDictionary
350
115
  0
SUN
  5
6D
330
29
100
AcDbSun
 90
        1
290
     0
 63
     7
421
 16777215
 40
1.0
291
     1
 91
  2455826
 92
 54000000
292
     0
 70
     2
 71
   256
280
     1
  0
DICTIONARY
  5
11C
102
{ACAD_REACTORS
330
C
102
}
330
C
100
AcDbDictionary
281
     1
  0
DICTIONARY
  5
D
102
{ACAD_REACTORS
330
C
102
}
330
C
100
AcDbDictionary
281
     1
  3
EPLGROUP
350
7E
  3
EPLGROUP_1
350
7F
  3
EPLGROUP_10
350
A3
  3
EPLGROUP_11
350
A6
  3
EPLGROUP_12
350
A9
  3
EPLGROUP_13
350
AE
  3
EPLGROUP_14
350
B3
  3
EPLGROUP_15
350
B4
  3
EPLGROUP_16
350
BA
  3
EPLGROUP_17
350
C1
  3
EPLGROUP_18
350
C8
  3
EPLGROUP_19
350
CF
  3
EPLGROUP_2
350
8F
  3
EPLGROUP_20
350
D6
  3
EPLGROUP_21
350
DD
  3
EPLGROUP_22
350
E4
  3
EPLGROUP_23
350
F4
  3
EPLGROUP_24
350
FB
  3
EPLGROUP_25
350
FE
  3
EPLGROUP_26
350
102
  3
EPLGROUP_27
350
10F
  3
EPLGROUP_3
350
90
  3
EPLGROUP_4
350
91
  3
EPLGROUP_5
350
95
  3
EPLGROUP_6
350
98
  3
EPLGROUP_7
350
9B
  3
EPLGROUP_8
350
9D
  3
EPLGROUP_9
350
A0
  0
RASTERVARIABLES
  5
6E
102
{ACAD_REACTORS
330
C
102
}
330
C
100
AcDbRasterVariables
 90
        0
 70
     0
 71
     1
 72
     1
  0
DICTIONARY
  5
1A
102
{ACAD_REACTORS
330
C
102
}
330
C
100
AcDbDictionary
281
     1
  3
Layout1
350
1E
  3
Layout2
350
26
  3
Model
350
22
  0
DICTIONARY
  5
43
102
{ACAD_REACTORS
330
C
102
}
330
C
100
AcDbDictionary
281
     1
  3
ByBlock
350
45
  3
ByLayer
350
44
  3
Global
350
46
  0
DICTIONARY
  5
6B
102
{ACAD_REACTORS
330
C
102
}
330
C
100
AcDbDictionary
281
     1
  3
Standard
350
6C
  0
DICTIONARY
  5
17
102
{ACAD_REACTORS
330
C
102
}
330
C
100
AcDbDictionary
281
     1
  3
Standard
350
18
  0
DICTIONARY
  5
19
102
{ACAD_REACTORS
330
C
102
}
330
C
100
AcDbDictionary
281
     1
  0
ACDBDICTIONARYWDFLT
  5
E
102
{ACAD_REACTORS
330
C
102
}
330
C
100
AcDbDictionary
281
     1
  3
Normal
350
F
100
AcDbDictionaryWithDefault
340
F
  0
DICTIONARY
  5
47
102
{ACAD_REACTORS
330
C
102
}
330
C
100
AcDbDictionary
281
     1
  3
A0
350
48
  3
A1
350
49
  3
A2
350
4A
  3
A3
350
4B
  3
A4
350
4C
  3
A5
350
4D
  3
A6
350
4E
  3
A7
350
4F
  3
A8
350
50
  3
A9
350
51
  3
B0
350
52
  3
B1
350
53
  3
B2
350
54
  3
B3
350
55
  3
B4
350
56
  3
B5
350
57
  3
B6
350
58
  3
B7
350
59
  3
B8
350
5A
  3
B9
350
5B
  3
C0
350
5C
  3
C1
350
5D
  3
C2
350
5E
  3
C3
350
5F
  3
C4
350
60
  3
C5
350
61
  3
C6
350
62
  3
C7
350
63
  3
C8
350
64
  3
C9
350
65
  3
D0
350
66
  3
D1
350
67
  3
D2
350
68
  0
DICTIONARY
  5
11D
102
{ACAD_REACTORS
330
C
102
}
330
C
100
AcDbDictionary
281
     1
  0
DICTIONARY
  5
69
102
{ACAD_REACTORS
330
C
102
}
330
C
100
AcDbDictionary
281
     1
  3
Standard
350
6A
  0
DICTIONARY
  5
2A
102
{ACAD_REACTORS
330
C
102
}
330
C
100
AcDbDictionary
281
     1
  3
2dWireframe
350
2F
  3
Basic
350
32
  3
Brighten
350
36
  3
ColorChange
350
3A
  3
Conceptual
350
34
  3
Dim
350
35
  3
EdgeColorOff
350
3D
  3
Facepattern
350
39
  3
Flat
350
2B
  3
FlatWithEdges
350
2C
  3
Gouraud
350
2D
  3
GouraudWithEdges
350
2E
  3
Hidden
350
31
  3
JitterOff
350
3B
  3
Linepattern
350
38
  3
OverhangOff
350
3C
  3
Realistic
350
33
  3
Shaded
350
42
  3
Shaded with edges
350
41
  3
Shades of Gray
350
3E
  3
Sketchy
350
3F
  3
Thicken
350
37
  3
Wireframe
350
30
  3
X-Ray
350
40
  0
XRECORD
  5
119
102
{ACAD_REACTORS
330
C
102
}
330
C
100
AcDbXrecord
280
     1
 90
        1
330
6A
  0
DICTIONARY
  5
115
102
{ACAD_REACTORS
330
C
102
}
330
C
100
AcDbDictionary
281
     1
  3
CANNOSCALE
350
116
  3
CMLEADERSTYLE
350
11B
  3
CTABLESTYLE
350
11A
  3
SECTIONTHICKNESSINC
350
11E
  0
GROUP
  5
7E
102
{ACAD_REACTORS
330
D
102
}
330
D
100
AcDbGroup
300

 70
     0
 71
     0
  0
GROUP
  5
7F
102
{ACAD_REACTORS
330
D
102
}
330
D
100
AcDbGroup
300

 70
     0
 71
     0
340
80
340
81
340
82
340
83
340
84
340
85
340
86
340
87
340
88
340
89
340
8A
340
8B
340
8C
340
8D
340
8E
  0
GROUP
  5
A3
102
{ACAD_REACTORS
330
D
102
}
330
D
100
AcDbGroup
300

 70
     0
 71
     0
340
A4
340
A5
  0
GROUP
  5
A6
102
{ACAD_REACTORS
330
D
102
}
330
D
100
AcDbGroup
300

 70
     0
 71
     0
340
A7
340
A8
  0
GROUP
  5
A9
102
{ACAD_REACTORS
330
D
102
}
330
D
100
AcDbGroup
300

 70
     0
 71
     0
340
AA
340
AB
340
AC
  0
GROUP
  5
AE
102
{ACAD_REACTORS
330
D
102
}
330
D
100
AcDbGroup
300

 70
     0
 71
     0
340
AF
340
B0
340
B1
  0
GROUP
  5
B3
102
{ACAD_REACTORS
330
D
102
}
330
D
100
AcDbGroup
300

 70
     0
 71
     0
  0
GROUP
  5
B4
102
{ACAD_REACTORS
330
D
102
}
330
D
100
AcDbGroup
300

 70
     0
 71
     0
  0
GROUP
  5
BA
102
{ACAD_REACTORS
330
D
102
}
330
D
100
AcDbGroup
300

 70
     0
 71
     0
340
BB
  0
GROUP
  5
C1
102
{ACAD_REACTORS
330
D
102
}
330
D
100
AcDbGroup
300

 70
     0
 71
     0
340
C2
  0
GROUP
  5
C8
102
{ACAD_REACTORS
330
D
102
}
330
D
100
AcDbGroup
300

 70
     0
 71
     0
340
C9
  0
GROUP
  5
CF
102
{ACAD_REACTORS
330
D
102
}
330
D
100
AcDbGroup
300

 70
     0
 71
     0
340
D0
  0
GROUP
  5
8F
102
{ACAD_REACTORS
330
D
102
}
330
D
100
AcDbGroup
300

 70
     0
 71
     0
  0
GROUP
  5
D6
102
{ACAD_REACTORS
330
D
102
}
330
D
100
AcDbGroup
300

 70
     0
 71
     0
340
D7
  0
GROUP
  5
DD
102
{ACAD_REACTORS
330
D
102
}
330
D
100
AcDbGroup
300

 70
     0
 71
     0
340
DE
  0
GROUP
  5
E4
102
{ACAD_REACTORS
330
D
102
}
330
D
100
AcDbGroup
300

 70
     0
 71
     0
340
E5
  0
GROUP
  5
F4
102
{ACAD_REACTORS
330
D
102
}
330
D
100
AcDbGroup
300

 70
     0
 71
     0
340
F5
  0
GROUP
  5
FB
102
{ACAD_REACTORS
330
D
102
}
330
D
100
AcDbGroup
300

 70
     0
 71
     0
340
FC
  0
GROUP
  5
FE
102
{ACAD_REACTORS
330
D
102
}
330
D
100
AcDbGroup
300

 70
     0
 71
     0
340
FF
340
100
340
101
  0
GROUP
  5
102
102
{ACAD_REACTORS
330
D
102
}
330
D
100
AcDbGroup
300

 70
     0
 71
     0
340
103
340
104
340
105
340
106
340
107
340
108
340
109
340
10A
340
10B
340
10C
340
10D
  0
GROUP
  5
10F
102
{ACAD_REACTORS
330
D
102
}
330
D
100
AcDbGroup
300

 70
     0
 71
     0
340
110
340
111
340
112
340
113
340
114
  0
GROUP
  5
90
102
{ACAD_REACTORS
330
D
102
}
330
D
100
AcDbGroup
300

 70
     0
 71
     0
  0
GROUP
  5
91
102
{ACAD_REACTORS
330
D
102
}
330
D
100
AcDbGroup
300

 70
     0
 71
     0
340
92
340
93
340
94
340
9C
340
B5
340
B6
340
B7
340
B8
340
B9
340
BC
340
BD
340
BE
340
BF
340
C0
340
C3
340
C4
340
C5
340
C6
340
C7
340
CA
340
CB
340
CC
340
CD
340
CE
340
D1
340
D2
340
D3
340
D4
340
D5
340
D8
340
D9
340
DA
340
DB
340
DC
340
DF
340
E0
340
E1
340
E2
340
E3
340
E6
340
E7
340
E8
340
E9
340
EA
340
EB
340
EC
340
ED
340
EE
340
EF
340
F0
340
F1
340
F2
340
F3
340
F6
340
F7
340
F8
340
F9
340
FA
340
FD
340
10E
  0
GROUP
  5
95
102
{ACAD_REACTORS
330
D
102
}
330
D
100
AcDbGroup
300

 70
     0
 71
     0
340
96
340
97
  0
GROUP
  5
98
102
{ACAD_REACTORS
330
D
102
}
330
D
100
AcDbGroup
300

 70
     0
 71
     0
340
99
340
9A
  0
GROUP
  5
9B
102
{ACAD_REACTORS
330
D
102
}
330
D
100
AcDbGroup
300

 70
     0
 71
     0
  0
GROUP
  5
9D
102
{ACAD_REACTORS
330
D
102
}
330
D
100
AcDbGroup
300

 70
     0
 71
     0
340
9E
340
9F
  0
GROUP
  5
A0
102
{ACAD_REACTORS
330
D
102
}
330
D
100
AcDbGroup
300

 70
     0
 71
     0
340
A1
340
A2
  0
LAYOUT
  5
1E
102
{ACAD_REACTORS
330
1A
102
}
330
1A
100
AcDbPlotSettings
  1

  2
none_device
  4

  6

 40
0.0
 41
0.0
 42
0.0
 43
0.0
 44
0.0
 45
0.0
 46
0.0
 47
0.0
 48
0.0
 49
0.0
140
0.0
141
0.0
142
1.0
143
1.0
 70
   688
 72
     1
 73
     0
 74
     5
  7

 75
    16
 76
     0
 77
     2
 78
   300
147
1.0
148
0.0
149
0.0
100
AcDbLayout
  1
Layout1
 70
     1
 71
     1
 10
-13.92
 20
-60.12500000000007
 11
68.125
 21
0.125
 12
0.0
 22
0.0
 32
0.0
 14
-13.92
 24
-60.12500000000007
 34
0.0
 15
68.125
 25
0.125
 35
0.0
146
0.0
 13
0.0
 23
0.0
 33
0.0
 16
1.0
 26
0.0
 36
0.0
 17
0.0
 27
1.0
 37
0.0
 76
     0
330
1B
  0
LAYOUT
  5
26
102
{ACAD_REACTORS
330
1A
102
}
330
1A
100
AcDbPlotSettings
  1

  2
none_device
  4

  6

 40
0.0
 41
0.0
 42
0.0
 43
0.0
 44
0.0
 45
0.0
 46
0.0
 47
0.0
 48
0.0
 49
0.0
140
0.0
141
0.0
142
1.0
143
1.0
 70
   688
 72
     1
 73
     0
 74
     5
  7

 75
    16
 76
     0
 77
     2
 78
   300
147
1.0
148
0.0
149
0.0
100
AcDbLayout
  1
Layout2
 70
     1
 71
     2
 10
0.0
 20
0.0
 11
0.0
 21
0.0
 12
0.0
 22
0.0
 32
0.0
 14
0.0
 24
0.0
 34
0.0
 15
0.0
 25
0.0
 35
0.0
146
0.0
 13
0.0
 23
0.0
 33
0.0
 16
1.0
 26
0.0
 36
0.0
 17
0.0
 27
1.0
 37
0.0
 76
     0
330
23
  0
LAYOUT
  5
22
102
{ACAD_REACTORS
330
1A
102
}
330
1A
100
AcDbPlotSettings
  1

  2
none_device
  4
Letter_(8.50_x_11.00_Inches)
  6

 40
6.35
 41
6.35
 42
6.35000508
 43
6.35000508
 44
215.9
 45
279.4
 46
0.0
 47
0.0
 48
0.0
 49
0.0
140
0.0
141
0.0
142
1.0
143
1.0
 70
  1714
 72
     1
 73
     0
 74
     0
  7

 75
     0
 76
     0
 77
     2
 78
   300
147
1.0
148
0.0
149
0.0
100
AcDbLayout
  1
Model
 70
     1
 71
     0
 10
-13.92
 20
-60.12500000000007
 11
68.125
 21
0.125
 12
0.0
 22
0.0
 32
0.0
 14
-13.92
 24
-60.12500000000007
 34
0.0
 15
68.125
 25
0.125
 35
0.0
146
0.0
 13
0.0
 23
0.0
 33
0.0
 16
1.0
 26
0.0
 36
0.0
 17
0.0
 27
1.0
 37
0.0
 76
     0
330
1F
331
29
  0
MATERIAL
  5
45
102
{ACAD_REACTORS
330
43
102
}
330
43
100
AcDbMaterial
  1
ByBlock
 72
     1
 94
      127
  0
MATERIAL
  5
44
102
{ACAD_REACTORS
330
43
102
}
330
43
100
AcDbMaterial
  1
ByLayer
 72
     1
 94
      127
  0
MATERIAL
  5
46
102
{ACAD_REACTORS
330
43
102
}
330
43
100
AcDbMaterial
  1
Global
 72
     1
 94
      127
  0
MLEADERSTYLE
  5
6C
102
{ACAD_REACTORS
330
6B
102
}
330
6B
100
AcDbMLeaderStyle
179
     2
170
     2
171
     1
172
     0
 90
        2
 40
0.0
 41
0.0
173
     1
 91
-1056964608
340
14
 92
       -2
290
     1
 42
2.0
291
     1
 43
8.0
  3
Standard
341
0
 44
4.0
300

342
11
174
     1
178
     6
175
     1
176
     0
 93
-1056964608
 45
4.0
292
     0
297
     0
 46
4.0
343
0
 94
-1056964608
 47
1.0
 49
1.0
140
1.0
293
     1
141
0.0
294
     1
177
     0
142
1.0
295
     0
296
     0
143
3.75
271
     0
272
     9
273
     9
  0
MLINESTYLE
  5
18
102
{ACAD_REACTORS
330
17
102
}
330
17
100
AcDbMlineStyle
  2
Standard
 70
     0
  3

 62
   256
 51
90.0
 52
90.0
 71
     2
 49
0.5
 62
   256
  6
BYLAYER
 49
-0.5
 62
   256
  6
BYLAYER
  0
ACDBPLACEHOLDER
  5
F
102
{ACAD_REACTORS
330
E
102
}
330
E
  0
SCALE
  5
48
102
{ACAD_REACTORS
330
47
102
}
330
47
100
AcDbScale
 70
     0
300
1:1
140
1.0
141
1.0
290
     1
  0
SCALE
  5
49
102
{ACAD_REACTORS
330
47
102
}
330
47
100
AcDbScale
 70
     0
300
1:2
140
1.0
141
2.0
290
     0
  0
SCALE
  5
4A
102
{ACAD_REACTORS
330
47
102
}
330
47
100
AcDbScale
 70
     0
300
1:4
140
1.0
141
4.0
290
     0
  0
SCALE
  5
4B
102
{ACAD_REACTORS
330
47
102
}
330
47
100
AcDbScale
 70
     0
300
1:5
140
1.0
141
5.0
290
     0
  0
SCALE
  5
4C
102
{ACAD_REACTORS
330
47
102
}
330
47
100
AcDbScale
 70
     0
300
1:8
140
1.0
141
8.0
290
     0
  0
SCALE
  5
4D
102
{ACAD_REACTORS
330
47
102
}
330
47
100
AcDbScale
 70
     0
300
1:10
140
1.0
141
10.0
290
     0
  0
SCALE
  5
4E
102
{ACAD_REACTORS
330
47
102
}
330
47
100
AcDbScale
 70
     0
300
1:16
140
1.0
141
16.0
290
     0
  0
SCALE
  5
4F
102
{ACAD_REACTORS
330
47
102
}
330
47
100
AcDbScale
 70
     0
300
1:20
140
1.0
141
20.0
290
     0
  0
SCALE
  5
50
102
{ACAD_REACTORS
330
47
102
}
330
47
100
AcDbScale
 70
     0
300
1:30
140
1.0
141
30.0
290
     0
  0
SCALE
  5
51
102
{ACAD_REACTORS
330
47
102
}
330
47
100
AcDbScale
 70
     0
300
1:40
140
1.0
141
40.0
290
     0
  0
SCALE
  5
52
102
{ACAD_REACTORS
330
47
102
}
330
47
100
AcDbScale
 70
     0
300
1:50
140
1.0
141
50.0
290
     0
  0
SCALE
  5
53
102
{ACAD_REACTORS
330
47
102
}
330
47
100
AcDbScale
 70
     0
300
1:100
140
1.0
141
100.0
290
     0
  0
SCALE
  5
54
102
{ACAD_REACTORS
330
47
102
}
330
47
100
AcDbScale
 70
     0
300
2:1
140
2.0
141
1.0
290
     0
  0
SCALE
  5
55
102
{ACAD_REACTORS
330
47
102
}
330
47
100
AcDbScale
 70
     0
300
4:1
140
4.0
141
1.0
290
     0
  0
SCALE
  5
56
102
{ACAD_REACTORS
330
47
102
}
330
47
100
AcDbScale
 70
     0
300
8:1
140
8.0
141
1.0
290
     0
  0
SCALE
  5
57
102
{ACAD_REACTORS
330
47
102
}
330
47
100
AcDbScale
 70
     0
300
10:1
140
10.0
141
1.0
290
     0
  0
SCALE
  5
58
102
{ACAD_REACTORS
330
47
102
}
330
47
100
AcDbScale
 70
     0
300
100:1
140
100.0
141
1.0
290
     0
  0
SCALE
  5
59
102
{ACAD_REACTORS
330
47
102
}
330
47
100
AcDbScale
 70
     0
300
1/128" = 1'-0"
140
0.0078125
141
12.0
290
     0
  0
SCALE
  5
5A
102
{ACAD_REACTORS
330
47
102
}
330
47
100
AcDbScale
 70
     0
300
1/64" = 1'-0"
140
0.015625
141
12.0
290
     0
  0
SCALE
  5
5B
102
{ACAD_REACTORS
330
47
102
}
330
47
100
AcDbScale
 70
     0
300
1/32" = 1'-0"
140
0.03125
141
12.0
290
     0
  0
SCALE
  5
5C
102
{ACAD_REACTORS
330
47
102
}
330
47
100
AcDbScale
 70
     0
300
1/16" = 1'-0"
140
0.0625
141
12.0
290
     0
  0
SCALE
  5
5D
102
{ACAD_REACTORS
330
47
102
}
330
47
100
AcDbScale
 70
     0
300
3/32" = 1'-0"
140
0.09375
141
12.0
290
     0
  0
SCALE
  5
5E
102
{ACAD_REACTORS
330
47
102
}
330
47
100
AcDbScale
 70
     0
300
1/8" = 1'-0"
140
0.125
141
12.0
290
     0
  0
SCALE
  5
5F
102
{ACAD_REACTORS
330
47
102
}
330
47
100
AcDbScale
 70
     0
300
3/16" = 1'-0"
140
0.1875
141
12.0
290
     0
  0
SCALE
  5
60
102
{ACAD_REACTORS
330
47
102
}
330
47
100
AcDbScale
 70
     0
300
1/4" = 1'-0"
140
0.25
141
12.0
290
     0
  0
SCALE
  5
61
102
{ACAD_REACTORS
330
47
102
}
330
47
100
AcDbScale
 70
     0
300
3/8" = 1'-0"
140
0.375
141
12.0
290
     0
  0
SCALE
  5
62
102
{ACAD_REACTORS
330
47
102
}
330
47
100
AcDbScale
 70
     0
300
1/2" = 1'-0"
140
0.5
141
12.0
290
     0
  0
SCALE
  5
63
102
{ACAD_REACTORS
330
47
102
}
330
47
100
AcDbScale
 70
     0
300
3/4" = 1'-0"
140
0.75
141
12.0
290
     0
  0
SCALE
  5
64
102
{ACAD_REACTORS
330
47
102
}
330
47
100
AcDbScale
 70
     0
300
1" = 1'-0"
140
1.0
141
12.0
290
     0
  0
SCALE
  5
65
102
{ACAD_REACTORS
330
47
102
}
330
47
100
AcDbScale
 70
     0
300
1-1/2" = 1'-0"
140
1.5
141
12.0
290
     0
  0
SCALE
  5
66
102
{ACAD_REACTORS
330
47
102
}
330
47
100
AcDbScale
 70
     0
300
3" = 1'-0"
140
3.0
141
12.0
290
     0
  0
SCALE
  5
67
102
{ACAD_REACTORS
330
47
102
}
330
47
100
AcDbScale
 70
     0
300
6" = 1'-0"
140
6.0
141
12.0
290
     0
  0
SCALE
  5
68
102
{ACAD_REACTORS
330
47
102
}
330
47
100
AcDbScale
 70
     0
300
1'-0" = 1'-0"
140
12.0
141
12.0
290
     0
  0
TABLESTYLE
  5
6A
102
{ACAD_REACTORS
330
69
102
}
102
{ACAD_XDICTIONARY
360
117
102
}
330
69
100
AcDbTableStyle
  3
Standard
 70
     0
 71
     0
 40
0.06
 41
0.06
280
     0
281
     0
  7
Standard
140
4.5
170
     2
 62
     0
 63
   257
283
     0
 90
        4
 91
        0
  1

274
    -2
284
     1
 64
     0
275
    -2
285
     1
 65
     0
276
    -2
286
     1
 66
     0
277
    -2
287
     1
 67
     0
278
    -2
288
     1
 68
     0
279
    -2
289
     1
 69
     0
  7
Standard
140
6.0
170
     5
 62
     0
 63
   257
283
     0
 90
        4
 91
        0
  1

274
    -2
284
     1
 64
     0
275
    -2
285
     1
 65
     0
276
    -2
286
     1
 66
     0
277
    -2
287
     1
 67
     0
278
    -2
288
     1
 68
     0
279
    -2
289
     1
 69
     0
  7
Standard
140
4.5
170
     5
 62
     0
 63
   257
283
     0
 90
        4
 91
        0
  1

274
    -2
284
     1
 64
     0
275
    -2
285
     1
 65
     0
276
    -2
286
     1
 66
     0
277
    -2
287
     1
 67
     0
278
    -2
288
     1
 68
     0
279
    -2
289
     1
 69
     0
  0
VISUALSTYLE
  5
2F
102
{ACAD_REACTORS
330
2A
102
}
330
2A
100
AcDbVisualStyle
  2
2dWireframe
 70
     4
177
     2
291
     0
 71
     0
176
     1
 72
     2
176
     1
 73
     0
176
     1
 90
        0
176
     1
 40
0.6
176
     1
 41
30.0
176
     1
 62
     5
 63
     7
421
 16777215
176
     1
 74
     1
176
     1
 91
        4
176
     1
 64
     7
176
     1
 65
   257
176
     1
 75
     1
176
     1
175
     1
176
     1
 42
1.0
176
     1
 92
        0
176
     1
 66
   257
176
     1
 43
1.0
176
     1
 76
     1
176
     1
 77
     6
176
     1
 78
     2
176
     1
 67
     7
176
     1
 79
     5
176
     1
170
     0
176
     1
171
     0
176
     1
290
     0
176
     1
 93
        1
176
     1
 44
0.0
176
     1
173
     0
176
     1
  0
VISUALSTYLE
  5
32
102
{ACAD_REACTORS
330
2A
102
}
330
2A
100
AcDbVisualStyle
  2
Basic
 70
     7
177
     2
291
     1
 71
     1
176
     1
 72
     0
176
     1
 73
     1
176
     1
 90
        0
176
     1
 40
0.6
176
     1
 41
30.0
176
     1
 62
     5
 63
     7
421
 16777215
176
     1
 74
     0
176
     1
 91
        4
176
     1
 64
     7
176
     1
 65
   257
176
     1
 75
     1
176
     1
175
     1
176
     1
 42
1.0
176
     1
 92
        8
176
     1
 66
     7
176
     1
 43
1.0
176
     1
 76
     1
176
     1
 77
     6
176
     1
 78
     2
176
     1
 67
     7
176
     1
 79
     5
176
     1
170
     0
176
     1
171
     0
176
     1
290
     0
176
     1
 93
        1
176
     1
 44
0.0
176
     1
173
     0
176
     1
  0
VISUALSTYLE
  5
36
102
{ACAD_REACTORS
330
2A
102
}
330
2A
100
AcDbVisualStyle
  2
Brighten
 70
    12
177
     2
291
     1
 71
     2
176
     1
 72
     2
176
     1
 73
     0
176
     1
 90
        0
176
     1
 40
0.6
176
     1
 41
30.0
176
     1
 62
     5
 63
     7
421
 16777215
176
     1
 74
     1
176
     1
 91
        4
176
     1
 64
     7
176
     1
 65
   257
176
     1
 75
     1
176
     1
175
     1
176
     1
 42
1.0
176
     1
 92
        8
176
     1
 66
     7
176
     1
 43
1.0
176
     1
 76
     1
176
     1
 77
     6
176
     1
 78
     2
176
     1
 67
     7
176
     1
 79
     5
176
     1
170
     0
176
     1
171
     0
176
     1
290
     0
176
     1
 93
        1
176
     1
 44
50.0
176
     1
173
     0
176
     1
  0
VISUALSTYLE
  5
3A
102
{ACAD_REACTORS
330
2A
102
}
330
2A
100
AcDbVisualStyle
  2
ColorChange
 70
    16
177
     2
291
     1
 71
     2
176
     1
 72
     2
176
     1
 73
     3
176
     1
 90
        0
176
     1
 40
0.6
176
     1
 41
30.0
176
     1
 62
     5
 63
     8
421
  8421504
176
     1
 74
     1
176
     1
 91
        4
176
     1
 64
     7
176
     1
 65
   257
176
     1
 75
     1
176
     1
175
     1
176
     1
 42
1.0
176
     1
 92
        8
176
     1
 66
     8
424
  8421504
176
     1
 43
1.0
176
     1
 76
     1
176
     1
 77
     6
176
     1
 78
     2
176
     1
 67
     7
176
     1
 79
     5
176
     1
170
     0
176
     1
171
     0
176
     1
290
     0
176
     1
 93
        1
176
     1
 44
0.0
176
     1
173
     0
176
     1
  0
VISUALSTYLE
  5
34
102
{ACAD_REACTORS
330
2A
102
}
330
2A
100
AcDbVisualStyle
  2
Conceptual
 70
     9
177
     2
291
     0
 71
     3
176
     1
 72
     2
176
     1
 73
     0
176
     1
 90
        0
176
     1
 40
0.6
176
     1
 41
30.0
176
     1
 62
     5
 63
     7
421
 16777215
176
     1
 74
     2
176
     1
 91
        2
176
     1
 64
     7
176
     1
 65
   257
176
     1
 75
     1
176
     1
175
     1
176
     1
 42
179.0
176
     1
 92
        8
176
     1
 66
     7
176
     1
 43
1.0
176
     1
 76
     1
176
     1
 77
     6
176
     1
 78
     2
176
     1
 67
     7
176
     1
 79
     3
176
     1
170
     0
176
     1
171
     0
176
     1
290
     0
176
     1
 93
        1
176
     1
 44
0.0
176
     1
173
     0
176
     1
  0
VISUALSTYLE
  5
35
102
{ACAD_REACTORS
330
2A
102
}
330
2A
100
AcDbVisualStyle
  2
Dim
 70
    11
177
     2
291
     1
 71
     2
176
     1
 72
     2
176
     1
 73
     0
176
     1
 90
        0
176
     1
 40
0.6
176
     1
 41
30.0
176
     1
 62
     5
 63
     7
421
 16777215
176
     1
 74
     1
176
     1
 91
        4
176
     1
 64
     7
176
     1
 65
   257
176
     1
 75
     1
176
     1
175
     1
176
     1
 42
1.0
176
     1
 92
        8
176
     1
 66
     7
176
     1
 43
1.0
176
     1
 76
     1
176
     1
 77
     6
176
     1
 78
     2
176
     1
 67
     7
176
     1
 79
     5
176
     1
170
     0
176
     1
171
     0
176
     1
290
     0
176
     1
 93
        1
176
     1
 44
-50.0
176
     1
173
     0
176
     1
  0
VISUALSTYLE
  5
3D
102
{ACAD_REACTORS
330
2A
102
}
330
2A
100
AcDbVisualStyle
  2
EdgeColorOff
 70
    22
177
     2
291
     1
 71
     2
176
     0
 72
     2
176
     0
 73
     0
176
     0
 90
        0
176
     0
 40
0.6
176
     0
 41
30.0
176
     0
 62
     5
 63
     7
421
 16777215
176
     0
 74
     1
176
     0
 91
        4
176
     0
 64
     7
176
     0
 65
   257
176
     0
 75
     1
176
     0
175
     1
176
     0
 42
1.0
176
     0
 92
        8
176
     2
 66
     7
176
     0
 43
1.0
176
     0
 76
     1
176
     0
 77
     6
176
     0
 78
     2
176
     0
 67
     7
176
     0
 79
     5
176
     0
170
     0
176
     0
171
     0
176
     0
290
     0
176
     0
 93
        1
176
     0
 44
0.0
176
     0
173
     0
176
     0
  0
VISUALSTYLE
  5
39
102
{ACAD_REACTORS
330
2A
102
}
330
2A
100
AcDbVisualStyle
  2
Facepattern
 70
    15
177
     2
291
     1
 71
     2
176
     1
 72
     2
176
     1
 73
     0
176
     1
 90
        0
176
     1
 40
0.6
176
     1
 41
30.0
176
     1
 62
     5
 63
     7
421
 16777215
176
     1
 74
     1
176
     1
 91
        4
176
     1
 64
     7
176
     1
 65
   257
176
     1
 75
     1
176
     1
175
     1
176
     1
 42
1.0
176
     1
 92
        8
176
     1
 66
     7
176
     1
 43
1.0
176
     1
 76
     1
176
     1
 77
     6
176
     1
 78
     2
176
     1
 67
     7
176
     1
 79
     5
176
     1
170
     0
176
     1
171
     0
176
     1
290
     0
176
     1
 93
        1
176
     1
 44
0.0
176
     1
173
     0
176
     1
  0
VISUALSTYLE
  5
2B
102
{ACAD_REACTORS
330
2A
102
}
330
2A
100
AcDbVisualStyle
  2
Flat
 70
     0
177
     2
291
     1
 71
     2
176
     1
 72
     1
176
     1
 73
     1
176
     1
 90
        2
176
     1
 40
0.6
176
     1
 41
30.0
176
     1
 62
     5
 63
     7
421
 16777215
176
     1
 74
     0
176
     1
 91
        0
176
     1
 64
     7
176
     1
 65
   257
176
     1
 75
     1
176
     1
175
     1
176
     1
 42
1.0
176
     1
 92
        8
176
     1
 66
     7
176
     1
 43
1.0
176
     1
 76
     1
176
     1
 77
     6
176
     1
 78
     2
176
     1
 67
     7
176
     1
 79
     5
176
     1
170
     0
176
     1
171
     0
176
     1
290
     0
176
     1
 93
       13
176
     1
 44
0.0
176
     1
173
     0
176
     1
  0
VISUALSTYLE
  5
2C
102
{ACAD_REACTORS
330
2A
102
}
330
2A
100
AcDbVisualStyle
  2
FlatWithEdges
 70
     1
177
     2
291
     1
 71
     2
176
     1
 72
     1
176
     1
 73
     1
176
     1
 90
        2
176
     1
 40
0.6
176
     1
 41
30.0
176
     1
 62
     5
 63
     7
421
 16777215
176
     1
 74
     1
176
     1
 91
        0
176
     1
 64
     7
176
     1
 65
   257
176
     1
 75
     1
176
     1
175
     1
176
     1
 42
1.0
176
     1
 92
        0
176
     1
 66
   257
176
     1
 43
1.0
176
     1
 76
     1
176
     1
 77
     6
176
     1
 78
     2
176
     1
 67
     7
176
     1
 79
     5
176
     1
170
     0
176
     1
171
     0
176
     1
290
     0
176
     1
 93
       13
176
     1
 44
0.0
176
     1
173
     0
176
     1
  0
VISUALSTYLE
  5
2D
102
{ACAD_REACTORS
330
2A
102
}
330
2A
100
AcDbVisualStyle
  2
Gouraud
 70
     2
177
     2
291
     1
 71
     2
176
     1
 72
     2
176
     1
 73
     1
176
     1
 90
        2
176
     1
 40
0.6
176
     1
 41
30.0
176
     1
 62
     5
 63
     7
421
 16777215
176
     1
 74
     0
176
     1
 91
        0
176
     1
 64
     7
176
     1
 65
   257
176
     1
 75
     1
176
     1
175
     1
176
     1
 42
1.0
176
     1
 92
        0
176
     1
 66
     7
176
     1
 43
1.0
176
     1
 76
     1
176
     1
 77
     6
176
     1
 78
     2
176
     1
 67
     7
176
     1
 79
     5
176
     1
170
     0
176
     1
171
     0
176
     1
290
     0
176
     1
 93
       13
176
     1
 44
0.0
176
     1
173
     0
176
     1
  0
VISUALSTYLE
  5
2E
102
{ACAD_REACTORS
330
2A
102
}
330
2A
100
AcDbVisualStyle
  2
GouraudWithEdges
 70
     3
177
     2
291
     1
 71
     2
176
     1
 72
     2
176
     1
 73
     1
176
     1
 90
        2
176
     1
 40
0.6
176
     1
 41
30.0
176
     1
 62
     5
 63
     7
421
 16777215
176
     1
 74
     1
176
     1
 91
        0
176
     1
 64
     7
176
     1
 65
   257
176
     1
 75
     1
176
     1
175
     1
176
     1
 42
1.0
176
     1
 92
        0
176
     1
 66
   257
176
     1
 43
1.0
176
     1
 76
     1
176
     1
 77
     6
176
     1
 78
     2
176
     1
 67
     7
176
     1
 79
     5
176
     1
170
     0
176
     1
171
     0
176
     1
290
     0
176
     1
 93
       13
176
     1
 44
0.0
176
     1
173
     0
176
     1
  0
VISUALSTYLE
  5
31
102
{ACAD_REACTORS
330
2A
102
}
330
2A
100
AcDbVisualStyle
  2
Hidden
 70
     6
177
     2
291
     0
 71
     1
176
     1
 72
     2
176
     1
 73
     2
176
     1
 90
        0
176
     1
 40
0.6
176
     1
 41
30.0
176
     1
 62
     5
 63
     7
421
 16777215
176
     1
 74
     2
176
     1
 91
        2
176
     1
 64
     7
176
     1
 65
   257
176
     1
 75
     2
176
     1
175
     1
176
     1
 42
40.0
176
     1
 92
        0
176
     1
 66
   257
176
     1
 43
1.0
176
     1
 76
     1
176
     1
 77
     6
176
     1
 78
     2
176
     1
 67
     7
176
     1
 79
     3
176
     1
170
     0
176
     1
171
     0
176
     1
290
     0
176
     1
 93
        1
176
     1
 44
0.0
176
     1
173
     0
176
     1
  0
VISUALSTYLE
  5
3B
102
{ACAD_REACTORS
330
2A
102
}
330
2A
100
AcDbVisualStyle
  2
JitterOff
 70
    20
177
     2
291
     1
 71
     2
176
     0
 72
     2
176
     0
 73
     0
176
     0
 90
        0
176
     0
 40
0.6
176
     0
 41
30.0
176
     0
 62
     5
 63
     7
421
 16777215
176
     0
 74
     1
176
     0
 91
        4
176
     0
 64
     7
176
     0
 65
   257
176
     0
 75
     1
176
     0
175
     1
176
     0
 42
1.0
176
     0
 92
       10
176
     2
 66
     7
176
     0
 43
1.0
176
     0
 76
     1
176
     0
 77
     6
176
     0
 78
     2
176
     0
 67
     7
176
     0
 79
     5
176
     0
170
     0
176
     0
171
     0
176
     0
290
     0
176
     0
 93
        1
176
     0
 44
0.0
176
     0
173
     0
176
     0
  0
VISUALSTYLE
  5
38
102
{ACAD_REACTORS
330
2A
102
}
330
2A
100
AcDbVisualStyle
  2
Linepattern
 70
    14
177
     2
291
     1
 71
     2
176
     1
 72
     2
176
     1
 73
     0
176
     1
 90
        0
176
     1
 40
0.6
176
     1
 41
30.0
176
     1
 62
     5
 63
     7
421
 16777215
176
     1
 74
     1
176
     1
 91
        4
176
     1
 64
     7
176
     1
 65
   257
176
     1
 75
     7
176
     1
175
     7
176
     1
 42
1.0
176
     1
 92
        8
176
     1
 66
     7
176
     1
 43
1.0
176
     1
 76
     1
176
     1
 77
     6
176
     1
 78
     2
176
     1
 67
     7
176
     1
 79
     5
176
     1
170
     0
176
     1
171
     0
176
     1
290
     0
176
     1
 93
        1
176
     1
 44
0.0
176
     1
173
     0
176
     1
  0
VISUALSTYLE
  5
3C
102
{ACAD_REACTORS
330
2A
102
}
330
2A
100
AcDbVisualStyle
  2
OverhangOff
 70
    21
177
     2
291
     1
 71
     2
176
     0
 72
     2
176
     0
 73
     0
176
     0
 90
        0
176
     0
 40
0.6
176
     0
 41
30.0
176
     0
 62
     5
 63
     7
421
 16777215
176
     0
 74
     1
176
     0
 91
        4
176
     0
 64
     7
176
     0
 65
   257
176
     0
 75
     1
176
     0
175
     1
176
     0
 42
1.0
176
     0
 92
        9
176
     2
 66
     7
176
     0
 43
1.0
176
     0
 76
     1
176
     0
 77
     6
176
     0
 78
     2
176
     0
 67
     7
176
     0
 79
     5
176
     0
170
     0
176
     0
171
     0
176
     0
290
     0
176
     0
 93
        1
176
     0
 44
0.0
176
     0
173
     0
176
     0
  0
VISUALSTYLE
  5
33
102
{ACAD_REACTORS
330
2A
102
}
330
2A
100
AcDbVisualStyle
  2
Realistic
 70
     8
177
     2
291
     0
 71
     2
176
     1
 72
     3
176
     1
 73
     0
176
     1
 90
        2
176
     1
 40
0.6
176
     1
 41
30.0
176
     1
 62
     5
 63
     7
421
 16777215
176
     1
 74
     0
176
     1
 91
        0
176
     1
 64
     7
176
     1
 65
   257
176
     1
 75
     1
176
     1
175
     1
176
     1
 42
1.0
176
     1
 92
        8
176
     1
 66
   257
176
     1
 43
1.0
176
     1
 76
     1
176
     1
 77
     6
176
     1
 78
     2
176
     1
 67
     7
176
     1
 79
     3
176
     1
170
     0
176
     1
171
     0
176
     1
290
     0
176
     1
 93
       13
176
     1
 44
0.0
176
     1
173
     0
176
     1
  0
VISUALSTYLE
  5
42
102
{ACAD_REACTORS
330
2A
102
}
330
2A
100
AcDbVisualStyle
  2
Shaded
 70
    27
177
     2
291
     0
 71
     2
176
     1
 72
     2
176
     1
 73
     1
176
     1
 90
        2
176
     1
 40
0.6
176
     1
 41
30.0
176
     1
 62
     5
 63
     7
421
 16777215
176
     1
 74
     0
176
     1
 91
        4
176
     1
 64
     7
176
     1
 65
   257
176
     1
 75
     1
176
     1
175
     1
176
     1
 42
1.0
176
     1
 92
        8
176
     1
 66
   257
176
     1
 43
1.0
176
     1
 76
     1
176
     1
 77
     6
176
     1
 78
     2
176
     1
 67
     8
425
  7895160
176
     1
 79
     3
176
     1
170
     0
176
     1
171
     0
176
     1
290
     0
176
     1
 93
        5
176
     1
 44
0.0
176
     1
173
     0
176
     1
  0
VISUALSTYLE
  5
41
102
{ACAD_REACTORS
330
2A
102
}
330
2A
100
AcDbVisualStyle
  2
Shaded with edges
 70
    26
177
     2
291
     0
 71
     2
176
     1
 72
     2
176
     1
 73
     1
176
     1
 90
        2
176
     1
 40
0.6
176
     1
 41
30.0
176
     1
 62
     5
 63
     7
421
 16777215
176
     1
 74
     1
176
     1
 91
       10
176
     1
 64
     7
176
     1
 65
   257
176
     1
 75
     2
176
     1
175
     1
176
     1
 42
1.0
176
     1
 92
        8
176
     1
 66
   257
176
     1
 43
1.0
176
     1
 76
     1
176
     1
 77
     6
176
     1
 78
     2
176
     1
 67
     7
176
     1
 79
     3
176
     1
170
     0
176
     1
171
     0
176
     1
290
     0
176
     1
 93
        5
176
     1
 44
0.0
176
     1
173
     0
176
     1
  0
VISUALSTYLE
  5
3E
102
{ACAD_REACTORS
330
2A
102
}
330
2A
100
AcDbVisualStyle
  2
Shades of Gray
 70
    23
177
     2
291
     0
 71
     2
176
     1
 72
     2
176
     1
 73
     3
176
     1
 90
        0
176
     1
 40
0.6
176
     1
 41
30.0
176
     1
 62
     5
 63
     7
421
 16777215
176
     1
 74
     2
176
     1
 91
        2
176
     1
 64
     7
176
     1
 65
     7
176
     1
 75
     1
176
     1
175
     1
176
     1
 42
40.0
176
     1
 92
        8
176
     1
 66
     7
176
     1
 43
1.0
176
     1
 76
     1
176
     1
 77
     6
176
     1
 78
     2
176
     1
 67
     7
176
     1
 79
     3
176
     1
170
     0
176
     1
171
     0
176
     1
290
     0
176
     1
 93
        1
176
     1
 44
0.0
176
     1
173
     0
176
     1
  0
VISUALSTYLE
  5
3F
102
{ACAD_REACTORS
330
2A
102
}
330
2A
100
AcDbVisualStyle
  2
Sketchy
 70
    24
177
     2
291
     0
 71
     1
176
     1
 72
     2
176
     1
 73
     2
176
     1
 90
        0
176
     1
 40
0.6
176
     1
 41
30.0
176
     1
 62
     5
 63
     7
421
 16777215
176
     1
 74
     2
176
     1
 91
        2
176
     1
 64
     7
176
     1
 65
     7
176
     1
 75
     1
176
     1
175
     1
176
     1
 42
40.0
176
     1
 92
       11
176
     1
 66
     7
176
     1
 43
1.0
176
     1
 76
     1
176
     1
 77
     6
176
     1
 78
     2
176
     1
 67
     7
176
     1
 79
     6
176
     1
170
     0
176
     1
171
     0
176
     1
290
     0
176
     1
 93
        1
176
     1
 44
0.0
176
     1
173
     0
176
     1
  0
VISUALSTYLE
  5
37
102
{ACAD_REACTORS
330
2A
102
}
330
2A
100
AcDbVisualStyle
  2
Thicken
 70
    13
177
     2
291
     1
 71
     2
176
     1
 72
     2
176
     1
 73
     0
176
     1
 90
        0
176
     1
 40
0.6
176
     1
 41
30.0
176
     1
 62
     5
 63
     7
421
 16777215
176
     1
 74
     1
176
     1
 91
        4
176
     1
 64
     7
176
     1
 65
   257
176
     1
 75
     1
176
     1
175
     1
176
     1
 42
1.0
176
     1
 92
       12
176
     1
 66
     7
176
     1
 43
1.0
176
     1
 76
     1
176
     1
 77
     6
176
     1
 78
     2
176
     1
 67
     7
176
     1
 79
     5
176
     1
170
     0
176
     1
171
     0
176
     1
290
     0
176
     1
 93
        1
176
     1
 44
0.0
176
     1
173
     0
176
     1
  0
VISUALSTYLE
  5
30
102
{ACAD_REACTORS
330
2A
102
}
330
2A
100
AcDbVisualStyle
  2
Wireframe
 70
     5
177
     2
291
     0
 71
     0
176
     1
 72
     2
176
     1
 73
     0
176
     1
 90
        0
176
     1
 40
0.6
176
     1
 41
30.0
176
     1
 62
     5
 63
     7
421
 16777215
176
     1
 74
     1
176
     1
 91
        4
176
     1
 64
     7
176
     1
 65
   257
176
     1
 75
     1
176
     1
175
     1
176
     1
 42
1.0
176
     1
 92
        0
176
     1
 66
   257
176
     1
 43
1.0
176
     1
 76
     1
176
     1
 77
     6
176
     1
 78
     2
176
     1
 67
     7
176
     1
 79
     3
176
     1
170
     0
176
     1
171
     0
176
     1
290
     0
176
     1
 93
        1
176
     1
 44
0.0
176
     1
173
     0
176
     1
  0
VISUALSTYLE
  5
40
102
{ACAD_REACTORS
330
2A
102
}
330
2A
100
AcDbVisualStyle
  2
X-Ray
 70
    25
177
     2
291
     0
 71
     2
176
     1
 72
     2
176
     1
 73
     1
176
     1
 90
        1
176
     1
 40
0.5
176
     1
 41
30.0
176
     1
 62
     5
 63
     7
421
 16777215
176
     1
 74
     1
176
     1
 91
        0
176
     1
 64
     7
176
     1
 65
   257
176
     1
 75
     1
176
     1
175
     1
176
     1
 42
1.0
176
     1
 92
        8
176
     1
 66
     7
176
     1
 43
1.0
176
     1
 76
     1
176
     1
 77
     6
176
     1
 78
     2
176
     1
 67
     7
176
     1
 79
     3
176
     1
170
     0
176
     1
171
     0
176
     1
290
     0
176
     1
 93
       13
176
     1
 44
0.0
176
     1
173
     0
176
     1
  0
DICTIONARYVAR
  5
116
102
{ACAD_REACTORS
330
115
102
}
330
115
100
DictionaryVariables
280
     0
  1
1:1
  0
DICTIONARYVAR
  5
11B
102
{ACAD_REACTORS
330
115
102
}
330
115
100
DictionaryVariables
280
     0
  1
Standard
  0
DICTIONARYVAR
  5
11A
102
{ACAD_REACTORS
330
115
102
}
330
115
100
DictionaryVariables
280
     0
  1
Standard
  0
DICTIONARYVAR
  5
11E
102
{ACAD_REACTORS
330
115
102
}
330
115
100
DictionaryVariables
280
     0
  1
6.000000
  0
DICTIONARY
  5
117
330
6A
100
AcDbDictionary
280
     1
281
     1
  3
ACAD_ROUNDTRIP_2008_TABLESTYLE_CELLSTYLEMAP
360
118
  0
CELLSTYLEMAP
  5
118
102
{ACAD_REACTORS
330
117
102
}
330
117
100
AcDbCellStyleMap
 90
        3
300
CELLSTYLE
  1
TABLEFORMAT_BEGIN
 90
        5
170
     1
 91
        0
 92
    32768
 62
   257
 93
        1
300
CONTENTFORMAT
  1
CONTENTFORMAT_BEGIN
 90
        0
 91
        0
 92
        4
 93
        0
300

 40
0.0
140
1.0
 94
        5
 62
     0
340
11
144
6.0
309
CONTENTFORMAT_END
171
     1
301
MARGIN
  1
CELLMARGIN_BEGIN
 40
1.5
 40
1.5
 40
1.5
 40
1.5
 40
1.5
 40
1.5
309
CELLMARGIN_END
 94
        6
 95
        1
302
GRIDFORMAT
  1
GRIDFORMAT_BEGIN
 90
        0
 91
        1
 62
     0
 92
       -2
340
14
 93
        0
 40
0.045
309
GRIDFORMAT_END
 95
        2
302
GRIDFORMAT
  1
GRIDFORMAT_BEGIN
 90
        0
 91
        1
 62
     0
 92
       -2
340
14
 93
        0
 40
0.045
309
GRIDFORMAT_END
 95
        4
302
GRIDFORMAT
  1
GRIDFORMAT_BEGIN
 90
        0
 91
        1
 62
     0
 92
       -2
340
14
 93
        0
 40
0.045
309
GRIDFORMAT_END
 95
        8
302
GRIDFORMAT
  1
GRIDFORMAT_BEGIN
 90
        0
 91
        1
 62
     0
 92
       -2
340
14
 93
        0
 40
0.045
309
GRIDFORMAT_END
 95
       16
302
GRIDFORMAT
  1
GRIDFORMAT_BEGIN
 90
        0
 91
        1
 62
     0
 92
       -2
340
14
 93
        0
 40
0.045
309
GRIDFORMAT_END
 95
       32
302
GRIDFORMAT
  1
GRIDFORMAT_BEGIN
 90
        0
 91
        1
 62
     0
 92
       -2
340
14
 93
        0
 40
0.045
309
GRIDFORMAT_END
309
TABLEFORMAT_END
  1
CELLSTYLE_BEGIN
 90
        1
 91
        1
300
_TITLE
309
CELLSTYLE_END
300
CELLSTYLE
  1
TABLEFORMAT_BEGIN
 90
        5
170
     1
 91
        0
 92
        0
 62
   257
 93
        1
300
CONTENTFORMAT
  1
CONTENTFORMAT_BEGIN
 90
        0
 91
        0
 92
        4
 93
        0
300

 40
0.0
140
1.0
 94
        5
 62
     0
340
11
144
4.5
309
CONTENTFORMAT_END
171
     1
301
MARGIN
  1
CELLMARGIN_BEGIN
 40
1.5
 40
1.5
 40
1.5
 40
1.5
 40
1.5
 40
1.5
309
CELLMARGIN_END
 94
        6
 95
        1
302
GRIDFORMAT
  1
GRIDFORMAT_BEGIN
 90
        0
 91
        1
 62
     0
 92
       -2
340
14
 93
        0
 40
0.045
309
GRIDFORMAT_END
 95
        2
302
GRIDFORMAT
  1
GRIDFORMAT_BEGIN
 90
        0
 91
        1
 62
     0
 92
       -2
340
14
 93
        0
 40
0.045
309
GRIDFORMAT_END
 95
        4
302
GRIDFORMAT
  1
GRIDFORMAT_BEGIN
 90
        0
 91
        1
 62
     0
 92
       -2
340
14
 93
        0
 40
0.045
309
GRIDFORMAT_END
 95
        8
302
GRIDFORMAT
  1
GRIDFORMAT_BEGIN
 90
        0
 91
        1
 62
     0
 92
       -2
340
14
 93
        0
 40
0.045
309
GRIDFORMAT_END
 95
       16
302
GRIDFORMAT
  1
GRIDFORMAT_BEGIN
 90
        0
 91
        1
 62
     0
 92
       -2
340
14
 93
        0
 40
0.045
309
GRIDFORMAT_END
 95
       32
302
GRIDFORMAT
  1
GRIDFORMAT_BEGIN
 90
        0
 91
        1
 62
     0
 92
       -2
340
14
 93
        0
 40
0.045
309
GRIDFORMAT_END
309
TABLEFORMAT_END
  1
CELLSTYLE_BEGIN
 90
        2
 91
        1
300
_HEADER
309
CELLSTYLE_END
300
CELLSTYLE
  1
TABLEFORMAT_BEGIN
 90
        5
170
     1
 91
        0
 92
        0
 62
   257
 93
        1
300
CONTENTFORMAT
  1
CONTENTFORMAT_BEGIN
 90
        0
 91
        0
 92
        4
 93
        0
300

 40
0.0
140
1.0
 94
        2
 62
     0
340
11
144
4.5
309
CONTENTFORMAT_END
171
     1
301
MARGIN
  1
CELLMARGIN_BEGIN
 40
1.5
 40
1.5
 40
1.5
 40
1.5
 40
1.5
 40
1.5
309
CELLMARGIN_END
 94
        6
 95
        1
302
GRIDFORMAT
  1
GRIDFORMAT_BEGIN
 90
        0
 91
        1
 62
     0
 92
       -2
340
14
 93
        0
 40
0.045
309
GRIDFORMAT_END
 95
        2
302
GRIDFORMAT
  1
GRIDFORMAT_BEGIN
 90
        0
 91
        1
 62
     0
 92
       -2
340
14
 93
        0
 40
0.045
309
GRIDFORMAT_END
 95
        4
302
GRIDFORMAT
  1
GRIDFORMAT_BEGIN
 90
        0
 91
        1
 62
     0
 92
       -2
340
14
 93
        0
 40
0.045
309
GRIDFORMAT_END
 95
        8
302
GRIDFORMAT
  1
GRIDFORMAT_BEGIN
 90
        0
 91
        1
 62
     0
 92
       -2
340
14
 93
        0
 40
0.045
309
GRIDFORMAT_END
 95
       16
302
GRIDFORMAT
  1
GRIDFORMAT_BEGIN
 90
        0
 91
        1
 62
     0
 92
       -2
340
14
 93
        0
 40
0.045
309
GRIDFORMAT_END
 95
       32
302
GRIDFORMAT
  1
GRIDFORMAT_BEGIN
 90
        0
 91
        1
 62
     0
 92
       -2
340
14
 93
        0
 40
0.045
309
GRIDFORMAT_END
309
TABLEFORMAT_END
  1
CELLSTYLE_BEGIN
 90
        3
 91
        2
300
_DATA
309
CELLSTYLE_END
  0
ENDSEC
  0
EOF
