  0
SECTION
  2
HEADER
  9
$ACADVER
  1
AC1015
  9
$ACADMAINTVER
 70
     6
  9
$DWGCODEPAGE
  3
ANSI_1252
  9
$INSBASE
 10
0.0
 20
0.0
 30
0.0
  9
$EXTMIN
 10
69.395417
 20
287.976483
 30
-1.0
  9
$EXTMAX
 10
1026.514554
 20
492.804657
 30
0.7
  9
$LIMMIN
 10
0.0
 20
0.0
  9
$LIMMAX
 10
12.0
 20
9.0
  9
$ORTHOMODE
 70
     0
  9
$REGENMODE
 70
     1
  9
$FILLMODE
 70
     1
  9
$QTEXTMODE
 70
     0
  9
$MIRRTEXT
 70
     0
  9
$LTSCALE
 40
5.0
  9
$ATTMODE
 70
     1
  9
$TEXTSIZE
 40
0.2
  9
$TRACEWID
 40
0.05
  9
$TEXTSTYLE
  7
STANDARD
  9
$CLAYER
  8
0
  9
$CELTYPE
  6
ByLayer
  9
$CECOLOR
 62
   256
  9
$CELTSCALE
 40
1.0
  9
$DISPSILH
 70
     0
  9
$DIMSCALE
 40
1.0
  9
$DIMASZ
 40
0.18
  9
$DIMEXO
 40
0.0625
  9
$DIMDLI
 40
0.38
  9
$DIMRND
 40
0.0
  9
$DIMDLE
 40
0.0
  9
$DIMEXE
 40
0.18
  9
$DIMTP
 40
0.0
  9
$DIMTM
 40
0.0
  9
$DIMTXT
 40
0.18
  9
$DIMCEN
 40
0.09
  9
$DIMTSZ
 40
0.0
  9
$DIMTOL
 70
     0
  9
$DIMLIM
 70
     0
  9
$DIMTIH
 70
     1
  9
$DIMTOH
 70
     1
  9
$DIMSE1
 70
     0
  9
$DIMSE2
 70
     0
  9
$DIMTAD
 70
     0
  9
$DIMZIN
 70
     0
  9
$DIMBLK
  1

  9
$DIMASO
 70
     1
  9
$DIMSHO
 70
     1
  9
$DIMPOST
  1

  9
$DIMAPOST
  1

  9
$DIMALT
 70
     0
  9
$DIMALTD
 70
     2
  9
$DIMALTF
 40
25.4
  9
$DIMLFAC
 40
1.0
  9
$DIMTOFL
 70
     0
  9
$DIMTVP
 40
0.0
  9
$DIMTIX
 70
     0
  9
$DIMSOXD
 70
     0
  9
$DIMSAH
 70
     0
  9
$DIMBLK1
  1

  9
$DIMBLK2
  1

  9
$DIMSTYLE
  2
STANDARD
  9
$DIMCLRD
 70
     0
  9
$DIMCLRE
 70
     0
  9
$DIMCLRT
 70
     0
  9
$DIMTFAC
 40
1.0
  9
$DIMGAP
 40
0.09
  9
$DIMJUST
 70
     0
  9
$DIMSD1
 70
     0
  9
$DIMSD2
 70
     0
  9
$DIMTOLJ
 70
     1
  9
$DIMTZIN
 70
     0
  9
$DIMALTZ
 70
     0
  9
$DIMALTTZ
 70
     0
  9
$DIMUPT
 70
     0
  9
$DIMDEC
 70
     4
  9
$DIMTDEC
 70
     4
  9
$DIMALTU
 70
     2
  9
$DIMALTTD
 70
     2
  9
$DIMTXSTY
  7
STANDARD
  9
$DIMAUNIT
 70
     0
  9
$DIMADEC
 70
     0
  9
$DIMALTRND
 40
0.0
  9
$DIMAZIN
 70
     0
  9
$DIMDSEP
 70
     0
  9
$DIMATFIT
 70
     3
  9
$DIMFRAC
 70
     0
  9
$DIMLDRBLK
  1

  9
$DIMLUNIT
 70
     2
  9
$DIMLWD
 70
     0
  9
$DIMLWE
 70
     0
  9
$DIMTMOVE
 70
     0
  9
$LUNITS
 70
     2
  9
$LUPREC
 70
     4
  9
$SKETCHINC
 40
0.1
  9
$FILLETRAD
 40
0.0
  9
$AUNITS
 70
     0
  9
$AUPREC
 70
     0
  9
$MENU
  1
.
  9
$ELEVATION
 40
0.0
  9
$PELEVATION
 40
0.0
  9
$THICKNESS
 40
0.0
  9
$LIMCHECK
 70
     0
  9
$CHAMFERA
 40
0.0
  9
$CHAMFERB
 40
0.0
  9
$CHAMFERC
 40
0.0
  9
$CHAMFERD
 40
0.0
  9
$SKPOLY
 70
     0
  9
$TDCREATE
 40
2453353.758792454
  9
$TDUCREATE
 40
0.000000000
  9
$TDUPDATE
 40
0.000000000
  9
$TDUUPDATE
 40
2447892.958333334
  9
$TDINDWG
 40
78332576.0667047050
  9
$TDUSRTIMER
 40
0.0000000000
  9
$USRTIMER
 70
     1
  9
$ANGBASE
 50
0.0
  9
$ANGDIR
 70
     0
  9
$PDMODE
 70
     0
  9
$PDSIZE
 40
0.0
  9
$PLINEWID
 40
0.0
  9
$SPLFRAME
 70
     0
  9
$SPLINETYPE
 70
     6
  9
$SPLINESEGS
 70
     8
  9
$HANDSEED
  5
1744
  9
$SURFTAB1
 70
     6
  9
$SURFTAB2
 70
     6
  9
$SURFTYPE
 70
     6
  9
$SURFU
 70
     6
  9
$SURFV
 70
     6
  9
$UCSBASE
  2

  9
$UCSNAME
  2

  9
$UCSORG
 10
0.0
 20
0.0
 30
0.0
  9
$UCSXDIR
 10
1.0
 20
0.0
 30
0.0
  9
$UCSYDIR
 10
0.0
 20
1.0
 30
0.0
  9
$UCSORTHOREF
  2

  9
$UCSORTHOVIEW
 70
     0
  9
$UCSORGTOP
 10
0.0
 20
0.0
 30
0.0
  9
$UCSORGBOTTOM
 10
0.0
 20
0.0
 30
0.0
  9
$UCSORGLEFT
 10
0.0
 20
0.0
 30
0.0
  9
$UCSORGRIGHT
 10
0.0
 20
0.0
 30
0.0
  9
$UCSORGFRONT
 10
0.0
 20
0.0
 30
0.0
  9
$UCSORGBACK
 10
0.0
 20
0.0
 30
0.0
  9
$PUCSBASE
  2

  9
$PUCSNAME
  2

  9
$PUCSORG
 10
0.0
 20
0.0
 30
0.0
  9
$PUCSXDIR
 10
1.0
 20
0.0
 30
0.0
  9
$PUCSYDIR
 10
0.0
 20
1.0
 30
0.0
  9
$PUCSORTHOREF
  2

  9
$PUCSORTHOVIEW
 70
     0
  9
$PUCSORGTOP
 10
0.0
 20
0.0
 30
0.0
  9
$PUCSORGBOTTOM
 10
0.0
 20
0.0
 30
0.0
  9
$PUCSORGLEFT
 10
0.0
 20
0.0
 30
0.0
  9
$PUCSORGRIGHT
 10
0.0
 20
0.0
 30
0.0
  9
$PUCSORGFRONT
 10
0.0
 20
0.0
 30
0.0
  9
$PUCSORGBACK
 10
0.0
 20
0.0
 30
0.0
  9
$USERI1
 70
     0
  9
$USERI2
 70
     0
  9
$USERI3
 70
     0
  9
$USERI4
 70
     0
  9
$USERI5
 70
     0
  9
$USERR1
 40
0.0
  9
$USERR2
 40
0.0
  9
$USERR3
 40
0.0
  9
$USERR4
 40
0.0
  9
$USERR5
 40
0.0
  9
$WORLDVIEW
 70
     1
  9
$SHADEDGE
 70
     3
  9
$SHADEDIF
 70
    70
  9
$TILEMODE
 70
     1
  9
$MAXACTVP
 70
    64
  9
$PINSBASE
 10
0.0
 20
0.0
 30
0.0
  9
$PLIMCHECK
 70
     0
  9
$PEXTMIN
 10
0.0
 20
0.0
 30
0.0
  9
$PEXTMAX
 10
0.0
 20
0.0
 30
0.0
  9
$PLIMMIN
 10
0.0
 20
0.0
  9
$PLIMMAX
 10
0.0
 20
0.0
  9
$UNITMODE
 70
     0
  9
$VISRETAIN
 70
     1
  9
$PLINEGEN
 70
     0
  9
$PSLTSCALE
 70
     1
  9
$TREEDEPTH
 70
  3020
  9
$CMLSTYLE
  2
Standard
  9
$CMLJUST
 70
     0
  9
$CMLSCALE
 40
1.0
  9
$PROXYGRAPHICS
 70
     0
  9
$MEASUREMENT
 70
     0
  9
$CELWEIGHT
370
     0
  9
$ENDCAPS
280
     0
  9
$JOINSTYLE
280
     0
  9
$LWDISPLAY
290
     0
  9
$INSUNITS
 70
     0
  9
$HYPERLINKBASE
  1

  9
$STYLESHEET
  1

  9
$XEDIT
290
     1
  9
$CEPSNTYPE
380
     0
  9
$PSTYLEMODE
290
     1
  9
$FINGERPRINTGUID
  2

  9
$VERSIONGUID
  2

  9
$EXTNAMES
290
     1
  9
$PSVPSCALE
 40
0.0
  0
ENDSEC
  0
SECTION
  2
CLASSES
  0
CLASS
  1
LWPOLYLINE
  2
AcDbPolyline
  3
AutoCAD 2000
 90
        0
280
     0
281
     1
  0
CLASS
  1
IMAGE
  2
AcDbRasterImage
  3
ISM
 90
      127
280
     0
281
     1
  0
CLASS
  1
OLE2FRAME
  2
AcDbOle2Frame
  3
AutoCAD 2000
 90
        0
280
     0
281
     1
  0
CLASS
  1
HATCH
  2
AcDbHatch
  3
AutoCAD 2000
 90
        0
280
     0
281
     1
  0
CLASS
  1
DICTIONARYVAR
  2
AcDbDictionaryVar
  3
AutoCAD 2000
 90
        0
280
     0
281
     0
  0
CLASS
  1
RASTERVARIABLES
  2
AcDbRasterVariables
  3
ISM
 90
        0
280
     0
281
     0
  0
CLASS
  1
IMAGEDEF
  2
AcDbRasterImageDef
  3
ISM
 90
        0
280
     0
281
     0
  0
CLASS
  1
IMAGEDEF_REACTOR
  2
AcDbRasterImageDefReactor
  3
ISM
 90
        1
280
     0
281
     0
  0
CLASS
  1
IDBUFFER
  2
AcDbIdBuffer
  3
AutoCAD 2000
 90
        0
280
     0
281
     0
  0
CLASS
  1
SPATIAL_FILTER
  2
AcDbSpatialFilter
  3
AutoCAD 2000
 90
        0
280
     0
281
     0
  0
CLASS
  1
XRECORD
  2
AcDbXrecord
  3
AutoCAD 2000
 90
        0
280
     0
281
     0
  0
CLASS
  1
SORTENTSTABLE
  2
AcDbSortentsTable
  3
AutoCAD 2000
 90
        0
280
     0
281
     0
  0
CLASS
  1
LAYER_INDEX
  2
AcDbLayerIndex
  3
AutoCAD 2000
 90
        0
280
     0
281
     0
  0
CLASS
  1
SPATIAL_INDEX
  2
AcDbSpatialIndex
  3
AutoCAD 2000
 90
        0
280
     0
281
     0
  0
CLASS
  1
OBJECT_PTR
  2
CAseDLPNTableRecord
  3
"ASE-LPNTableRecord"
 90
        1
280
     0
281
     0
  0
CLASS
  1
LAYOUT
  2
AcDbLayout
  3
AutoCAD 2000
 90
        0
280
     0
281
     0
  0
CLASS
  1
PLOTSETTINGS
  2
AcDbPlotSettings
  3
AutoCAD 2000
 90
        0
280
     0
281
     0
  0
CLASS
  1
ACDBDICTIONARYWDFLT
  2
AcDbDictionaryWithDefault
  3
AutoCAD 2000
 90
        0
280
     0
281
     0
  0
CLASS
  1
ACDBPLACEHOLDER
  2
AcDbPlaceHolder
  3
AutoCAD 2000
 90
        0
280
     0
281
     0
  0
CLASS
  1
VBA_PROJECT
  2
AcDbVbaProject
  3
acadvba
 90
        0
280
     0
281
     0
  0
CLASS
  1
WIPEOUT
  2
AcDbWipeout
  3
WipeOut|AutoCAD Express Tool|expresstools@autodesk.com
 90
      127
280
     0
281
     1
  0
CLASS
  1
WIPEOUTVARIABLES
  2
AcDbWipeoutVariables
  3
WipeOut|AutoCAD Express Tool|expresstools@autodesk.com
 90
        0
280
     0
281
     0
  0
CLASS
  1
RTEXT
  2
RText
  3
RText|AutoCAD Express Tool|expresstools@autodesk.com
 90
        0
280
     0
281
     1
  0
CLASS
  1
ARCALIGNEDTEXT
  2
AcDbArcAlignedText
  3
ATEXT|AutoCAD Express Tool|expresstools@autodesk.com
 90
        0
280
     0
281
     1
  0
ENDSEC
  0
SECTION
  2
TABLES
  0
TABLE
  2
VPORT
  5
1094
100
AcDbSymbolTable
 70
     1
  0
VPORT
  5
10BB
100
AcDbSymbolTableRecord
100
AcDbViewportTableRecord
  2
*ACTIVE
 70
     0
 10
0.0
 20
0.0
 11
1.0
 21
1.0
 12
450.328833
 22
266.374849
 13
0.0
 23
0.0
 14
0.5
 24
0.5
 15
0.5
 25
0.5
 16
0.0
 26
0.0
 36
1.0
 17
0.0
 27
0.0
 37
0.0
 40
620.078606
 41
1.701534
 42
50.0
 43
0.0
 44
0.0
 50
0.0
 51
0.0
 71
    16
 72
  1000
 73
     1
 74
     3
 75
     0
 76
     0
 77
     0
 78
     0
281
     0
 65
     0
110
0.0
120
0.0
130
0.0
111
1.0
121
0.0
131
0.0
112
0.0
122
1.0
132
0.0
345
0
346
0
 79
     0
146
0.0
  0
ENDTAB
  0
TABLE
  2
LTYPE
  5
1091
100
AcDbSymbolTable
 70
     6
  0
LTYPE
  5
109A
100
AcDbSymbolTableRecord
100
AcDbLinetypeTableRecord
  2
ByBlock
 70
    64
  3

 72
    65
 73
     0
 40
0.0
  0
LTYPE
  5
109B
100
AcDbSymbolTableRecord
100
AcDbLinetypeTableRecord
  2
ByLayer
 70
    64
  3

 72
    65
 73
     0
 40
0.0
  0
LTYPE
  5
109C
100
AcDbSymbolTableRecord
100
AcDbLinetypeTableRecord
  2
CONTINUOUS
 70
     0
  3
Solid line
 72
    65
 73
     0
 40
0.0
  0
LTYPE
  5
109D
100
AcDbSymbolTableRecord
100
AcDbLinetypeTableRecord
  2
CENTER
 70
     0
  3
____ _ ____ _ ____ _ ____ _ ____ _ ____ _ ____
 72
    65
 73
     4
 40
0.6
 49
0.375
 74
     0
 49
-0.075
 74
     0
 49
0.075
 74
     0
 49
-0.075
 74
     0
  0
LTYPE
  5
109E
100
AcDbSymbolTableRecord
100
AcDbLinetypeTableRecord
  2
ACAD_ISO02W100
 70
     0
  3
ISO Strichlinie __ __ __ __ __ __ __ __ __ __ _
 72
    65
 73
     2
 40
15.0
 49
12.0
 74
     0
 49
-3.0
 74
     0
  0
LTYPE
  5
109F
100
AcDbSymbolTableRecord
100
AcDbLinetypeTableRecord
  2
DASHED
 70
     0
  3
_ _ _ _ _ _ _ _ _ _ _ _ _ _ _ _ _ _ _ _ _ _ _ _
 72
    65
 73
     2
 40
0.375
 49
0.25
 74
     0
 49
-0.125
 74
     0
  0
ENDTAB
  0
TABLE
  2
LAYER
  5
108F
100
AcDbSymbolTable
 70
     9
  0
LAYER
  5
10A0
100
AcDbSymbolTableRecord
100
AcDbLayerTableRecord
  2
0
 70
     0
 62
     7
  6
CONTINUOUS
290
     1
370
    -3
390
0
  0
LAYER
  5
10A1
100
AcDbSymbolTableRecord
100
AcDbLayerTableRecord
  2
90000_FRAME
 70
     0
 62
     7
  6
CONTINUOUS
290
     1
370
    -3
390
0
  0
LAYER
  5
10A2
100
AcDbSymbolTableRecord
100
AcDbLayerTableRecord
  2
91000_TIP
 70
     0
 62
     7
  6
CONTINUOUS
290
     1
370
    -3
390
0
  0
LAYER
  5
10A3
100
AcDbSymbolTableRecord
100
AcDbLayerTableRecord
  2
10000_FRONT
 70
     0
 62
     7
  6
CONTINUOUS
290
     1
370
    -3
390
0
  0
LAYER
  5
10A4
100
AcDbSymbolTableRecord
100
AcDbLayerTableRecord
  2
11000_LEFT
 70
     0
 62
     7
  6
CONTINUOUS
290
     1
370
    -3
390
0
  0
LAYER
  5
10A5
100
AcDbSymbolTableRecord
100
AcDbLayerTableRecord
  2
30000_DRILLING
 70
     0
 62
     7
  6
CONTINUOUS
290
     1
370
    -3
390
0
  0
LAYER
  5
10A7
100
AcDbSymbolTableRecord
100
AcDbLayerTableRecord
  2
DEFPOINTS
 70
     0
 62
     7
  6
CONTINUOUS
290
     0
370
    -3
390
0
  0
LAYER
  5
10A8
100
AcDbSymbolTableRecord
100
AcDbLayerTableRecord
  2
10100_FRONT_DIM
 70
     0
 62
     7
  6
CONTINUOUS
290
     1
370
    -3
390
0
  0
LAYER
  5
10A9
100
AcDbSymbolTableRecord
100
AcDbLayerTableRecord
  2
11100_LEFT_DIM
 70
     0
 62
     7
  6
CONTINUOUS
290
     1
370
    -3
390
0
  0
ENDTAB
  0
TABLE
  2
STYLE
  5
1090
100
AcDbSymbolTable
 70
     2
  0
STYLE
  5
10C0
100
AcDbSymbolTableRecord
100
AcDbTextStyleTableRecord
  2
STANDARD
 70
     0
 40
0.0
 41
1.0
 50
0.0
 71
     0
 42
0.2
  3
txt.shx
  4

  0
STYLE
  5
16C7
100
AcDbSymbolTableRecord
100
AcDbTextStyleTableRecord
  2
TFONT1
 70
     0
 40
0.0
 41
1.0
 50
0.0
 71
     0
 42
0.2
  3
TXT.SHX
  4

  0
ENDTAB
  0
TABLE
  2
VIEW
  5
1092
100
AcDbSymbolTable
 70
     0
  0
ENDTAB
  0
TABLE
  2
UCS
  5
1093
100
AcDbSymbolTable
 70
     0
  0
ENDTAB
  0
TABLE
  2
APPID
  5
1095
100
AcDbSymbolTable
 70
     4
  0
APPID
  5
10BC
100
AcDbSymbolTableRecord
100
AcDbRegAppTableRecord
  2
ACAD
 70
     0
  0
APPID
  5
10BD
100
AcDbSymbolTableRecord
100
AcDbRegAppTableRecord
  2
AUSTER_ANSICHT
 70
     0
  0
APPID
  5
10BE
100
AcDbSymbolTableRecord
100
AcDbRegAppTableRecord
  2
AUSTER_FOLIE
 70
     0
  0
APPID
  5
10BF
100
AcDbSymbolTableRecord
100
AcDbRegAppTableRecord
  2
ACAECLAYERSTANDARD
 70
     0
  0
ENDTAB
  0
TABLE
  2
DIMSTYLE
  5
1096
100
AcDbSymbolTable
 70
     3
100
AcDbDimStyleTable
 71
     0
  0
DIMSTYLE
105
10CA
100
AcDbSymbolTableRecord
100
AcDbDimStyleTableRecord
  2
STANDARD
 70
     0
  3

  4

 40
1.0
 41
0.18
 42
0.0625
 43
0.38
 44
0.18
 45
0.0
 46
0.0
 47
0.0
 48
0.0
 71
     0
 72
     0
 73
     1
 74
     1
 75
     0
 76
     0
 77
     0
 78
     0
 79
     0
140
0.18
141
0.09
142
0.0
143
25.4
144
1.0
145
0.0
146
1.0
147
0.09
148
0.0
170
     0
171
     2
172
     0
173
     0
174
     0
175
     0
176
     0
177
     0
178
     0
179
     0
271
     4
272
     4
273
     2
274
     2
275
     0
276
     0
277
     2
278
    46
279
     0
280
     0
281
     0
282
     0
283
     1
284
     0
285
     0
286
     0
288
     0
289
     3
340
10C0
341
0
342
0
343
0
344
0
371
    -2
372
    -2
  0
DIMSTYLE
105
10CB
100
AcDbSymbolTableRecord
100
AcDbDimStyleTableRecord
  2
DSTYLE1
 70
     0
  3

  4

 40
1.0
 41
3.0
 42
0.0
 43
0.38
 44
1.0
 45
0.0
 46
0.0
 47
0.0
 48
0.0
 71
     0
 72
     0
 73
     0
 74
     0
 75
     0
 76
     0
 77
     1
 78
     3
 79
     0
140
2.5
141
0.09
142
0.0
143
0.03937
144
1.0
145
0.0
146
1.0
147
1.0
148
0.0
170
     0
171
     2
172
     0
173
     0
174
     0
175
     0
176
     0
177
     0
178
     0
179
     0
271
     4
272
     4
273
     2
274
     2
275
     0
276
     0
277
     2
278
    46
279
     0
280
     0
281
     0
282
     0
283
     1
284
     0
285
     0
286
     0
288
     0
289
     3
340
10C0
341
0
342
0
343
0
344
0
371
    -2
372
    -2
  0
DIMSTYLE
105
10CC
100
AcDbSymbolTableRecord
100
AcDbDimStyleTableRecord
  2
H035
 70
     0
  3

  4

 40
0.0
 41
3.5
 42
0.0
 43
3.75
 44
2.0
 45
0.0
 46
0.0
 47
0.0
 48
0.0
 71
     0
 72
     0
 73
     0
 74
     0
 75
     0
 76
     0
 77
     1
 78
     8
 79
     0
140
3.5
141
2.5
142
0.0
143
0.039
144
1.0
145
0.0
146
1.0
147
0.5
148
0.0
170
     0
171
     4
172
     1
173
     0
174
     0
175
     0
176
   256
177
     7
178
     7
179
     0
271
     4
272
     4
273
     2
274
     2
275
     0
276
     0
277
     2
278
    46
279
     0
280
     0
281
     0
282
     0
283
     1
284
     0
285
     0
286
     0
288
     0
289
     3
340
10C0
341
0
342
0
343
0
344
0
371
    -2
372
    -2
  0
ENDTAB
  0
TABLE
  2
BLOCK_RECORD
  5
10C5
100
AcDbSymbolTable
 70
     2
  0
BLOCK_RECORD
  5
10C3
100
AcDbSymbolTableRecord
100
AcDbBlockTableRecord
  2
*Model_Space
340
0
  0
BLOCK_RECORD
  5
10C4
100
AcDbSymbolTableRecord
100
AcDbBlockTableRecord
  2
*Paper_Space
340
0
  0
BLOCK_RECORD
  5
10C1
100
AcDbSymbolTableRecord
100
AcDbBlockTableRecord
  2
$MODEL_SPACE
340
0
  0
BLOCK_RECORD
  5
10C2
100
AcDbSymbolTableRecord
100
AcDbBlockTableRecord
  2
$PAPER_SPACE
340
0
  0
ENDTAB
  0
ENDSEC
  0
SECTION
  2
BLOCKS
  0
BLOCK
  5
10C6
100
AcDbEntity
  8
0
390
0
100
AcDbBlockBegin
  2
*Model_Space
 70
     0
 10
0.0
 20
0.0
 30
0.0
  3
*Model_Space
  1

  0
ENDBLK
  5
10C7
100
AcDbEntity
  8
0
390
0
100
AcDbBlockEnd
  0
BLOCK
  5
10C8
100
AcDbEntity
 67
     1
  8
0
390
0
100
AcDbBlockBegin
  2
*Paper_Space
 70
     0
 10
0.0
 20
0.0
 30
0.0
  3
*Paper_Space
  1

  0
ENDBLK
  5
10C9
100
AcDbEntity
 67
     1
  8
0
390
0
100
AcDbBlockEnd
  0
BLOCK
  5
10CD
100
AcDbEntity
  8
0
100
AcDbBlockBegin
  2
$MODEL_SPACE
 70
     0
 10
0.0
 20
0.0
 30
0.0
  3
$MODEL_SPACE
  1

  0
ENDBLK
  5
21
100
AcDbEntity
  8
0
100
AcDbBlockEnd
  0
BLOCK
  5
10CE
100
AcDbEntity
  8
0
100
AcDbBlockBegin
  2
$PAPER_SPACE
 70
     0
 10
0.0
 20
0.0
 30
0.0
  3
$PAPER_SPACE
  1

  0
ENDBLK
  5
76
100
AcDbEntity
  8
0
100
AcDbBlockEnd
  0
ENDSEC
  0
SECTION
  2
ENTITIES
  0
LINE
  5
10D4
100
AcDbEntity
  8
10000_FRONT
370
    25
390
0
  6
CONTINUOUS
 62
     7
100
AcDbLine
 10
92.754723
 20
274.970446
 30
0.0
 11
92.750001
 21
275.177943
 31
0.0
  0
LINE
  5
10D5
100
AcDbEntity
  8
10000_FRONT
370
    25
390
0
  6
CONTINUOUS
 62
     7
100
AcDbLine
 10
148.754725
 20
274.970446
 30
0.0
 11
148.749999
 21
275.177943
 31
0.0
  0
LINE
  5
10D6
100
AcDbEntity
  8
10000_FRONT
370
    25
390
0
  6
CONTINUOUS
 62
     7
100
AcDbLine
 10
148.769063
 20
274.760481
 30
0.0
 11
148.754725
 21
274.970446
 31
0.0
  0
LINE
  5
10D7
100
AcDbEntity
  8
10000_FRONT
370
    25
390
0
  6
CONTINUOUS
 62
     7
100
AcDbLine
 10
92.769063
 20
274.760481
 30
0.0
 11
92.754723
 21
274.970446
 31
0.0
  0
LINE
  5
10D8
100
AcDbEntity
  8
10000_FRONT
370
    25
390
0
  6
CONTINUOUS
 62
     7
100
AcDbLine
 10
92.793255
 20
274.548972
 30
0.0
 11
92.769063
 21
274.760481
 31
0.0
  0
LINE
  5
10D9
100
AcDbEntity
  8
10000_FRONT
370
    25
390
0
  6
CONTINUOUS
 62
     7
100
AcDbLine
 10
148.793257
 20
274.548972
 30
0.0
 11
148.769063
 21
274.760481
 31
0.0
  0
LINE
  5
10DA
100
AcDbEntity
  8
10000_FRONT
370
    25
390
0
  6
CONTINUOUS
 62
     7
100
AcDbLine
 10
148.827551
 20
274.336844
 30
0.0
 11
148.793257
 21
274.548972
 31
0.0
  0
LINE
  5
10DB
100
AcDbEntity
  8
10000_FRONT
370
    25
390
0
  6
CONTINUOUS
 62
     7
100
AcDbLine
 10
92.827553
 20
274.336844
 30
0.0
 11
92.793255
 21
274.548972
 31
0.0
  0
LINE
  5
10DC
100
AcDbEntity
  8
10000_FRONT
370
    25
390
0
  6
CONTINUOUS
 62
     7
100
AcDbLine
 10
92.872155
 20
274.125014
 30
0.0
 11
92.827553
 21
274.336844
 31
0.0
  0
LINE
  5
10DD
100
AcDbEntity
  8
10000_FRONT
370
    25
390
0
  6
CONTINUOUS
 62
     7
100
AcDbLine
 10
148.872155
 20
274.125014
 30
0.0
 11
148.827551
 21
274.336844
 31
0.0
  0
LINE
  5
10DE
100
AcDbEntity
  8
10000_FRONT
370
    25
390
0
  6
CONTINUOUS
 62
     7
100
AcDbLine
 10
92.927025
 20
273.914355
 30
0.0
 11
92.872155
 21
274.125014
 31
0.0
  0
LINE
  5
10DF
100
AcDbEntity
  8
10000_FRONT
370
    25
390
0
  6
CONTINUOUS
 62
     7
100
AcDbLine
 10
148.927027
 20
273.914355
 30
0.0
 11
148.872155
 21
274.125014
 31
0.0
  0
LINE
  5
10E0
100
AcDbEntity
  8
10000_FRONT
370
    25
390
0
  6
CONTINUOUS
 62
     7
100
AcDbLine
 10
92.992016
 20
273.705717
 30
0.0
 11
92.927025
 21
273.914355
 31
0.0
  0
LINE
  5
10E1
100
AcDbEntity
  8
10000_FRONT
370
    25
390
0
  6
CONTINUOUS
 62
     7
100
AcDbLine
 10
148.992018
 20
273.705717
 30
0.0
 11
148.927027
 21
273.914355
 31
0.0
  0
LINE
  5
10E2
100
AcDbEntity
  8
10000_FRONT
370
    25
390
0
  6
CONTINUOUS
 62
     7
100
AcDbLine
 10
93.066979
 20
273.499949
 30
0.0
 11
92.992016
 21
273.705717
 31
0.0
  0
LINE
  5
10E3
100
AcDbEntity
  8
10000_FRONT
370
    25
390
0
  6
CONTINUOUS
 62
     7
100
AcDbLine
 10
149.066981
 20
273.499949
 30
0.0
 11
148.992018
 21
273.705717
 31
0.0
  0
LINE
  5
10E4
100
AcDbEntity
  8
10000_FRONT
370
    25
390
0
  6
CONTINUOUS
 62
     7
100
AcDbLine
 10
113.663924
 20
166.265726
 30
0.0
 11
113.568162
 21
166.496661
 31
0.0
  0
LINE
  5
10E5
100
AcDbEntity
  8
10000_FRONT
370
    25
390
0
  6
CONTINUOUS
 62
     7
100
AcDbLine
 10
136.163924
 20
166.265726
 30
0.0
 11
136.068162
 21
166.496661
 31
0.0
  0
LINE
  5
10E6
100
AcDbEntity
  8
10000_FRONT
370
    25
390
0
  6
CONTINUOUS
 62
     7
100
AcDbLine
 10
115.103873
 20
166.862841
 30
0.0
 11
115.008111
 21
167.093775
 31
0.0
  0
LINE
  5
10E7
100
AcDbEntity
  8
10000_FRONT
370
    25
390
0
  6
CONTINUOUS
 62
     7
100
AcDbLine
 10
137.603873
 20
166.862841
 30
0.0
 11
137.508111
 21
167.093775
 31
0.0
  0
LINE
  5
10E8
100
AcDbEntity
  8
10000_FRONT
370
    25
390
0
  6
CONTINUOUS
 62
     7
100
AcDbLine
 10
113.031892
 20
167.789877
 30
0.0
 11
112.93613
 21
168.020811
 31
0.0
  0
LINE
  5
10E9
100
AcDbEntity
  8
10000_FRONT
370
    25
390
0
  6
CONTINUOUS
 62
     7
100
AcDbLine
 10
135.531892
 20
167.789877
 30
0.0
 11
135.43613
 21
168.020811
 31
0.0
  0
LINE
  5
10EA
100
AcDbEntity
  8
10000_FRONT
370
    25
390
0
  6
CONTINUOUS
 62
     7
100
AcDbLine
 10
114.471842
 20
168.386992
 30
0.0
 11
114.37608
 21
168.617926
 31
0.0
  0
LINE
  5
10EB
100
AcDbEntity
  8
10000_FRONT
370
    25
390
0
  6
CONTINUOUS
 62
     7
100
AcDbLine
 10
136.971842
 20
168.386992
 30
0.0
 11
136.87608
 21
168.617926
 31
0.0
  0
LINE
  5
10EC
100
AcDbEntity
  8
10000_FRONT
370
    25
390
0
  6
CONTINUOUS
 62
     7
100
AcDbLine
 10
152.441887
 20
275.456225
 30
0.0
 11
152.346125
 21
275.687159
 31
0.0
  0
LINE
  5
10ED
100
AcDbEntity
  8
10000_FRONT
370
    25
390
0
  6
CONTINUOUS
 62
     7
100
AcDbLine
 10
96.441887
 20
275.456225
 30
0.0
 11
96.346125
 21
275.687159
 31
0.0
  0
LINE
  5
10EE
100
AcDbEntity
  8
10000_FRONT
370
    25
390
0
  6
CONTINUOUS
 62
     7
100
AcDbLine
 10
113.191887
 20
167.856226
 30
0.0
 11
113.096125
 21
168.087157
 31
0.0
  0
LINE
  5
10EF
100
AcDbEntity
  8
10000_FRONT
370
    25
390
0
  6
CONTINUOUS
 62
     7
100
AcDbLine
 10
135.691887
 20
167.856226
 30
0.0
 11
135.596125
 21
168.087157
 31
0.0
  0
LINE
  5
10F0
100
AcDbEntity
  8
10000_FRONT
370
    25
390
0
  6
CONTINUOUS
 62
     7
100
AcDbLine
 10
154.353873
 20
274.462843
 30
0.0
 11
154.258111
 21
274.693774
 31
0.0
  0
LINE
  5
10F1
100
AcDbEntity
  8
10000_FRONT
370
    25
390
0
  6
CONTINUOUS
 62
     7
100
AcDbLine
 10
98.353873
 20
274.462843
 30
0.0
 11
98.258111
 21
274.693774
 31
0.0
  0
LINE
  5
10F2
100
AcDbEntity
  8
10000_FRONT
370
    25
390
0
  6
CONTINUOUS
 62
     7
100
AcDbLine
 10
153.881836
 20
276.053339
 30
0.0
 11
153.786074
 21
276.28427
 31
0.0
  0
LINE
  5
10F3
100
AcDbEntity
  8
10000_FRONT
370
    25
390
0
  6
CONTINUOUS
 62
     7
100
AcDbLine
 10
97.881836
 20
276.053339
 30
0.0
 11
97.786074
 21
276.28427
 31
0.0
  0
LINE
  5
10F4
100
AcDbEntity
  8
10000_FRONT
370
    25
390
0
  6
CONTINUOUS
 62
     7
100
AcDbLine
 10
113.823918
 20
166.332076
 30
0.0
 11
113.728156
 21
166.563006
 31
0.0
  0
LINE
  5
10F5
100
AcDbEntity
  8
10000_FRONT
370
    25
390
0
  6
CONTINUOUS
 62
     7
100
AcDbLine
 10
136.323918
 20
166.332076
 30
0.0
 11
136.228156
 21
166.563006
 31
0.0
  0
LINE
  5
10F6
100
AcDbEntity
  8
10000_FRONT
370
    25
390
0
  6
CONTINUOUS
 62
     7
100
AcDbLine
 10
115.263868
 20
166.92919
 30
0.0
 11
115.168106
 21
167.16012
 31
0.0
  0
LINE
  5
10F7
100
AcDbEntity
  8
10000_FRONT
370
    25
390
0
  6
CONTINUOUS
 62
     7
100
AcDbLine
 10
137.763868
 20
166.92919
 30
0.0
 11
137.668106
 21
167.16012
 31
0.0
  0
LINE
  5
10F8
100
AcDbEntity
  8
10000_FRONT
370
    25
390
0
  6
CONTINUOUS
 62
     7
100
AcDbLine
 10
114.631836
 20
168.453341
 30
0.0
 11
114.536074
 21
168.684271
 31
0.0
  0
LINE
  5
10F9
100
AcDbEntity
  8
10000_FRONT
370
    25
390
0
  6
CONTINUOUS
 62
     7
100
AcDbLine
 10
137.131836
 20
168.453341
 30
0.0
 11
137.036074
 21
168.684271
 31
0.0
  0
LINE
  5
10FA
100
AcDbEntity
  8
10000_FRONT
370
    25
390
0
  6
CONTINUOUS
 62
     7
100
AcDbLine
 10
152.913924
 20
273.865729
 30
0.0
 11
152.818162
 21
274.096659
 31
0.0
  0
LINE
  5
10FB
100
AcDbEntity
  8
10000_FRONT
370
    25
390
0
  6
CONTINUOUS
 62
     7
100
AcDbLine
 10
96.913924
 20
273.865729
 30
0.0
 11
96.818162
 21
274.096659
 31
0.0
  0
LINE
  5
10FC
100
AcDbEntity
  8
10000_FRONT
370
    25
390
0
  6
CONTINUOUS
 62
     7
100
AcDbLine
 10
153.073918
 20
273.932074
 30
0.0
 11
152.978156
 21
274.163004
 31
0.0
  0
LINE
  5
10FD
100
AcDbEntity
  8
10000_FRONT
370
    25
390
0
  6
CONTINUOUS
 62
     7
100
AcDbLine
 10
97.073918
 20
273.932074
 30
0.0
 11
96.978156
 21
274.163004
 31
0.0
  0
LINE
  5
10FE
100
AcDbEntity
  8
10000_FRONT
370
    25
390
0
  6
CONTINUOUS
 62
     7
100
AcDbLine
 10
154.513867
 20
274.529189
 30
0.0
 11
154.418105
 21
274.760119
 31
0.0
  0
LINE
  5
10FF
100
AcDbEntity
  8
10000_FRONT
370
    25
390
0
  6
CONTINUOUS
 62
     7
100
AcDbLine
 10
98.513867
 20
274.529189
 30
0.0
 11
98.418105
 21
274.760119
 31
0.0
  0
LINE
  5
1100
100
AcDbEntity
  8
10000_FRONT
370
    25
390
0
  6
CONTINUOUS
 62
     7
100
AcDbLine
 10
152.281893
 20
275.38988
 30
0.0
 11
152.186131
 21
275.62081
 31
0.0
  0
LINE
  5
1101
100
AcDbEntity
  8
10000_FRONT
370
    25
390
0
  6
CONTINUOUS
 62
     7
100
AcDbLine
 10
96.281893
 20
275.38988
 30
0.0
 11
96.186131
 21
275.62081
 31
0.0
  0
LINE
  5
1102
100
AcDbEntity
  8
10000_FRONT
370
    25
390
0
  6
CONTINUOUS
 62
     7
100
AcDbLine
 10
153.721842
 20
275.986994
 30
0.0
 11
153.62608
 21
276.217924
 31
0.0
  0
LINE
  5
1103
100
AcDbEntity
  8
10000_FRONT
370
    25
390
0
  6
CONTINUOUS
 62
     7
100
AcDbLine
 10
97.721842
 20
275.986994
 30
0.0
 11
97.62608
 21
276.217924
 31
0.0
  0
LINE
  5
1104
100
AcDbEntity
  8
10000_FRONT
370
    25
390
0
  6
CONTINUOUS
 62
     7
100
AcDbLine
 10
93.151764
 20
273.297869
 30
0.0
 11
93.066979
 21
273.499949
 31
0.0
  0
LINE
  5
1105
100
AcDbEntity
  8
10000_FRONT
370
    25
390
0
  6
CONTINUOUS
 62
     7
100
AcDbLine
 10
149.151766
 20
273.297869
 30
0.0
 11
149.066981
 21
273.499949
 31
0.0
  0
LINE
  5
1106
100
AcDbEntity
  8
10000_FRONT
370
    25
390
0
  6
CONTINUOUS
 62
     7
100
AcDbLine
 10
124.686317
 20
241.206765
 30
0.0
 11
124.140037
 21
242.504565
 31
0.0
  0
LINE
  5
1107
100
AcDbEntity
  8
10000_FRONT
370
    25
390
0
  6
CONTINUOUS
 62
     7
100
AcDbLine
 10
124.379227
 20
240.375
 30
0.0
 11
123.78511
 21
241.777735
 31
0.0
  0
LINE
  5
1108
100
AcDbEntity
  8
10000_FRONT
370
    25
390
0
  6
CONTINUOUS
 62
     7
100
AcDbLine
 10
149.246083
 20
273.100142
 30
0.0
 11
149.151766
 21
273.297869
 31
0.0
  0
LINE
  5
1109
100
AcDbEntity
  8
10000_FRONT
370
    25
390
0
  6
CONTINUOUS
 62
     7
100
AcDbLine
 10
93.246083
 20
273.100142
 30
0.0
 11
93.151764
 21
273.297869
 31
0.0
  0
LINE
  5
110A
100
AcDbEntity
  8
10000_FRONT
370
    25
390
0
  6
CONTINUOUS
 62
     7
100
AcDbLine
 10
93.349457
 20
272.907469
 30
0.0
 11
93.246083
 21
273.100142
 31
0.0
  0
LINE
  5
110B
100
AcDbEntity
  8
10000_FRONT
370
    25
390
0
  6
CONTINUOUS
 62
     7
100
AcDbLine
 10
149.349457
 20
272.907469
 30
0.0
 11
149.246083
 21
273.100142
 31
0.0
  0
LINE
  5
110C
100
AcDbEntity
  8
10000_FRONT
370
    25
390
0
  6
CONTINUOUS
 62
     7
100
AcDbLine
 10
129.631493
 20
240.375
 30
0.0
 11
128.867628
 21
241.725268
 31
0.0
  0
LINE
  5
110D
100
AcDbEntity
  8
10000_FRONT
370
    25
390
0
  6
CONTINUOUS
 62
     7
100
AcDbLine
 10
129.890744
 20
241.171273
 30
0.0
 11
129.125336
 21
242.504565
 31
0.0
  0
LINE
  5
110E
100
AcDbEntity
  8
10000_FRONT
370
    25
390
0
  6
CONTINUOUS
 62
     7
100
AcDbLine
 10
93.461407
 20
272.720568
 30
0.0
 11
93.349457
 21
272.907469
 31
0.0
  0
LINE
  5
110F
100
AcDbEntity
  8
10000_FRONT
370
    25
390
0
  6
CONTINUOUS
 62
     7
100
AcDbLine
 10
149.461407
 20
272.720568
 30
0.0
 11
149.349457
 21
272.907469
 31
0.0
  0
LINE
  5
1110
100
AcDbEntity
  8
10000_FRONT
370
    25
390
0
  6
CONTINUOUS
 62
     7
100
AcDbLine
 10
102.687775
 20
223.476924
 30
0.0
 11
102.514863
 21
223.75577
 31
0.0
  0
LINE
  5
1111
100
AcDbEntity
  8
10000_FRONT
370
    25
390
0
  6
CONTINUOUS
 62
     7
100
AcDbLine
 10
104.344077
 20
223.476924
 30
0.0
 11
104.158583
 21
223.77606
 31
0.0
  0
LINE
  5
1112
100
AcDbEntity
  8
10000_FRONT
370
    25
390
0
  6
CONTINUOUS
 62
     7
100
AcDbLine
 10
93.581446
 20
272.540152
 30
0.0
 11
93.461407
 21
272.720568
 31
0.0
  0
LINE
  5
1113
100
AcDbEntity
  8
10000_FRONT
370
    25
390
0
  6
CONTINUOUS
 62
     7
100
AcDbLine
 10
149.581446
 20
272.540152
 30
0.0
 11
149.461407
 21
272.720568
 31
0.0
  0
LINE
  5
1114
100
AcDbEntity
  8
10000_FRONT
370
    25
390
0
  6
CONTINUOUS
 62
     7
100
AcDbLine
 10
93.708958
 20
272.36685
 30
0.0
 11
93.581446
 21
272.540152
 31
0.0
  0
LINE
  5
1115
100
AcDbEntity
  8
10000_FRONT
370
    25
390
0
  6
CONTINUOUS
 62
     7
100
AcDbLine
 10
149.708958
 20
272.36685
 30
0.0
 11
149.581446
 21
272.540152
 31
0.0
  0
LINE
  5
1116
100
AcDbEntity
  8
10000_FRONT
370
    25
390
0
  6
CONTINUOUS
 62
     7
100
AcDbLine
 10
93.84314
 20
272.201163
 30
0.0
 11
93.708958
 21
272.36685
 31
0.0
  0
LINE
  5
1117
100
AcDbEntity
  8
10000_FRONT
370
    25
390
0
  6
CONTINUOUS
 62
     7
100
AcDbLine
 10
149.84314
 20
272.201163
 30
0.0
 11
149.708958
 21
272.36685
 31
0.0
  0
LINE
  5
1118
100
AcDbEntity
  8
10000_FRONT
370
    25
390
0
  6
CONTINUOUS
 62
     7
100
AcDbLine
 10
93.983176
 20
272.043581
 30
0.0
 11
93.84314
 21
272.201163
 31
0.0
  0
LINE
  5
1119
100
AcDbEntity
  8
10000_FRONT
370
    25
390
0
  6
CONTINUOUS
 62
     7
100
AcDbLine
 10
149.983176
 20
272.043581
 30
0.0
 11
149.84314
 21
272.201163
 31
0.0
  0
LINE
  5
111A
100
AcDbEntity
  8
10000_FRONT
370
    25
390
0
  6
CONTINUOUS
 62
     7
100
AcDbLine
 10
94.128323
 20
271.89453
 30
0.0
 11
93.983176
 21
272.043581
 31
0.0
  0
LINE
  5
111B
100
AcDbEntity
  8
10000_FRONT
370
    25
390
0
  6
CONTINUOUS
 62
     7
100
AcDbLine
 10
150.128323
 20
271.89453
 30
0.0
 11
149.983176
 21
272.043581
 31
0.0
  0
LINE
  5
111C
100
AcDbEntity
  8
10000_FRONT
370
    25
390
0
  6
CONTINUOUS
 62
     7
100
AcDbLine
 10
94.280942
 20
271.751517
 30
0.0
 11
94.128323
 21
271.89453
 31
0.0
  0
LINE
  5
111D
100
AcDbEntity
  8
10000_FRONT
370
    25
390
0
  6
CONTINUOUS
 62
     7
100
AcDbLine
 10
150.280942
 20
271.751517
 30
0.0
 11
150.128323
 21
271.89453
 31
0.0
  0
LINE
  5
111E
100
AcDbEntity
  8
10000_FRONT
370
    25
390
0
  6
CONTINUOUS
 62
     7
100
AcDbLine
 10
94.44212
 20
271.613745
 30
0.0
 11
94.280942
 21
271.751517
 31
0.0
  0
LINE
  5
111F
100
AcDbEntity
  8
10000_FRONT
370
    25
390
0
  6
CONTINUOUS
 62
     7
100
AcDbLine
 10
150.44212
 20
271.613745
 30
0.0
 11
150.280942
 21
271.751517
 31
0.0
  0
LINE
  5
1120
100
AcDbEntity
  8
10000_FRONT
370
    25
390
0
  6
CONTINUOUS
 62
     7
100
AcDbLine
 10
114.985045
 20
166.740702
 30
0.0
 11
114.792644
 21
166.900332
 31
0.0
  0
LINE
  5
1121
100
AcDbEntity
  8
10000_FRONT
370
    25
390
0
  6
CONTINUOUS
 62
     7
100
AcDbLine
 10
137.485045
 20
166.740702
 30
0.0
 11
137.292644
 21
166.900332
 31
0.0
  0
LINE
  5
1122
100
AcDbEntity
  8
10000_FRONT
370
    25
390
0
  6
CONTINUOUS
 62
     7
100
AcDbLine
 10
113.407354
 20
168.04967
 30
0.0
 11
113.214953
 21
168.209299
 31
0.0
  0
LINE
  5
1123
100
AcDbEntity
  8
10000_FRONT
370
    25
390
0
  6
CONTINUOUS
 62
     7
100
AcDbLine
 10
135.907354
 20
168.04967
 30
0.0
 11
135.714953
 21
168.209299
 31
0.0
  0
LINE
  5
1124
100
AcDbEntity
  8
10000_FRONT
370
    25
390
0
  6
CONTINUOUS
 62
     7
100
AcDbLine
 10
152.657355
 20
275.649668
 30
0.0
 11
152.464953
 21
275.809298
 31
0.0
  0
LINE
  5
1125
100
AcDbEntity
  8
10000_FRONT
370
    25
390
0
  6
CONTINUOUS
 62
     7
100
AcDbLine
 10
96.657355
 20
275.649668
 30
0.0
 11
96.464953
 21
275.809298
 31
0.0
  0
LINE
  5
1126
100
AcDbEntity
  8
10000_FRONT
370
    25
390
0
  6
CONTINUOUS
 62
     7
100
AcDbLine
 10
154.235045
 20
274.340701
 30
0.0
 11
154.042643
 21
274.50033
 31
0.0
  0
LINE
  5
1127
100
AcDbEntity
  8
10000_FRONT
370
    25
390
0
  6
CONTINUOUS
 62
     7
100
AcDbLine
 10
98.235045
 20
274.340701
 30
0.0
 11
98.042643
 21
274.50033
 31
0.0
  0
LINE
  5
1128
100
AcDbEntity
  8
10000_FRONT
370
    25
390
0
  6
CONTINUOUS
 62
     7
100
AcDbLine
 10
94.611361
 20
271.482069
 30
0.0
 11
94.44212
 21
271.613745
 31
0.0
  0
LINE
  5
1129
100
AcDbEntity
  8
10000_FRONT
370
    25
390
0
  6
CONTINUOUS
 62
     7
100
AcDbLine
 10
150.611361
 20
271.482069
 30
0.0
 11
150.44212
 21
271.613745
 31
0.0
  0
LINE
  5
112A
100
AcDbEntity
  8
10000_FRONT
370
    25
390
0
  6
CONTINUOUS
 62
     7
100
AcDbLine
 10
152.222155
 20
274.742628
 30
0.0
 11
152.084702
 21
274.848017
 31
0.0
  0
LINE
  5
112B
100
AcDbEntity
  8
10000_FRONT
370
    25
390
0
  6
CONTINUOUS
 62
     7
100
AcDbLine
 10
96.222155
 20
274.742628
 30
0.0
 11
96.084702
 21
274.848017
 31
0.0
  0
LINE
  5
112C
100
AcDbEntity
  8
10000_FRONT
370
    25
390
0
  6
CONTINUOUS
 62
     7
100
AcDbLine
 10
113.976094
 20
168.452059
 30
0.0
 11
113.83864
 21
168.557448
 31
0.0
  0
LINE
  5
112D
100
AcDbEntity
  8
10000_FRONT
370
    25
390
0
  6
CONTINUOUS
 62
     7
100
AcDbLine
 10
136.476094
 20
168.452059
 30
0.0
 11
136.33864
 21
168.557448
 31
0.0
  0
LINE
  5
112E
100
AcDbEntity
  8
10000_FRONT
370
    25
390
0
  6
CONTINUOUS
 62
     7
100
AcDbLine
 10
153.611359
 20
273.992552
 30
0.0
 11
153.473904
 21
274.097941
 31
0.0
  0
LINE
  5
112F
100
AcDbEntity
  8
10000_FRONT
370
    25
390
0
  6
CONTINUOUS
 62
     7
100
AcDbLine
 10
97.611359
 20
273.992552
 30
0.0
 11
97.473904
 21
274.097941
 31
0.0
  0
LINE
  5
1130
100
AcDbEntity
  8
10000_FRONT
370
    25
390
0
  6
CONTINUOUS
 62
     7
100
AcDbLine
 10
152.374268
 20
274.941027
 30
0.0
 11
152.236813
 21
275.046416
 31
0.0
  0
LINE
  5
1131
100
AcDbEntity
  8
10000_FRONT
370
    25
390
0
  6
CONTINUOUS
 62
     7
100
AcDbLine
 10
96.374268
 20
274.941027
 30
0.0
 11
96.236813
 21
275.046416
 31
0.0
  0
LINE
  5
1132
100
AcDbEntity
  8
10000_FRONT
370
    25
390
0
  6
CONTINUOUS
 62
     7
100
AcDbLine
 10
114.128206
 20
168.650458
 30
0.0
 11
113.990751
 21
168.755846
 31
0.0
  0
LINE
  5
1133
100
AcDbEntity
  8
10000_FRONT
370
    25
390
0
  6
CONTINUOUS
 62
     7
100
AcDbLine
 10
136.628206
 20
168.650458
 30
0.0
 11
136.490751
 21
168.755846
 31
0.0
  0
LINE
  5
1134
100
AcDbEntity
  8
10000_FRONT
370
    25
390
0
  6
CONTINUOUS
 62
     7
100
AcDbLine
 10
153.459246
 20
273.794154
 30
0.0
 11
153.321791
 21
273.899542
 31
0.0
  0
LINE
  5
1135
100
AcDbEntity
  8
10000_FRONT
370
    25
390
0
  6
CONTINUOUS
 62
     7
100
AcDbLine
 10
97.459246
 20
273.794154
 30
0.0
 11
97.321791
 21
273.899542
 31
0.0
  0
LINE
  5
1136
100
AcDbEntity
  8
10000_FRONT
370
    25
390
0
  6
CONTINUOUS
 62
     7
100
AcDbLine
 10
154.615296
 20
275.301985
 30
0.0
 11
154.477843
 21
275.40737
 31
0.0
  0
LINE
  5
1137
100
AcDbEntity
  8
10000_FRONT
370
    25
390
0
  6
CONTINUOUS
 62
     7
100
AcDbLine
 10
98.615296
 20
275.301985
 30
0.0
 11
98.477843
 21
275.40737
 31
0.0
  0
LINE
  5
1138
100
AcDbEntity
  8
10000_FRONT
370
    25
390
0
  6
CONTINUOUS
 62
     7
100
AcDbLine
 10
114.361358
 20
166.392554
 30
0.0
 11
114.223904
 21
166.497939
 31
0.0
  0
LINE
  5
1139
100
AcDbEntity
  8
10000_FRONT
370
    25
390
0
  6
CONTINUOUS
 62
     7
100
AcDbLine
 10
136.861358
 20
166.392554
 30
0.0
 11
136.723904
 21
166.497939
 31
0.0
  0
LINE
  5
113A
100
AcDbEntity
  8
10000_FRONT
370
    25
390
0
  6
CONTINUOUS
 62
     7
100
AcDbLine
 10
114.209247
 20
166.194155
 30
0.0
 11
114.071792
 21
166.29954
 31
0.0
  0
LINE
  5
113B
100
AcDbEntity
  8
10000_FRONT
370
    25
390
0
  6
CONTINUOUS
 62
     7
100
AcDbLine
 10
136.709247
 20
166.194155
 30
0.0
 11
136.571792
 21
166.29954
 31
0.0
  0
LINE
  5
113C
100
AcDbEntity
  8
10000_FRONT
370
    25
390
0
  6
CONTINUOUS
 62
     7
100
AcDbLine
 10
112.972156
 20
167.14263
 30
0.0
 11
112.834701
 21
167.248015
 31
0.0
  0
LINE
  5
113D
100
AcDbEntity
  8
10000_FRONT
370
    25
390
0
  6
CONTINUOUS
 62
     7
100
AcDbLine
 10
135.472156
 20
167.14263
 30
0.0
 11
135.334701
 21
167.248015
 31
0.0
  0
LINE
  5
113E
100
AcDbEntity
  8
10000_FRONT
370
    25
390
0
  6
CONTINUOUS
 62
     7
100
AcDbLine
 10
115.213185
 20
167.503584
 30
0.0
 11
115.07573
 21
167.608969
 31
0.0
  0
LINE
  5
113F
100
AcDbEntity
  8
10000_FRONT
370
    25
390
0
  6
CONTINUOUS
 62
     7
100
AcDbLine
 10
137.713185
 20
167.503584
 30
0.0
 11
137.57573
 21
167.608969
 31
0.0
  0
LINE
  5
1140
100
AcDbEntity
  8
10000_FRONT
370
    25
390
0
  6
CONTINUOUS
 62
     7
100
AcDbLine
 10
115.365297
 20
167.701983
 30
0.0
 11
115.227842
 21
167.807368
 31
0.0
  0
LINE
  5
1141
100
AcDbEntity
  8
10000_FRONT
370
    25
390
0
  6
CONTINUOUS
 62
     7
100
AcDbLine
 10
137.865297
 20
167.701983
 30
0.0
 11
137.727842
 21
167.807368
 31
0.0
  0
LINE
  5
1142
100
AcDbEntity
  8
10000_FRONT
370
    25
390
0
  6
CONTINUOUS
 62
     7
100
AcDbLine
 10
153.226094
 20
276.052061
 30
0.0
 11
153.088639
 21
276.157446
 31
0.0
  0
LINE
  5
1143
100
AcDbEntity
  8
10000_FRONT
370
    25
390
0
  6
CONTINUOUS
 62
     7
100
AcDbLine
 10
97.226094
 20
276.052061
 30
0.0
 11
97.088639
 21
276.157446
 31
0.0
  0
LINE
  5
1144
100
AcDbEntity
  8
10000_FRONT
370
    25
390
0
  6
CONTINUOUS
 62
     7
100
AcDbLine
 10
153.378207
 20
276.25046
 30
0.0
 11
153.240752
 21
276.355845
 31
0.0
  0
LINE
  5
1145
100
AcDbEntity
  8
10000_FRONT
370
    25
390
0
  6
CONTINUOUS
 62
     7
100
AcDbLine
 10
97.378207
 20
276.25046
 30
0.0
 11
97.240752
 21
276.355845
 31
0.0
  0
LINE
  5
1146
100
AcDbEntity
  8
10000_FRONT
370
    25
390
0
  6
CONTINUOUS
 62
     7
100
AcDbLine
 10
113.124268
 20
167.341029
 30
0.0
 11
112.986813
 21
167.446413
 31
0.0
  0
LINE
  5
1147
100
AcDbEntity
  8
10000_FRONT
370
    25
390
0
  6
CONTINUOUS
 62
     7
100
AcDbLine
 10
135.624268
 20
167.341029
 30
0.0
 11
135.486813
 21
167.446413
 31
0.0
  0
LINE
  5
1148
100
AcDbEntity
  8
10000_FRONT
370
    25
390
0
  6
CONTINUOUS
 62
     7
100
AcDbLine
 10
154.463185
 20
275.103587
 30
0.0
 11
154.32573
 21
275.208971
 31
0.0
  0
LINE
  5
1149
100
AcDbEntity
  8
10000_FRONT
370
    25
390
0
  6
CONTINUOUS
 62
     7
100
AcDbLine
 10
98.463185
 20
275.103587
 30
0.0
 11
98.32573
 21
275.208971
 31
0.0
  0
LINE
  5
114A
100
AcDbEntity
  8
10000_FRONT
370
    25
390
0
  6
CONTINUOUS
 62
     7
100
AcDbLine
 10
154.288868
 20
274.410902
 30
0.0
 11
154.084767
 21
274.555273
 31
0.0
  0
LINE
  5
114B
100
AcDbEntity
  8
10000_FRONT
370
    25
390
0
  6
CONTINUOUS
 62
     7
100
AcDbLine
 10
98.288868
 20
274.410902
 30
0.0
 11
98.084767
 21
274.555273
 31
0.0
  0
LINE
  5
114C
100
AcDbEntity
  8
10000_FRONT
370
    25
390
0
  6
CONTINUOUS
 62
     7
100
AcDbLine
 10
152.615231
 20
275.594725
 30
0.0
 11
152.41113
 21
275.739096
 31
0.0
  0
LINE
  5
114D
100
AcDbEntity
  8
10000_FRONT
370
    25
390
0
  6
CONTINUOUS
 62
     7
100
AcDbLine
 10
96.615231
 20
275.594725
 30
0.0
 11
96.41113
 21
275.739096
 31
0.0
  0
LINE
  5
114E
100
AcDbEntity
  8
10000_FRONT
370
    25
390
0
  6
CONTINUOUS
 62
     7
100
AcDbLine
 10
115.038869
 20
166.810904
 30
0.0
 11
114.834767
 21
166.955271
 31
0.0
  0
LINE
  5
114F
100
AcDbEntity
  8
10000_FRONT
370
    25
390
0
  6
CONTINUOUS
 62
     7
100
AcDbLine
 10
137.538869
 20
166.810904
 30
0.0
 11
137.334767
 21
166.955271
 31
0.0
  0
LINE
  5
1150
100
AcDbEntity
  8
10000_FRONT
370
    25
390
0
  6
CONTINUOUS
 62
     7
100
AcDbLine
 10
113.365231
 20
167.994727
 30
0.0
 11
113.161129
 21
168.139094
 31
0.0
  0
LINE
  5
1151
100
AcDbEntity
  8
10000_FRONT
370
    25
390
0
  6
CONTINUOUS
 62
     7
100
AcDbLine
 10
135.865231
 20
167.994727
 30
0.0
 11
135.661129
 21
168.139094
 31
0.0
  0
LINE
  5
1152
100
AcDbEntity
  8
10000_FRONT
370
    25
390
0
  6
CONTINUOUS
 62
     7
100
AcDbLine
 10
94.788172
 20
271.357333
 30
0.0
 11
94.611361
 21
271.482069
 31
0.0
  0
LINE
  5
1153
100
AcDbEntity
  8
10000_FRONT
370
    25
390
0
  6
CONTINUOUS
 62
     7
100
AcDbLine
 10
150.788172
 20
271.357333
 30
0.0
 11
150.611361
 21
271.482069
 31
0.0
  0
LINE
  5
1154
100
AcDbEntity
  8
10000_FRONT
370
    25
390
0
  6
CONTINUOUS
 62
     7
100
AcDbLine
 10
94.972014
 20
271.240324
 30
0.0
 11
94.788172
 21
271.357333
 31
0.0
  0
LINE
  5
1155
100
AcDbEntity
  8
10000_FRONT
370
    25
390
0
  6
CONTINUOUS
 62
     7
100
AcDbLine
 10
150.972014
 20
271.240324
 30
0.0
 11
150.788172
 21
271.357333
 31
0.0
  0
LINE
  5
1156
100
AcDbEntity
  8
10000_FRONT
370
    25
390
0
  6
CONTINUOUS
 62
     7
100
AcDbLine
 10
102.849999
 20
154.715598
 30
0.0
 11
100.849999
 21
155.870299
 31
0.0
  0
LINE
  5
1157
100
AcDbEntity
  8
10000_FRONT
370
    25
390
0
  6
CONTINUOUS
 62
     7
100
AcDbLine
 10
125.349999
 20
154.715598
 30
0.0
 11
123.349999
 21
155.870299
 31
0.0
  0
LINE
  5
1158
100
AcDbEntity
  8
10000_FRONT
370
    25
390
0
  6
CONTINUOUS
 62
     7
100
AcDbLine
 10
147.849999
 20
154.715598
 30
0.0
 11
145.849999
 21
155.870299
 31
0.0
  0
LINE
  5
1159
100
AcDbEntity
  8
10000_FRONT
370
    25
390
0
  6
CONTINUOUS
 62
     7
100
AcDbLine
 10
104.849999
 20
158.179701
 30
0.0
 11
102.849999
 21
159.334402
 31
0.0
  0
LINE
  5
115A
100
AcDbEntity
  8
10000_FRONT
370
    25
390
0
  6
CONTINUOUS
 62
     7
100
AcDbLine
 10
127.349999
 20
158.179701
 30
0.0
 11
125.349999
 21
159.334402
 31
0.0
  0
LINE
  5
115B
100
AcDbEntity
  8
10000_FRONT
370
    25
390
0
  6
CONTINUOUS
 62
     7
100
AcDbLine
 10
149.849999
 20
158.179701
 30
0.0
 11
147.849999
 21
159.334402
 31
0.0
  0
LINE
  5
115C
100
AcDbEntity
  8
10000_FRONT
370
    25
390
0
  6
CONTINUOUS
 62
     7
100
AcDbLine
 10
147.849999
 20
283.215598
 30
0.0
 11
145.849999
 21
284.370299
 31
0.0
  0
LINE
  5
115D
100
AcDbEntity
  8
10000_FRONT
370
    25
390
0
  6
CONTINUOUS
 62
     7
100
AcDbLine
 10
125.349999
 20
283.215598
 30
0.0
 11
123.349999
 21
284.370299
 31
0.0
  0
LINE
  5
115E
100
AcDbEntity
  8
10000_FRONT
370
    25
390
0
  6
CONTINUOUS
 62
     7
100
AcDbLine
 10
102.849999
 20
283.215598
 30
0.0
 11
100.849999
 21
284.370299
 31
0.0
  0
LINE
  5
115F
100
AcDbEntity
  8
10000_FRONT
370
    25
390
0
  6
CONTINUOUS
 62
     7
100
AcDbLine
 10
149.849999
 20
286.679701
 30
0.0
 11
147.849999
 21
287.834402
 31
0.0
  0
LINE
  5
1160
100
AcDbEntity
  8
10000_FRONT
370
    25
390
0
  6
CONTINUOUS
 62
     7
100
AcDbLine
 10
127.349999
 20
286.679701
 30
0.0
 11
125.349999
 21
287.834402
 31
0.0
  0
LINE
  5
1161
100
AcDbEntity
  8
10000_FRONT
370
    25
390
0
  6
CONTINUOUS
 62
     7
100
AcDbLine
 10
104.849999
 20
286.679701
 30
0.0
 11
102.849999
 21
287.834402
 31
0.0
  0
LINE
  5
1162
100
AcDbEntity
  8
10000_FRONT
370
    25
390
0
  6
CONTINUOUS
 62
     7
100
AcDbLine
 10
95.1622
 20
271.131606
 30
0.0
 11
94.972014
 21
271.240324
 31
0.0
  0
LINE
  5
1163
100
AcDbEntity
  8
10000_FRONT
370
    25
390
0
  6
CONTINUOUS
 62
     7
100
AcDbLine
 10
151.1622
 20
271.131606
 30
0.0
 11
150.972014
 21
271.240324
 31
0.0
  0
LINE
  5
1164
100
AcDbEntity
  8
10000_FRONT
370
    25
390
0
  6
CONTINUOUS
 62
     7
100
AcDbLine
 10
118.710118
 20
202.268462
 30
0.0
 11
118.707667
 21
202.269797
 31
0.0
  0
LINE
  5
1165
100
AcDbEntity
  8
10000_FRONT
370
    25
390
0
  6
CONTINUOUS
 62
     7
100
AcDbLine
 10
129.710118
 20
202.268462
 30
0.0
 11
129.707667
 21
202.269797
 31
0.0
  0
LINE
  5
1166
100
AcDbEntity
  8
10000_FRONT
370
    25
390
0
  6
CONTINUOUS
 62
     7
100
AcDbLine
 10
95.358
 20
271.03168
 30
0.0
 11
95.1622
 21
271.131606
 31
0.0
  0
LINE
  5
1167
100
AcDbEntity
  8
10000_FRONT
370
    25
390
0
  6
CONTINUOUS
 62
     7
100
AcDbLine
 10
151.358
 20
271.03168
 30
0.0
 11
151.1622
 21
271.131606
 31
0.0
  0
LINE
  5
1168
100
AcDbEntity
  8
10000_FRONT
370
    25
390
0
  6
CONTINUOUS
 62
     7
100
AcDbLine
 10
119.498112
 20
241.63885
 30
0.0
 11
119.115408
 21
241.811684
 31
0.0
  0
LINE
  5
1169
100
AcDbEntity
  8
10000_FRONT
370
    25
390
0
  6
CONTINUOUS
 62
     7
100
AcDbLine
 10
131.834112
 20
241.63885
 30
0.0
 11
131.451407
 21
241.811684
 31
0.0
  0
LINE
  5
116A
100
AcDbEntity
  8
10000_FRONT
370
    25
390
0
  6
CONTINUOUS
 62
     7
100
AcDbLine
 10
95.55869
 20
270.941058
 30
0.0
 11
95.358
 21
271.03168
 31
0.0
  0
LINE
  5
116B
100
AcDbEntity
  8
10000_FRONT
370
    25
390
0
  6
CONTINUOUS
 62
     7
100
AcDbLine
 10
151.55869
 20
270.941058
 30
0.0
 11
151.358
 21
271.03168
 31
0.0
  0
LINE
  5
116C
100
AcDbEntity
  8
10000_FRONT
370
    25
390
0
  6
CONTINUOUS
 62
     7
100
AcDbLine
 10
99.825137
 20
225.804367
 30
0.0
 11
99.649464
 21
225.874754
 31
0.0
  0
LINE
  5
116D
100
AcDbEntity
  8
10000_FRONT
370
    25
390
0
  6
CONTINUOUS
 62
     7
100
AcDbLine
 10
98.181416
 20
225.799326
 30
0.0
 11
97.993161
 21
225.874754
 31
0.0
  0
LINE
  5
116E
100
AcDbEntity
  8
10000_FRONT
370
    25
390
0
  6
CONTINUOUS
 62
     7
100
AcDbLine
 10
95.763587
 20
270.860186
 30
0.0
 11
95.55869
 21
270.941058
 31
0.0
  0
LINE
  5
116F
100
AcDbEntity
  8
10000_FRONT
370
    25
390
0
  6
CONTINUOUS
 62
     7
100
AcDbLine
 10
151.763587
 20
270.860186
 30
0.0
 11
151.55869
 21
270.941058
 31
0.0
  0
LINE
  5
1170
100
AcDbEntity
  8
10000_FRONT
370
    25
390
0
  6
CONTINUOUS
 62
     7
100
AcDbLine
 10
95.971953
 20
270.789286
 30
0.0
 11
95.763587
 21
270.860186
 31
0.0
  0
LINE
  5
1171
100
AcDbEntity
  8
10000_FRONT
370
    25
390
0
  6
CONTINUOUS
 62
     7
100
AcDbLine
 10
151.971953
 20
270.789286
 30
0.0
 11
151.763587
 21
270.860186
 31
0.0
  0
LINE
  5
1172
100
AcDbEntity
  8
10000_FRONT
370
    25
390
0
  6
CONTINUOUS
 62
     7
100
AcDbLine
 10
96.182925
 20
270.728514
 30
0.0
 11
95.971953
 21
270.789286
 31
0.0
  0
LINE
  5
1173
100
AcDbEntity
  8
10000_FRONT
370
    25
390
0
  6
CONTINUOUS
 62
     7
100
AcDbLine
 10
152.182925
 20
270.728514
 30
0.0
 11
151.971953
 21
270.789286
 31
0.0
  0
LINE
  5
1174
100
AcDbEntity
  8
10000_FRONT
370
    25
390
0
  6
CONTINUOUS
 62
     7
100
AcDbLine
 10
118.715152
 20
202.267109
 30
0.0
 11
118.710118
 21
202.268462
 31
0.0
  0
LINE
  5
1175
100
AcDbEntity
  8
10000_FRONT
370
    25
390
0
  6
CONTINUOUS
 62
     7
100
AcDbLine
 10
129.715152
 20
202.267109
 30
0.0
 11
129.710118
 21
202.268462
 31
0.0
  0
LINE
  5
1176
100
AcDbEntity
  8
10000_FRONT
370
    25
390
0
  6
CONTINUOUS
 62
     7
100
AcDbLine
 10
96.39563
 20
270.678038
 30
0.0
 11
96.182925
 21
270.728514
 31
0.0
  0
LINE
  5
1177
100
AcDbEntity
  8
10000_FRONT
370
    25
390
0
  6
CONTINUOUS
 62
     7
100
AcDbLine
 10
152.39563
 20
270.678038
 30
0.0
 11
152.182925
 21
270.728514
 31
0.0
  0
LINE
  5
1178
100
AcDbEntity
  8
10000_FRONT
370
    25
390
0
  6
CONTINUOUS
 62
     7
100
AcDbLine
 10
96.609198
 20
270.638007
 30
0.0
 11
96.39563
 21
270.678038
 31
0.0
  0
LINE
  5
1179
100
AcDbEntity
  8
10000_FRONT
370
    25
390
0
  6
CONTINUOUS
 62
     7
100
AcDbLine
 10
152.609198
 20
270.638007
 30
0.0
 11
152.39563
 21
270.678038
 31
0.0
  0
LINE
  5
117A
100
AcDbEntity
  8
10000_FRONT
370
    25
390
0
  6
CONTINUOUS
 62
     7
100
AcDbLine
 10
118.722273
 20
202.265795
 30
0.0
 11
118.715152
 21
202.267109
 31
0.0
  0
LINE
  5
117B
100
AcDbEntity
  8
10000_FRONT
370
    25
390
0
  6
CONTINUOUS
 62
     7
100
AcDbLine
 10
129.722273
 20
202.265795
 30
0.0
 11
129.715152
 21
202.267109
 31
0.0
  0
LINE
  5
117C
100
AcDbEntity
  8
10000_FRONT
370
    25
390
0
  6
CONTINUOUS
 62
     7
100
AcDbLine
 10
118.730982
 20
202.264573
 30
0.0
 11
118.722273
 21
202.265795
 31
0.0
  0
LINE
  5
117D
100
AcDbEntity
  8
10000_FRONT
370
    25
390
0
  6
CONTINUOUS
 62
     7
100
AcDbLine
 10
129.730982
 20
202.264573
 30
0.0
 11
129.722273
 21
202.265795
 31
0.0
  0
LINE
  5
117E
100
AcDbEntity
  8
10000_FRONT
370
    25
390
0
  6
CONTINUOUS
 62
     7
100
AcDbLine
 10
96.822709
 20
270.60834
 30
0.0
 11
96.609198
 21
270.638007
 31
0.0
  0
LINE
  5
117F
100
AcDbEntity
  8
10000_FRONT
370
    25
390
0
  6
CONTINUOUS
 62
     7
100
AcDbLine
 10
152.822709
 20
270.60834
 30
0.0
 11
152.609198
 21
270.638007
 31
0.0
  0
LINE
  5
1180
100
AcDbEntity
  8
10000_FRONT
370
    25
390
0
  6
CONTINUOUS
 62
     7
100
AcDbLine
 10
114.951762
 20
166.664442
 30
0.0
 11
114.703888
 21
166.696978
 31
0.0
  0
LINE
  5
1181
100
AcDbEntity
  8
10000_FRONT
370
    25
390
0
  6
CONTINUOUS
 62
     7
100
AcDbLine
 10
137.451762
 20
166.664442
 30
0.0
 11
137.203888
 21
166.696978
 31
0.0
  0
LINE
  5
1182
100
AcDbEntity
  8
10000_FRONT
370
    25
390
0
  6
CONTINUOUS
 62
     7
100
AcDbLine
 10
113.315793
 20
166.879164
 30
0.0
 11
113.067918
 21
166.9117
 31
0.0
  0
LINE
  5
1183
100
AcDbEntity
  8
10000_FRONT
370
    25
390
0
  6
CONTINUOUS
 62
     7
100
AcDbLine
 10
135.815793
 20
166.879164
 30
0.0
 11
135.567918
 21
166.9117
 31
0.0
  0
LINE
  5
1184
100
AcDbEntity
  8
10000_FRONT
370
    25
390
0
  6
CONTINUOUS
 62
     7
100
AcDbLine
 10
154.382081
 20
275.6383
 30
0.0
 11
154.134205
 21
275.670836
 31
0.0
  0
LINE
  5
1185
100
AcDbEntity
  8
10000_FRONT
370
    25
390
0
  6
CONTINUOUS
 62
     7
100
AcDbLine
 10
98.382081
 20
275.6383
 30
0.0
 11
98.134205
 21
275.670836
 31
0.0
  0
LINE
  5
1186
100
AcDbEntity
  8
10000_FRONT
370
    25
390
0
  6
CONTINUOUS
 62
     7
100
AcDbLine
 10
152.746111
 20
275.853022
 30
0.0
 11
152.498236
 21
275.885558
 31
0.0
  0
LINE
  5
1187
100
AcDbEntity
  8
10000_FRONT
370
    25
390
0
  6
CONTINUOUS
 62
     7
100
AcDbLine
 10
96.746111
 20
275.853022
 30
0.0
 11
96.498236
 21
275.885558
 31
0.0
  0
LINE
  5
1188
100
AcDbEntity
  8
10000_FRONT
370
    25
390
0
  6
CONTINUOUS
 62
     7
100
AcDbLine
 10
115.15462
 20
168.210032
 30
0.0
 11
114.906745
 21
168.242567
 31
0.0
  0
LINE
  5
1189
100
AcDbEntity
  8
10000_FRONT
370
    25
390
0
  6
CONTINUOUS
 62
     7
100
AcDbLine
 10
137.65462
 20
168.210032
 30
0.0
 11
137.406745
 21
168.242567
 31
0.0
  0
LINE
  5
118A
100
AcDbEntity
  8
10000_FRONT
370
    25
390
0
  6
CONTINUOUS
 62
     7
100
AcDbLine
 10
113.518651
 20
168.424754
 30
0.0
 11
113.270776
 21
168.457289
 31
0.0
  0
LINE
  5
118B
100
AcDbEntity
  8
10000_FRONT
370
    25
390
0
  6
CONTINUOUS
 62
     7
100
AcDbLine
 10
136.018651
 20
168.424754
 30
0.0
 11
135.770776
 21
168.457289
 31
0.0
  0
LINE
  5
118C
100
AcDbEntity
  8
10000_FRONT
370
    25
390
0
  6
CONTINUOUS
 62
     7
100
AcDbLine
 10
154.179221
 20
274.092711
 30
0.0
 11
153.931347
 21
274.125246
 31
0.0
  0
LINE
  5
118D
100
AcDbEntity
  8
10000_FRONT
370
    25
390
0
  6
CONTINUOUS
 62
     7
100
AcDbLine
 10
98.179221
 20
274.092711
 30
0.0
 11
97.931347
 21
274.125246
 31
0.0
  0
LINE
  5
118E
100
AcDbEntity
  8
10000_FRONT
370
    25
390
0
  6
CONTINUOUS
 62
     7
100
AcDbLine
 10
152.565793
 20
274.479163
 30
0.0
 11
152.317917
 21
274.511698
 31
0.0
  0
LINE
  5
118F
100
AcDbEntity
  8
10000_FRONT
370
    25
390
0
  6
CONTINUOUS
 62
     7
100
AcDbLine
 10
96.565793
 20
274.479163
 30
0.0
 11
96.317917
 21
274.511698
 31
0.0
  0
LINE
  5
1190
100
AcDbEntity
  8
10000_FRONT
370
    25
390
0
  6
CONTINUOUS
 62
     7
100
AcDbLine
 10
114.929222
 20
166.492712
 30
0.0
 11
114.681347
 21
166.525244
 31
0.0
  0
LINE
  5
1191
100
AcDbEntity
  8
10000_FRONT
370
    25
390
0
  6
CONTINUOUS
 62
     7
100
AcDbLine
 10
137.429222
 20
166.492712
 30
0.0
 11
137.181347
 21
166.525244
 31
0.0
  0
LINE
  5
1192
100
AcDbEntity
  8
10000_FRONT
370
    25
390
0
  6
CONTINUOUS
 62
     7
100
AcDbLine
 10
113.293253
 20
166.707434
 30
0.0
 11
113.045378
 21
166.739966
 31
0.0
  0
LINE
  5
1193
100
AcDbEntity
  8
10000_FRONT
370
    25
390
0
  6
CONTINUOUS
 62
     7
100
AcDbLine
 10
135.793253
 20
166.707434
 30
0.0
 11
135.545378
 21
166.739966
 31
0.0
  0
LINE
  5
1194
100
AcDbEntity
  8
10000_FRONT
370
    25
390
0
  6
CONTINUOUS
 62
     7
100
AcDbLine
 10
115.13208
 20
168.038302
 30
0.0
 11
114.884205
 21
168.070834
 31
0.0
  0
LINE
  5
1195
100
AcDbEntity
  8
10000_FRONT
370
    25
390
0
  6
CONTINUOUS
 62
     7
100
AcDbLine
 10
137.63208
 20
168.038302
 30
0.0
 11
137.384205
 21
168.070834
 31
0.0
  0
LINE
  5
1196
100
AcDbEntity
  8
10000_FRONT
370
    25
390
0
  6
CONTINUOUS
 62
     7
100
AcDbLine
 10
154.40462
 20
275.810034
 30
0.0
 11
154.156746
 21
275.842566
 31
0.0
  0
LINE
  5
1197
100
AcDbEntity
  8
10000_FRONT
370
    25
390
0
  6
CONTINUOUS
 62
     7
100
AcDbLine
 10
98.40462
 20
275.810034
 30
0.0
 11
98.156746
 21
275.842566
 31
0.0
  0
LINE
  5
1198
100
AcDbEntity
  8
10000_FRONT
370
    25
390
0
  6
CONTINUOUS
 62
     7
100
AcDbLine
 10
152.768651
 20
276.024756
 30
0.0
 11
152.520777
 21
276.057288
 31
0.0
  0
LINE
  5
1199
100
AcDbEntity
  8
10000_FRONT
370
    25
390
0
  6
CONTINUOUS
 62
     7
100
AcDbLine
 10
96.768651
 20
276.024756
 30
0.0
 11
96.520777
 21
276.057288
 31
0.0
  0
LINE
  5
119A
100
AcDbEntity
  8
10000_FRONT
370
    25
390
0
  6
CONTINUOUS
 62
     7
100
AcDbLine
 10
113.49611
 20
168.253024
 30
0.0
 11
113.248236
 21
168.285555
 31
0.0
  0
LINE
  5
119B
100
AcDbEntity
  8
10000_FRONT
370
    25
390
0
  6
CONTINUOUS
 62
     7
100
AcDbLine
 10
135.99611
 20
168.253024
 30
0.0
 11
135.748236
 21
168.285555
 31
0.0
  0
LINE
  5
119C
100
AcDbEntity
  8
10000_FRONT
370
    25
390
0
  6
CONTINUOUS
 62
     7
100
AcDbLine
 10
154.201762
 20
274.264445
 30
0.0
 11
153.953887
 21
274.296976
 31
0.0
  0
LINE
  5
119D
100
AcDbEntity
  8
10000_FRONT
370
    25
390
0
  6
CONTINUOUS
 62
     7
100
AcDbLine
 10
98.201762
 20
274.264445
 30
0.0
 11
97.953887
 21
274.296976
 31
0.0
  0
LINE
  5
119E
100
AcDbEntity
  8
10000_FRONT
370
    25
390
0
  6
CONTINUOUS
 62
     7
100
AcDbLine
 10
152.543252
 20
274.307433
 30
0.0
 11
152.295378
 21
274.339964
 31
0.0
  0
LINE
  5
119F
100
AcDbEntity
  8
10000_FRONT
370
    25
390
0
  6
CONTINUOUS
 62
     7
100
AcDbLine
 10
96.543252
 20
274.307433
 30
0.0
 11
96.295378
 21
274.339964
 31
0.0
  0
LINE
  5
11A0
100
AcDbEntity
  8
10000_FRONT
370
    25
390
0
  6
CONTINUOUS
 62
     7
100
AcDbLine
 10
118.741545
 20
202.263396
 30
0.0
 11
118.730982
 21
202.264573
 31
0.0
  0
LINE
  5
11A1
100
AcDbEntity
  8
10000_FRONT
370
    25
390
0
  6
CONTINUOUS
 62
     7
100
AcDbLine
 10
129.741545
 20
202.263396
 30
0.0
 11
129.730982
 21
202.264573
 31
0.0
  0
LINE
  5
11A2
100
AcDbEntity
  8
10000_FRONT
370
    25
390
0
  6
CONTINUOUS
 62
     7
100
AcDbLine
 10
118.753947
 20
202.262221
 30
0.0
 11
118.741545
 21
202.263396
 31
0.0
  0
LINE
  5
11A3
100
AcDbEntity
  8
10000_FRONT
370
    25
390
0
  6
CONTINUOUS
 62
     7
100
AcDbLine
 10
129.753947
 20
202.262221
 30
0.0
 11
129.741545
 21
202.263396
 31
0.0
  0
LINE
  5
11A4
100
AcDbEntity
  8
10000_FRONT
370
    25
390
0
  6
CONTINUOUS
 62
     7
100
AcDbLine
 10
97.03521
 20
270.588793
 30
0.0
 11
96.822709
 21
270.60834
 31
0.0
  0
LINE
  5
11A5
100
AcDbEntity
  8
10000_FRONT
370
    25
390
0
  6
CONTINUOUS
 62
     7
100
AcDbLine
 10
153.03521
 20
270.588793
 30
0.0
 11
152.822709
 21
270.60834
 31
0.0
  0
LINE
  5
11A6
100
AcDbEntity
  8
10000_FRONT
370
    25
390
0
  6
CONTINUOUS
 62
     7
100
AcDbLine
 10
118.766903
 20
202.261158
 30
0.0
 11
118.753947
 21
202.262221
 31
0.0
  0
LINE
  5
11A7
100
AcDbEntity
  8
10000_FRONT
370
    25
390
0
  6
CONTINUOUS
 62
     7
100
AcDbLine
 10
129.766903
 20
202.261158
 30
0.0
 11
129.753947
 21
202.262221
 31
0.0
  0
LINE
  5
11A8
100
AcDbEntity
  8
10000_FRONT
370
    25
390
0
  6
CONTINUOUS
 62
     7
100
AcDbLine
 10
118.78121
 20
202.260147
 30
0.0
 11
118.766903
 21
202.261158
 31
0.0
  0
LINE
  5
11A9
100
AcDbEntity
  8
10000_FRONT
370
    25
390
0
  6
CONTINUOUS
 62
     7
100
AcDbLine
 10
129.78121
 20
202.260147
 30
0.0
 11
129.766903
 21
202.261158
 31
0.0
  0
LINE
  5
11AA
100
AcDbEntity
  8
10000_FRONT
370
    25
390
0
  6
CONTINUOUS
 62
     7
100
AcDbLine
 10
118.797064
 20
202.259159
 30
0.0
 11
118.78121
 21
202.260147
 31
0.0
  0
LINE
  5
11AB
100
AcDbEntity
  8
10000_FRONT
370
    25
390
0
  6
CONTINUOUS
 62
     7
100
AcDbLine
 10
129.797064
 20
202.259159
 30
0.0
 11
129.78121
 21
202.260147
 31
0.0
  0
LINE
  5
11AC
100
AcDbEntity
  8
10000_FRONT
370
    25
390
0
  6
CONTINUOUS
 62
     7
100
AcDbLine
 10
118.813953
 20
202.258221
 30
0.0
 11
118.797064
 21
202.259159
 31
0.0
  0
LINE
  5
11AD
100
AcDbEntity
  8
10000_FRONT
370
    25
390
0
  6
CONTINUOUS
 62
     7
100
AcDbLine
 10
129.813953
 20
202.258221
 30
0.0
 11
129.797064
 21
202.259159
 31
0.0
  0
LINE
  5
11AE
100
AcDbEntity
  8
10000_FRONT
370
    25
390
0
  6
CONTINUOUS
 62
     7
100
AcDbLine
 10
118.831364
 20
202.257361
 30
0.0
 11
118.813953
 21
202.258221
 31
0.0
  0
LINE
  5
11AF
100
AcDbEntity
  8
10000_FRONT
370
    25
390
0
  6
CONTINUOUS
 62
     7
100
AcDbLine
 10
129.831364
 20
202.257361
 30
0.0
 11
129.813953
 21
202.258221
 31
0.0
  0
LINE
  5
11B0
100
AcDbEntity
  8
10000_FRONT
370
    25
390
0
  6
CONTINUOUS
 62
     7
100
AcDbLine
 10
97.245757
 20
270.579138
 30
0.0
 11
97.03521
 21
270.588793
 31
0.0
  0
LINE
  5
11B1
100
AcDbEntity
  8
10000_FRONT
370
    25
390
0
  6
CONTINUOUS
 62
     7
100
AcDbLine
 10
153.245757
 20
270.579138
 30
0.0
 11
153.03521
 21
270.588793
 31
0.0
  0
LINE
  5
11B2
100
AcDbEntity
  8
10000_FRONT
370
    25
390
0
  6
CONTINUOUS
 62
     7
100
AcDbLine
 10
118.848802
 20
202.256602
 30
0.0
 11
118.831364
 21
202.257361
 31
0.0
  0
LINE
  5
11B3
100
AcDbEntity
  8
10000_FRONT
370
    25
390
0
  6
CONTINUOUS
 62
     7
100
AcDbLine
 10
129.848802
 20
202.256602
 30
0.0
 11
129.831364
 21
202.257361
 31
0.0
  0
LINE
  5
11B4
100
AcDbEntity
  8
10000_FRONT
370
    25
390
0
  6
CONTINUOUS
 62
     7
100
AcDbLine
 10
118.867264
 20
202.255907
 30
0.0
 11
118.848802
 21
202.256602
 31
0.0
  0
LINE
  5
11B5
100
AcDbEntity
  8
10000_FRONT
370
    25
390
0
  6
CONTINUOUS
 62
     7
100
AcDbLine
 10
129.867264
 20
202.255907
 30
0.0
 11
129.848802
 21
202.256602
 31
0.0
  0
LINE
  5
11B6
100
AcDbEntity
  8
10000_FRONT
370
    25
390
0
  6
CONTINUOUS
 62
     7
100
AcDbLine
 10
118.887119
 20
202.255257
 30
0.0
 11
118.867264
 21
202.255907
 31
0.0
  0
LINE
  5
11B7
100
AcDbEntity
  8
10000_FRONT
370
    25
390
0
  6
CONTINUOUS
 62
     7
100
AcDbLine
 10
129.887119
 20
202.255257
 30
0.0
 11
129.867264
 21
202.255907
 31
0.0
  0
LINE
  5
11B8
100
AcDbEntity
  8
10000_FRONT
370
    25
390
0
  6
CONTINUOUS
 62
     7
100
AcDbLine
 10
118.907749
 20
202.254666
 30
0.0
 11
118.887119
 21
202.255257
 31
0.0
  0
LINE
  5
11B9
100
AcDbEntity
  8
10000_FRONT
370
    25
390
0
  6
CONTINUOUS
 62
     7
100
AcDbLine
 10
129.907749
 20
202.254666
 30
0.0
 11
129.887119
 21
202.255257
 31
0.0
  0
LINE
  5
11BA
100
AcDbEntity
  8
10000_FRONT
370
    25
390
0
  6
CONTINUOUS
 62
     7
100
AcDbLine
 10
118.928536
 20
202.254155
 30
0.0
 11
118.907749
 21
202.254666
 31
0.0
  0
LINE
  5
11BB
100
AcDbEntity
  8
10000_FRONT
370
    25
390
0
  6
CONTINUOUS
 62
     7
100
AcDbLine
 10
129.928536
 20
202.254155
 30
0.0
 11
129.907749
 21
202.254666
 31
0.0
  0
LINE
  5
11BC
100
AcDbEntity
  8
10000_FRONT
370
    25
390
0
  6
CONTINUOUS
 62
     7
100
AcDbLine
 10
118.948862
 20
202.253737
 30
0.0
 11
118.928536
 21
202.254155
 31
0.0
  0
LINE
  5
11BD
100
AcDbEntity
  8
10000_FRONT
370
    25
390
0
  6
CONTINUOUS
 62
     7
100
AcDbLine
 10
129.948862
 20
202.253737
 30
0.0
 11
129.928536
 21
202.254155
 31
0.0
  0
LINE
  5
11BE
100
AcDbEntity
  8
10000_FRONT
370
    25
390
0
  6
CONTINUOUS
 62
     7
100
AcDbLine
 10
118.969688
 20
202.253401
 30
0.0
 11
118.948862
 21
202.253737
 31
0.0
  0
LINE
  5
11BF
100
AcDbEntity
  8
10000_FRONT
370
    25
390
0
  6
CONTINUOUS
 62
     7
100
AcDbLine
 10
129.969688
 20
202.253401
 30
0.0
 11
129.948862
 21
202.253737
 31
0.0
  0
LINE
  5
11C0
100
AcDbEntity
  8
10000_FRONT
370
    25
390
0
  6
CONTINUOUS
 62
     7
100
AcDbLine
 10
118.991698
 20
202.253128
 30
0.0
 11
118.969688
 21
202.253401
 31
0.0
  0
LINE
  5
11C1
100
AcDbEntity
  8
10000_FRONT
370
    25
390
0
  6
CONTINUOUS
 62
     7
100
AcDbLine
 10
129.991698
 20
202.253128
 30
0.0
 11
129.969688
 21
202.253401
 31
0.0
  0
LINE
  5
11C2
100
AcDbEntity
  8
10000_FRONT
370
    25
390
0
  6
CONTINUOUS
 62
     7
100
AcDbLine
 10
119.014208
 20
202.252928
 30
0.0
 11
118.991698
 21
202.253128
 31
0.0
  0
LINE
  5
11C3
100
AcDbEntity
  8
10000_FRONT
370
    25
390
0
  6
CONTINUOUS
 62
     7
100
AcDbLine
 10
130.014208
 20
202.252928
 30
0.0
 11
129.991698
 21
202.253128
 31
0.0
  0
LINE
  5
11C4
100
AcDbEntity
  8
10000_FRONT
370
    25
390
0
  6
CONTINUOUS
 62
     7
100
AcDbLine
 10
119.036536
 20
202.252802
 30
0.0
 11
119.014208
 21
202.252928
 31
0.0
  0
LINE
  5
11C5
100
AcDbEntity
  8
10000_FRONT
370
    25
390
0
  6
CONTINUOUS
 62
     7
100
AcDbLine
 10
130.036536
 20
202.252802
 30
0.0
 11
130.014208
 21
202.252928
 31
0.0
  0
LINE
  5
11C6
100
AcDbEntity
  8
10000_FRONT
370
    25
390
0
  6
CONTINUOUS
 62
     7
100
AcDbLine
 10
119.057999
 20
202.252758
 30
0.0
 11
119.036536
 21
202.252802
 31
0.0
  0
LINE
  5
11C7
100
AcDbEntity
  8
10000_FRONT
370
    25
390
0
  6
CONTINUOUS
 62
     7
100
AcDbLine
 10
130.057999
 20
202.252758
 30
0.0
 11
130.036536
 21
202.252802
 31
0.0
  0
LINE
  5
11C8
100
AcDbEntity
  8
10000_FRONT
370
    25
390
0
  6
CONTINUOUS
 62
     7
100
AcDbLine
 10
116.099999
 20
136.425002
 30
0.0
 11
118.099999
 21
136.425002
 31
0.0
  0
LINE
  5
11C9
100
AcDbEntity
  8
10000_FRONT
370
    25
390
0
  6
CONTINUOUS
 62
     7
100
AcDbLine
 10
110.099999
 20
136.425002
 30
0.0
 11
112.099999
 21
136.425002
 31
0.0
  0
LINE
  5
11CA
100
AcDbEntity
  8
10000_FRONT
370
    25
390
0
  6
CONTINUOUS
 62
     7
100
AcDbLine
 10
132.599999
 20
136.425002
 30
0.0
 11
134.599999
 21
136.425002
 31
0.0
  0
LINE
  5
11CB
100
AcDbEntity
  8
10000_FRONT
370
    25
390
0
  6
CONTINUOUS
 62
     7
100
AcDbLine
 10
92.349999
 20
136.425002
 30
0.0
 11
94.349999
 21
136.425002
 31
0.0
  0
LINE
  5
11CC
100
AcDbEntity
  8
10000_FRONT
370
    25
390
0
  6
CONTINUOUS
 62
     7
100
AcDbLine
 10
138.599999
 20
136.425002
 30
0.0
 11
140.599999
 21
136.425002
 31
0.0
  0
LINE
  5
11CD
100
AcDbEntity
  8
10000_FRONT
370
    25
390
0
  6
CONTINUOUS
 62
     7
100
AcDbLine
 10
156.349999
 20
136.425002
 30
0.0
 11
158.349999
 21
136.425002
 31
0.0
  0
LINE
  5
11CE
100
AcDbEntity
  8
10000_FRONT
370
    25
390
0
  6
CONTINUOUS
 62
     7
100
AcDbLine
 10
116.099999
 20
137.074728
 30
0.0
 11
118.099999
 21
137.074728
 31
0.0
  0
LINE
  5
11CF
100
AcDbEntity
  8
10000_FRONT
370
    25
390
0
  6
CONTINUOUS
 62
     7
100
AcDbLine
 10
110.099999
 20
137.074728
 30
0.0
 11
112.099999
 21
137.074728
 31
0.0
  0
LINE
  5
11D0
100
AcDbEntity
  8
10000_FRONT
370
    25
390
0
  6
CONTINUOUS
 62
     7
100
AcDbLine
 10
132.599999
 20
137.074728
 30
0.0
 11
134.599999
 21
137.074728
 31
0.0
  0
LINE
  5
11D1
100
AcDbEntity
  8
10000_FRONT
370
    25
390
0
  6
CONTINUOUS
 62
     7
100
AcDbLine
 10
92.349999
 20
137.074728
 30
0.0
 11
94.349999
 21
137.074728
 31
0.0
  0
LINE
  5
11D2
100
AcDbEntity
  8
10000_FRONT
370
    25
390
0
  6
CONTINUOUS
 62
     7
100
AcDbLine
 10
138.599999
 20
137.074728
 30
0.0
 11
140.599999
 21
137.074728
 31
0.0
  0
LINE
  5
11D3
100
AcDbEntity
  8
10000_FRONT
370
    25
390
0
  6
CONTINUOUS
 62
     7
100
AcDbLine
 10
156.349999
 20
137.074728
 30
0.0
 11
158.349999
 21
137.074728
 31
0.0
  0
LINE
  5
11D4
100
AcDbEntity
  8
10000_FRONT
370
    25
390
0
  6
CONTINUOUS
 62
     7
100
AcDbLine
 10
118.099999
 20
137.224997
 30
0.0
 11
132.599999
 21
137.224997
 31
0.0
  0
LINE
  5
11D5
100
AcDbEntity
  8
10000_FRONT
370
    25
390
0
  6
CONTINUOUS
 62
     7
100
AcDbLine
 10
112.099999
 20
137.224997
 30
0.0
 11
116.099999
 21
137.224997
 31
0.0
  0
LINE
  5
11D6
100
AcDbEntity
  8
10000_FRONT
370
    25
390
0
  6
CONTINUOUS
 62
     7
100
AcDbLine
 10
112.099999
 20
137.224997
 30
0.0
 11
116.099999
 21
137.224997
 31
0.0
  0
LINE
  5
11D7
100
AcDbEntity
  8
10000_FRONT
370
    25
390
0
  6
CONTINUOUS
 62
     7
100
AcDbLine
 10
134.599999
 20
137.224997
 30
0.0
 11
138.599999
 21
137.224997
 31
0.0
  0
LINE
  5
11D8
100
AcDbEntity
  8
10000_FRONT
370
    25
390
0
  6
CONTINUOUS
 62
     7
100
AcDbLine
 10
134.599999
 20
137.224997
 30
0.0
 11
138.599999
 21
137.224997
 31
0.0
  0
LINE
  5
11D9
100
AcDbEntity
  8
10000_FRONT
370
    25
390
0
  6
CONTINUOUS
 62
     7
100
AcDbLine
 10
94.349999
 20
137.224997
 30
0.0
 11
110.099999
 21
137.224997
 31
0.0
  0
LINE
  5
11DA
100
AcDbEntity
  8
10000_FRONT
370
    25
390
0
  6
CONTINUOUS
 62
     7
100
AcDbLine
 10
94.349999
 20
137.224997
 30
0.0
 11
110.099999
 21
137.224997
 31
0.0
  0
LINE
  5
11DB
100
AcDbEntity
  8
10000_FRONT
370
    25
390
0
  6
CONTINUOUS
 62
     7
100
AcDbLine
 10
140.599999
 20
137.224997
 30
0.0
 11
156.349999
 21
137.224997
 31
0.0
  0
LINE
  5
11DC
100
AcDbEntity
  8
10000_FRONT
370
    25
390
0
  6
CONTINUOUS
 62
     7
100
AcDbLine
 10
140.599999
 20
137.224997
 30
0.0
 11
156.349999
 21
137.224997
 31
0.0
  0
LINE
  5
11DD
100
AcDbEntity
  8
10000_FRONT
370
    25
390
0
  6
CONTINUOUS
 62
     7
100
AcDbLine
 10
118.099999
 20
137.724997
 30
0.0
 11
132.599999
 21
137.724997
 31
0.0
  0
LINE
  5
11DE
100
AcDbEntity
  8
10000_FRONT
370
    25
390
0
  6
CONTINUOUS
 62
     7
100
AcDbLine
 10
112.099999
 20
137.724997
 30
0.0
 11
116.099999
 21
137.724997
 31
0.0
  0
LINE
  5
11DF
100
AcDbEntity
  8
10000_FRONT
370
    25
390
0
  6
CONTINUOUS
 62
     7
100
AcDbLine
 10
134.599999
 20
137.724997
 30
0.0
 11
138.599999
 21
137.724997
 31
0.0
  0
LINE
  5
11E0
100
AcDbEntity
  8
10000_FRONT
370
    25
390
0
  6
CONTINUOUS
 62
     7
100
AcDbLine
 10
94.349999
 20
137.724997
 30
0.0
 11
110.099999
 21
137.724997
 31
0.0
  0
LINE
  5
11E1
100
AcDbEntity
  8
10000_FRONT
370
    25
390
0
  6
CONTINUOUS
 62
     7
100
AcDbLine
 10
140.599999
 20
137.724997
 30
0.0
 11
156.349999
 21
137.724997
 31
0.0
  0
LINE
  5
11E2
100
AcDbEntity
  8
10000_FRONT
370
    25
390
0
  6
CONTINUOUS
 62
     7
100
AcDbLine
 10
90.349999
 20
138.775
 30
0.0
 11
92.350098
 21
138.775
 31
0.0
  0
LINE
  5
11E3
100
AcDbEntity
  8
10000_FRONT
370
    25
390
0
  6
CONTINUOUS
 62
     7
100
AcDbLine
 10
158.350098
 20
138.775
 30
0.0
 11
160.349999
 21
138.775
 31
0.0
  0
LINE
  5
11E4
100
AcDbEntity
  8
10000_FRONT
370
    25
390
0
  6
CONTINUOUS
 62
     7
100
AcDbLine
 10
90.349999
 20
146.275
 30
0.0
 11
92.350064
 21
146.275
 31
0.0
  0
LINE
  5
11E5
100
AcDbEntity
  8
10000_FRONT
370
    25
390
0
  6
CONTINUOUS
 62
     7
100
AcDbLine
 10
158.350064
 20
146.275
 30
0.0
 11
160.349999
 21
146.275
 31
0.0
  0
LINE
  5
11E6
100
AcDbEntity
  8
10000_FRONT
370
    25
390
0
  6
CONTINUOUS
 62
     7
100
AcDbLine
 10
118.099999
 20
146.425002
 30
0.0
 11
132.599999
 21
146.425002
 31
0.0
  0
LINE
  5
11E7
100
AcDbEntity
  8
10000_FRONT
370
    25
390
0
  6
CONTINUOUS
 62
     7
100
AcDbLine
 10
112.099999
 20
146.425002
 30
0.0
 11
116.099999
 21
146.425002
 31
0.0
  0
LINE
  5
11E8
100
AcDbEntity
  8
10000_FRONT
370
    25
390
0
  6
CONTINUOUS
 62
     7
100
AcDbLine
 10
134.599999
 20
146.425002
 30
0.0
 11
138.599999
 21
146.425002
 31
0.0
  0
LINE
  5
11E9
100
AcDbEntity
  8
10000_FRONT
370
    25
390
0
  6
CONTINUOUS
 62
     7
100
AcDbLine
 10
94.349999
 20
146.425002
 30
0.0
 11
110.099999
 21
146.425002
 31
0.0
  0
LINE
  5
11EA
100
AcDbEntity
  8
10000_FRONT
370
    25
390
0
  6
CONTINUOUS
 62
     7
100
AcDbLine
 10
140.599999
 20
146.425002
 30
0.0
 11
156.349999
 21
146.425002
 31
0.0
  0
LINE
  5
11EB
100
AcDbEntity
  8
10000_FRONT
370
    25
390
0
  6
CONTINUOUS
 62
     7
100
AcDbLine
 10
90.359997
 20
146.425002
 30
0.0
 11
92.349999
 21
146.425002
 31
0.0
  0
LINE
  5
11EC
100
AcDbEntity
  8
10000_FRONT
370
    25
390
0
  6
CONTINUOUS
 62
     7
100
AcDbLine
 10
158.349999
 20
146.425002
 30
0.0
 11
160.340001
 21
146.425002
 31
0.0
  0
LINE
  5
11ED
100
AcDbEntity
  8
10000_FRONT
370
    25
390
0
  6
CONTINUOUS
 62
     7
100
AcDbLine
 10
118.099999
 20
146.774275
 30
0.0
 11
132.599999
 21
146.774275
 31
0.0
  0
LINE
  5
11EE
100
AcDbEntity
  8
10000_FRONT
370
    25
390
0
  6
CONTINUOUS
 62
     7
100
AcDbLine
 10
112.099999
 20
146.774275
 30
0.0
 11
116.099999
 21
146.774275
 31
0.0
  0
LINE
  5
11EF
100
AcDbEntity
  8
10000_FRONT
370
    25
390
0
  6
CONTINUOUS
 62
     7
100
AcDbLine
 10
134.599999
 20
146.774275
 30
0.0
 11
138.599999
 21
146.774275
 31
0.0
  0
LINE
  5
11F0
100
AcDbEntity
  8
10000_FRONT
370
    25
390
0
  6
CONTINUOUS
 62
     7
100
AcDbLine
 10
94.349999
 20
146.774275
 30
0.0
 11
110.099999
 21
146.774275
 31
0.0
  0
LINE
  5
11F1
100
AcDbEntity
  8
10000_FRONT
370
    25
390
0
  6
CONTINUOUS
 62
     7
100
AcDbLine
 10
140.599999
 20
146.774275
 30
0.0
 11
156.349999
 21
146.774275
 31
0.0
  0
LINE
  5
11F2
100
AcDbEntity
  8
10000_FRONT
370
    25
390
0
  6
CONTINUOUS
 62
     7
100
AcDbLine
 10
90.359997
 20
146.775275
 30
0.0
 11
92.349999
 21
146.775275
 31
0.0
  0
LINE
  5
11F3
100
AcDbEntity
  8
10000_FRONT
370
    25
390
0
  6
CONTINUOUS
 62
     7
100
AcDbLine
 10
158.349999
 20
146.775275
 30
0.0
 11
160.340001
 21
146.775275
 31
0.0
  0
LINE
  5
11F4
100
AcDbEntity
  8
10000_FRONT
370
    25
390
0
  6
CONTINUOUS
 62
     7
100
AcDbLine
 10
118.099999
 20
161.525
 30
0.0
 11
132.599999
 21
161.525
 31
0.0
  0
LINE
  5
11F5
100
AcDbEntity
  8
10000_FRONT
370
    25
390
0
  6
CONTINUOUS
 62
     7
100
AcDbLine
 10
112.099999
 20
161.525
 30
0.0
 11
116.099999
 21
161.525
 31
0.0
  0
LINE
  5
11F6
100
AcDbEntity
  8
10000_FRONT
370
    25
390
0
  6
CONTINUOUS
 62
     7
100
AcDbLine
 10
134.599999
 20
161.525
 30
0.0
 11
138.599999
 21
161.525
 31
0.0
  0
LINE
  5
11F7
100
AcDbEntity
  8
10000_FRONT
370
    25
390
0
  6
CONTINUOUS
 62
     7
100
AcDbLine
 10
94.349999
 20
161.525
 30
0.0
 11
110.099999
 21
161.525
 31
0.0
  0
LINE
  5
11F8
100
AcDbEntity
  8
10000_FRONT
370
    25
390
0
  6
CONTINUOUS
 62
     7
100
AcDbLine
 10
140.599999
 20
161.525
 30
0.0
 11
156.349999
 21
161.525
 31
0.0
  0
LINE
  5
11F9
100
AcDbEntity
  8
10000_FRONT
370
    25
390
0
  6
CONTINUOUS
 62
     7
100
AcDbLine
 10
92.349999
 20
162.574725
 30
0.0
 11
158.349999
 21
162.574725
 31
0.0
  0
LINE
  5
11FA
100
AcDbEntity
  8
10000_FRONT
370
    25
390
0
  6
CONTINUOUS
 62
     7
100
AcDbLine
 10
117.899999
 20
163.475001
 30
0.0
 11
132.799999
 21
163.475001
 31
0.0
  0
LINE
  5
11FB
100
AcDbEntity
  8
10000_FRONT
370
    25
390
0
  6
CONTINUOUS
 62
     7
100
AcDbLine
 10
140.399999
 20
163.475001
 30
0.0
 11
160.349999
 21
163.475001
 31
0.0
  0
LINE
  5
11FC
100
AcDbEntity
  8
10000_FRONT
370
    25
390
0
  6
CONTINUOUS
 62
     7
100
AcDbLine
 10
90.349999
 20
163.475001
 30
0.0
 11
110.299999
 21
163.475001
 31
0.0
  0
LINE
  5
11FD
100
AcDbEntity
  8
10000_FRONT
370
    25
390
0
  6
CONTINUOUS
 62
     7
100
AcDbLine
 10
132.799999
 20
163.525
 30
0.0
 11
140.399999
 21
163.525
 31
0.0
  0
LINE
  5
11FE
100
AcDbEntity
  8
10000_FRONT
370
    25
390
0
  6
CONTINUOUS
 62
     7
100
AcDbLine
 10
110.299999
 20
163.525
 30
0.0
 11
117.899999
 21
163.525
 31
0.0
  0
LINE
  5
11FF
100
AcDbEntity
  8
10000_FRONT
370
    25
390
0
  6
CONTINUOUS
 62
     7
100
AcDbLine
 10
90.349999
 20
198.775
 30
0.0
 11
160.349999
 21
198.775
 31
0.0
  0
LINE
  5
1200
100
AcDbEntity
  8
10000_FRONT
370
    25
390
0
  6
CONTINUOUS
 62
     7
100
AcDbLine
 10
118.749999
 20
200.6591
 30
0.0
 11
122.249999
 21
200.6591
 31
0.0
  0
LINE
  5
1201
100
AcDbEntity
  8
10000_FRONT
370
    25
390
0
  6
CONTINUOUS
 62
     7
100
AcDbLine
 10
128.449999
 20
200.6591
 30
0.0
 11
131.949999
 21
200.6591
 31
0.0
  0
LINE
  5
1202
100
AcDbEntity
  8
10000_FRONT
370
    25
390
0
  6
CONTINUOUS
 62
     7
100
AcDbLine
 10
118.749999
 20
201.2591
 30
0.0
 11
122.249999
 21
201.2591
 31
0.0
  0
LINE
  5
1203
100
AcDbEntity
  8
10000_FRONT
370
    25
390
0
  6
CONTINUOUS
 62
     7
100
AcDbLine
 10
128.449999
 20
201.2591
 30
0.0
 11
131.949999
 21
201.2591
 31
0.0
  0
LINE
  5
1204
100
AcDbEntity
  8
10000_FRONT
370
    25
390
0
  6
CONTINUOUS
 62
     7
100
AcDbLine
 10
114.049999
 20
202.209217
 30
0.0
 11
136.649999
 21
202.209217
 31
0.0
  0
LINE
  5
1205
100
AcDbEntity
  8
10000_FRONT
370
    25
390
0
  6
CONTINUOUS
 62
     7
100
AcDbLine
 10
119.057999
 20
202.252758
 30
0.0
 11
120.641999
 21
202.252758
 31
0.0
  0
LINE
  5
1206
100
AcDbEntity
  8
10000_FRONT
370
    25
390
0
  6
CONTINUOUS
 62
     7
100
AcDbLine
 10
130.057999
 20
202.252758
 30
0.0
 11
131.641999
 21
202.252758
 31
0.0
  0
LINE
  5
1207
100
AcDbEntity
  8
10000_FRONT
370
    25
390
0
  6
CONTINUOUS
 62
     7
100
AcDbLine
 10
131.995412
 20
202.275
 30
0.0
 11
136.649999
 21
202.275
 31
0.0
  0
LINE
  5
1208
100
AcDbEntity
  8
10000_FRONT
370
    25
390
0
  6
CONTINUOUS
 62
     7
100
AcDbLine
 10
120.995412
 20
202.275
 30
0.0
 11
129.704586
 21
202.275
 31
0.0
  0
LINE
  5
1209
100
AcDbEntity
  8
10000_FRONT
370
    25
390
0
  6
CONTINUOUS
 62
     7
100
AcDbLine
 10
114.049999
 20
202.275
 30
0.0
 11
118.704586
 21
202.275
 31
0.0
  0
LINE
  5
120A
100
AcDbEntity
  8
10000_FRONT
370
    25
390
0
  6
CONTINUOUS
 62
     7
100
AcDbLine
 10
115.349999
 20
202.339959
 30
0.0
 11
135.349999
 21
202.339959
 31
0.0
  0
LINE
  5
120B
100
AcDbEntity
  8
10000_FRONT
370
    25
390
0
  6
CONTINUOUS
 62
     7
100
AcDbLine
 10
114.049999
 20
208.196658
 30
0.0
 11
115.249999
 21
208.196658
 31
0.0
  0
LINE
  5
120C
100
AcDbEntity
  8
10000_FRONT
370
    25
390
0
  6
CONTINUOUS
 62
     7
100
AcDbLine
 10
135.449999
 20
208.196658
 30
0.0
 11
136.649999
 21
208.196658
 31
0.0
  0
LINE
  5
120D
100
AcDbEntity
  8
10000_FRONT
370
    25
390
0
  6
CONTINUOUS
 62
     7
100
AcDbLine
 10
115.349999
 20
209.326577
 30
0.0
 11
135.349999
 21
209.326577
 31
0.0
  0
LINE
  5
120E
100
AcDbEntity
  8
10000_FRONT
370
    25
390
0
  6
CONTINUOUS
 62
     7
100
AcDbLine
 10
119.057999
 20
209.338938
 30
0.0
 11
120.641999
 21
209.338938
 31
0.0
  0
LINE
  5
120F
100
AcDbEntity
  8
10000_FRONT
370
    25
390
0
  6
CONTINUOUS
 62
     7
100
AcDbLine
 10
130.057999
 20
209.338938
 30
0.0
 11
131.641999
 21
209.338938
 31
0.0
  0
LINE
  5
1210
100
AcDbEntity
  8
10000_FRONT
370
    25
390
0
  6
CONTINUOUS
 62
     7
100
AcDbLine
 10
115.349999
 20
209.362307
 30
0.0
 11
118.665912
 21
209.362307
 31
0.0
  0
LINE
  5
1211
100
AcDbEntity
  8
10000_FRONT
370
    25
390
0
  6
CONTINUOUS
 62
     7
100
AcDbLine
 10
132.034086
 20
209.362307
 30
0.0
 11
135.349999
 21
209.362307
 31
0.0
  0
LINE
  5
1212
100
AcDbEntity
  8
10000_FRONT
370
    25
390
0
  6
CONTINUOUS
 62
     7
100
AcDbLine
 10
121.034086
 20
209.362307
 30
0.0
 11
129.665912
 21
209.362307
 31
0.0
  0
LINE
  5
1213
100
AcDbEntity
  8
10000_FRONT
370
    25
390
0
  6
CONTINUOUS
 62
     7
100
AcDbLine
 10
115.249999
 20
209.395213
 30
0.0
 11
135.449999
 21
209.395213
 31
0.0
  0
LINE
  5
1214
100
AcDbEntity
  8
10000_FRONT
370
    25
390
0
  6
CONTINUOUS
 62
     7
100
AcDbLine
 10
118.749999
 20
210.375
 30
0.0
 11
122.249999
 21
210.375
 31
0.0
  0
LINE
  5
1215
100
AcDbEntity
  8
10000_FRONT
370
    25
390
0
  6
CONTINUOUS
 62
     7
100
AcDbLine
 10
128.449999
 20
210.375
 30
0.0
 11
131.949999
 21
210.375
 31
0.0
  0
LINE
  5
1216
100
AcDbEntity
  8
10000_FRONT
370
    25
390
0
  6
CONTINUOUS
 62
     7
100
AcDbLine
 10
118.749999
 20
210.975
 30
0.0
 11
122.249999
 21
210.975
 31
0.0
  0
LINE
  5
1217
100
AcDbEntity
  8
10000_FRONT
370
    25
390
0
  6
CONTINUOUS
 62
     7
100
AcDbLine
 10
128.449999
 20
210.975
 30
0.0
 11
131.949999
 21
210.975
 31
0.0
  0
LINE
  5
1218
100
AcDbEntity
  8
10000_FRONT
370
    25
390
0
  6
CONTINUOUS
 62
     7
100
AcDbLine
 10
93.749999
 20
211.8686
 30
0.0
 11
98.949999
 21
211.8686
 31
0.0
  0
LINE
  5
1219
100
AcDbEntity
  8
10000_FRONT
370
    25
390
0
  6
CONTINUOUS
 62
     7
100
AcDbLine
 10
93.899998
 20
212.075
 30
0.0
 11
98.699999
 21
212.075
 31
0.0
  0
LINE
  5
121A
100
AcDbEntity
  8
10000_FRONT
370
    25
390
0
  6
CONTINUOUS
 62
     7
100
AcDbLine
 10
93.899998
 20
214.875
 30
0.0
 11
98.699999
 21
214.875
 31
0.0
  0
LINE
  5
121B
100
AcDbEntity
  8
10000_FRONT
370
    25
390
0
  6
CONTINUOUS
 62
     7
100
AcDbLine
 10
93.749999
 20
215.0686
 30
0.0
 11
98.949999
 21
215.0686
 31
0.0
  0
LINE
  5
121C
100
AcDbEntity
  8
10000_FRONT
370
    25
390
0
  6
CONTINUOUS
 62
     7
100
AcDbLine
 10
108.919999
 20
222.075
 30
0.0
 11
110.446149
 21
222.075
 31
0.0
  0
LINE
  5
121D
100
AcDbEntity
  8
10000_FRONT
370
    25
390
0
  6
CONTINUOUS
 62
     7
100
AcDbLine
 10
97.995921
 20
223.476924
 30
0.0
 11
99.652224
 21
223.476924
 31
0.0
  0
LINE
  5
121E
100
AcDbEntity
  8
10000_FRONT
370
    25
390
0
  6
CONTINUOUS
 62
     7
100
AcDbLine
 10
102.687775
 20
223.476924
 30
0.0
 11
104.344077
 21
223.476924
 31
0.0
  0
LINE
  5
121F
100
AcDbEntity
  8
10000_FRONT
370
    25
390
0
  6
CONTINUOUS
 62
     7
100
AcDbLine
 10
99.71
 20
223.4824
 30
0.0
 11
102.63
 21
223.4824
 31
0.0
  0
LINE
  5
1220
100
AcDbEntity
  8
10000_FRONT
370
    25
390
0
  6
CONTINUOUS
 62
     7
100
AcDbLine
 10
108.919999
 20
223.525
 30
0.0
 11
110.834999
 21
223.525
 31
0.0
  0
LINE
  5
1221
100
AcDbEntity
  8
10000_FRONT
370
    25
390
0
  6
CONTINUOUS
 62
     7
100
AcDbLine
 10
90.349999
 20
224.975
 30
0.0
 11
90.35001
 21
224.975
 31
0.0
  0
LINE
  5
1222
100
AcDbEntity
  8
10000_FRONT
370
    25
390
0
  6
CONTINUOUS
 62
     7
100
AcDbLine
 10
97.993161
 20
225.874754
 30
0.0
 11
99.649464
 21
225.874754
 31
0.0
  0
LINE
  5
1223
100
AcDbEntity
  8
10000_FRONT
370
    25
390
0
  6
CONTINUOUS
 62
     7
100
AcDbLine
 10
102.690535
 20
225.874754
 30
0.0
 11
104.346837
 21
225.874754
 31
0.0
  0
LINE
  5
1224
100
AcDbEntity
  8
10000_FRONT
370
    25
390
0
  6
CONTINUOUS
 62
     7
100
AcDbLine
 10
99.71
 20
225.8824
 30
0.0
 11
102.63
 21
225.8824
 31
0.0
  0
LINE
  5
1225
100
AcDbEntity
  8
10000_FRONT
370
    25
390
0
  6
CONTINUOUS
 62
     7
100
AcDbLine
 10
90.349999
 20
227.975
 30
0.0
 11
90.35001
 21
227.975
 31
0.0
  0
LINE
  5
1226
100
AcDbEntity
  8
10000_FRONT
370
    25
390
0
  6
CONTINUOUS
 62
     7
100
AcDbLine
 10
90.349999
 20
236.425
 30
0.0
 11
90.350022
 21
236.425
 31
0.0
  0
LINE
  5
1227
100
AcDbEntity
  8
10000_FRONT
370
    25
390
0
  6
CONTINUOUS
 62
     7
100
AcDbLine
 10
95.169999
 20
236.974057
 30
0.0
 11
98.169999
 21
236.974057
 31
0.0
  0
LINE
  5
1228
100
AcDbEntity
  8
10000_FRONT
370
    25
390
0
  6
CONTINUOUS
 62
     7
100
AcDbLine
 10
106.369999
 20
236.974057
 30
0.0
 11
109.369999
 21
236.974057
 31
0.0
  0
LINE
  5
1229
100
AcDbEntity
  8
10000_FRONT
370
    25
390
0
  6
CONTINUOUS
 62
     7
100
AcDbLine
 10
90.349999
 20
236.975
 30
0.0
 11
90.350045
 21
236.975
 31
0.0
  0
LINE
  5
122A
100
AcDbEntity
  8
10000_FRONT
370
    25
390
0
  6
CONTINUOUS
 62
     7
100
AcDbLine
 10
106.369999
 20
237.892205
 30
0.0
 11
109.369999
 21
237.892205
 31
0.0
  0
LINE
  5
122B
100
AcDbEntity
  8
10000_FRONT
370
    25
390
0
  6
CONTINUOUS
 62
     7
100
AcDbLine
 10
95.169999
 20
237.892205
 30
0.0
 11
98.169999
 21
237.892205
 31
0.0
  0
LINE
  5
122C
100
AcDbEntity
  8
10000_FRONT
370
    25
390
0
  6
CONTINUOUS
 62
     7
100
AcDbLine
 10
95.169999
 20
237.972296
 30
0.0
 11
98.169999
 21
237.972296
 31
0.0
  0
LINE
  5
122D
100
AcDbEntity
  8
10000_FRONT
370
    25
390
0
  6
CONTINUOUS
 62
     7
100
AcDbLine
 10
106.369999
 20
237.972296
 30
0.0
 11
109.369999
 21
237.972296
 31
0.0
  0
LINE
  5
122E
100
AcDbEntity
  8
10000_FRONT
370
    25
390
0
  6
CONTINUOUS
 62
     7
100
AcDbLine
 10
90.349999
 20
237.975001
 30
0.0
 11
90.350045
 21
237.975001
 31
0.0
  0
LINE
  5
122F
100
AcDbEntity
  8
10000_FRONT
370
    25
390
0
  6
CONTINUOUS
 62
     7
100
AcDbLine
 10
117.449999
 20
239.375
 30
0.0
 11
133.249999
 21
239.375
 31
0.0
  0
LINE
  5
1230
100
AcDbEntity
  8
10000_FRONT
370
    25
390
0
  6
CONTINUOUS
 62
     7
100
AcDbLine
 10
90.349999
 20
239.403057
 30
0.0
 11
117.449999
 21
239.403057
 31
0.0
  0
LINE
  5
1231
100
AcDbEntity
  8
10000_FRONT
370
    25
390
0
  6
CONTINUOUS
 62
     7
100
AcDbLine
 10
133.249999
 20
239.403057
 30
0.0
 11
160.349999
 21
239.403057
 31
0.0
  0
LINE
  5
1232
100
AcDbEntity
  8
10000_FRONT
370
    25
390
0
  6
CONTINUOUS
 62
     7
100
AcDbLine
 10
117.549999
 20
239.574999
 30
0.0
 11
133.149999
 21
239.574999
 31
0.0
  0
LINE
  5
1233
100
AcDbEntity
  8
10000_FRONT
370
    25
390
0
  6
CONTINUOUS
 62
     7
100
AcDbLine
 10
129.631493
 20
240.375
 30
0.0
 11
130.301226
 21
240.375
 31
0.0
  0
LINE
  5
1234
100
AcDbEntity
  8
10000_FRONT
370
    25
390
0
  6
CONTINUOUS
 62
     7
100
AcDbLine
 10
128.433999
 20
240.375
 30
0.0
 11
128.867628
 21
240.375
 31
0.0
  0
LINE
  5
1235
100
AcDbEntity
  8
10000_FRONT
370
    25
390
0
  6
CONTINUOUS
 62
     7
100
AcDbLine
 10
125.382283
 20
240.375
 30
0.0
 11
126.001091
 21
240.375
 31
0.0
  0
LINE
  5
1236
100
AcDbEntity
  8
10000_FRONT
370
    25
390
0
  6
CONTINUOUS
 62
     7
100
AcDbLine
 10
124.379227
 20
240.375
 30
0.0
 11
124.783536
 21
240.375
 31
0.0
  0
LINE
  5
1237
100
AcDbEntity
  8
10000_FRONT
370
    25
390
0
  6
CONTINUOUS
 62
     7
100
AcDbLine
 10
123.369999
 20
240.375
 30
0.0
 11
123.78511
 21
240.375
 31
0.0
  0
LINE
  5
1238
100
AcDbEntity
  8
10000_FRONT
370
    25
390
0
  6
CONTINUOUS
 62
     7
100
AcDbLine
 10
120.289999
 20
240.375
 30
0.0
 11
120.911893
 21
240.375
 31
0.0
  0
LINE
  5
1239
100
AcDbEntity
  8
10000_FRONT
370
    25
390
0
  6
CONTINUOUS
 62
     7
100
AcDbLine
 10
121.413999
 20
240.375
 30
0.0
 11
122.988025
 21
240.375
 31
0.0
  0
LINE
  5
123A
100
AcDbEntity
  8
10000_FRONT
370
    25
390
0
  6
CONTINUOUS
 62
     7
100
AcDbLine
 10
126.477999
 20
240.375
 30
0.0
 11
128.052025
 21
240.375
 31
0.0
  0
LINE
  5
123B
100
AcDbEntity
  8
10000_FRONT
370
    25
390
0
  6
CONTINUOUS
 62
     7
100
AcDbLine
 10
122.035893
 20
240.773137
 30
0.0
 11
122.988025
 21
240.773137
 31
0.0
  0
LINE
  5
123C
100
AcDbEntity
  8
10000_FRONT
370
    25
390
0
  6
CONTINUOUS
 62
     7
100
AcDbLine
 10
127.099893
 20
240.773137
 30
0.0
 11
128.052025
 21
240.773137
 31
0.0
  0
LINE
  5
123D
100
AcDbEntity
  8
10000_FRONT
370
    25
390
0
  6
CONTINUOUS
 62
     7
100
AcDbLine
 10
122.035893
 20
241.274664
 30
0.0
 11
122.867658
 21
241.274664
 31
0.0
  0
LINE
  5
123E
100
AcDbEntity
  8
10000_FRONT
370
    25
390
0
  6
CONTINUOUS
 62
     7
100
AcDbLine
 10
127.099893
 20
241.274664
 30
0.0
 11
127.931658
 21
241.274664
 31
0.0
  0
LINE
  5
123F
100
AcDbEntity
  8
10000_FRONT
370
    25
390
0
  6
CONTINUOUS
 62
     7
100
AcDbLine
 10
122.035893
 20
241.63885
 30
0.0
 11
122.867658
 21
241.63885
 31
0.0
  0
LINE
  5
1240
100
AcDbEntity
  8
10000_FRONT
370
    25
390
0
  6
CONTINUOUS
 62
     7
100
AcDbLine
 10
127.099893
 20
241.63885
 30
0.0
 11
127.931658
 21
241.63885
 31
0.0
  0
LINE
  5
1241
100
AcDbEntity
  8
10000_FRONT
370
    25
390
0
  6
CONTINUOUS
 62
     7
100
AcDbLine
 10
122.035893
 20
242.123404
 30
0.0
 11
122.988025
 21
242.123404
 31
0.0
  0
LINE
  5
1242
100
AcDbEntity
  8
10000_FRONT
370
    25
390
0
  6
CONTINUOUS
 62
     7
100
AcDbLine
 10
127.099893
 20
242.123404
 30
0.0
 11
128.052025
 21
242.123404
 31
0.0
  0
LINE
  5
1243
100
AcDbEntity
  8
10000_FRONT
370
    25
390
0
  6
CONTINUOUS
 62
     7
100
AcDbLine
 10
129.890744
 20
242.504565
 30
0.0
 11
130.301226
 21
242.504565
 31
0.0
  0
LINE
  5
1244
100
AcDbEntity
  8
10000_FRONT
370
    25
390
0
  6
CONTINUOUS
 62
     7
100
AcDbLine
 10
128.433999
 20
242.504565
 30
0.0
 11
129.125336
 21
242.504565
 31
0.0
  0
LINE
  5
1245
100
AcDbEntity
  8
10000_FRONT
370
    25
390
0
  6
CONTINUOUS
 62
     7
100
AcDbLine
 10
125.237226
 20
242.504565
 30
0.0
 11
126.001091
 21
242.504565
 31
0.0
  0
LINE
  5
1246
100
AcDbEntity
  8
10000_FRONT
370
    25
390
0
  6
CONTINUOUS
 62
     7
100
AcDbLine
 10
123.369999
 20
242.504565
 30
0.0
 11
124.140037
 21
242.504565
 31
0.0
  0
LINE
  5
1247
100
AcDbEntity
  8
10000_FRONT
370
    25
390
0
  6
CONTINUOUS
 62
     7
100
AcDbLine
 10
120.289999
 20
242.504565
 30
0.0
 11
120.911893
 21
242.504565
 31
0.0
  0
LINE
  5
1248
100
AcDbEntity
  8
10000_FRONT
370
    25
390
0
  6
CONTINUOUS
 62
     7
100
AcDbLine
 10
121.413999
 20
242.504565
 30
0.0
 11
122.988025
 21
242.504565
 31
0.0
  0
LINE
  5
1249
100
AcDbEntity
  8
10000_FRONT
370
    25
390
0
  6
CONTINUOUS
 62
     7
100
AcDbLine
 10
126.477999
 20
242.504565
 30
0.0
 11
128.052025
 21
242.504565
 31
0.0
  0
LINE
  5
124A
100
AcDbEntity
  8
10000_FRONT
370
    25
390
0
  6
CONTINUOUS
 62
     7
100
AcDbLine
 10
117.549999
 20
243.375
 30
0.0
 11
133.149999
 21
243.375
 31
0.0
  0
LINE
  5
124B
100
AcDbEntity
  8
10000_FRONT
370
    25
390
0
  6
CONTINUOUS
 62
     7
100
AcDbLine
 10
117.749999
 20
243.574999
 30
0.0
 11
132.949999
 21
243.574999
 31
0.0
  0
LINE
  5
124C
100
AcDbEntity
  8
10000_FRONT
370
    25
390
0
  6
CONTINUOUS
 62
     7
100
AcDbLine
 10
90.349999
 20
243.775
 30
0.0
 11
160.349999
 21
243.775
 31
0.0
  0
LINE
  5
124D
100
AcDbEntity
  8
10000_FRONT
370
    25
390
0
  6
CONTINUOUS
 62
     7
100
AcDbLine
 10
90.349999
 20
256.275
 30
0.0
 11
90.350045
 21
256.275
 31
0.0
  0
LINE
  5
124E
100
AcDbEntity
  8
10000_FRONT
370
    25
390
0
  6
CONTINUOUS
 62
     7
100
AcDbLine
 10
102.849999
 20
268.975001
 30
0.0
 11
147.849999
 21
268.975001
 31
0.0
  0
LINE
  5
124F
100
AcDbEntity
  8
10000_FRONT
370
    25
390
0
  6
CONTINUOUS
 62
     7
100
AcDbLine
 10
102.899998
 20
269.07503
 30
0.0
 11
147.8
 21
269.07503
 31
0.0
  0
LINE
  5
1250
100
AcDbEntity
  8
10000_FRONT
370
    25
390
0
  6
CONTINUOUS
 62
     7
100
AcDbLine
 10
102.899998
 20
269.525046
 30
0.0
 11
147.8
 21
269.525046
 31
0.0
  0
LINE
  5
1251
100
AcDbEntity
  8
10000_FRONT
370
    25
390
0
  6
CONTINUOUS
 62
     7
100
AcDbLine
 10
90.349999
 20
270.275
 30
0.0
 11
90.350064
 21
270.275
 31
0.0
  0
LINE
  5
1252
100
AcDbEntity
  8
10000_FRONT
370
    25
390
0
  6
CONTINUOUS
 62
     7
100
AcDbLine
 10
97.245757
 20
270.579138
 30
0.0
 11
97.454241
 21
270.579138
 31
0.0
  0
LINE
  5
1253
100
AcDbEntity
  8
10000_FRONT
370
    25
390
0
  6
CONTINUOUS
 62
     7
100
AcDbLine
 10
153.245757
 20
270.579138
 30
0.0
 11
153.454241
 21
270.579138
 31
0.0
  0
LINE
  5
1254
100
AcDbEntity
  8
10000_FRONT
370
    25
390
0
  6
CONTINUOUS
 62
     7
100
AcDbLine
 10
102.899998
 20
278.550055
 30
0.0
 11
147.8
 21
278.550055
 31
0.0
  0
LINE
  5
1255
100
AcDbEntity
  8
10000_FRONT
370
    25
390
0
  6
CONTINUOUS
 62
     7
100
AcDbLine
 10
92.750001
 20
279.025
 30
0.0
 11
101.949999
 21
279.025
 31
0.0
  0
LINE
  5
1256
100
AcDbEntity
  8
10000_FRONT
370
    25
390
0
  6
CONTINUOUS
 62
     7
100
AcDbLine
 10
102.849999
 20
279.025
 30
0.0
 11
102.899998
 21
279.025
 31
0.0
  0
LINE
  5
1257
100
AcDbEntity
  8
10000_FRONT
370
    25
390
0
  6
CONTINUOUS
 62
     7
100
AcDbLine
 10
147.8
 20
279.025
 30
0.0
 11
147.849999
 21
279.025
 31
0.0
  0
LINE
  5
1258
100
AcDbEntity
  8
10000_FRONT
370
    25
390
0
  6
CONTINUOUS
 62
     7
100
AcDbLine
 10
148.749999
 20
279.025
 30
0.0
 11
157.949997
 21
279.025
 31
0.0
  0
LINE
  5
1259
100
AcDbEntity
  8
10000_FRONT
370
    25
390
0
  6
CONTINUOUS
 62
     7
100
AcDbLine
 10
101.949999
 20
279.074999
 30
0.0
 11
102.849999
 21
279.074999
 31
0.0
  0
LINE
  5
125A
100
AcDbEntity
  8
10000_FRONT
370
    25
390
0
  6
CONTINUOUS
 62
     7
100
AcDbLine
 10
90.349999
 20
279.074999
 30
0.0
 11
92.750001
 21
279.074999
 31
0.0
  0
LINE
  5
125B
100
AcDbEntity
  8
10000_FRONT
370
    25
390
0
  6
CONTINUOUS
 62
     7
100
AcDbLine
 10
157.949997
 20
279.074999
 30
0.0
 11
160.349999
 21
279.074999
 31
0.0
  0
LINE
  5
125C
100
AcDbEntity
  8
10000_FRONT
370
    25
390
0
  6
CONTINUOUS
 62
     7
100
AcDbLine
 10
147.849999
 20
279.074999
 30
0.0
 11
148.749999
 21
279.074999
 31
0.0
  0
LINE
  5
125D
100
AcDbEntity
  8
10000_FRONT
370
    25
390
0
  6
CONTINUOUS
 62
     7
100
AcDbLine
 10
102.899998
 20
279.07503
 30
0.0
 11
147.8
 21
279.07503
 31
0.0
  0
LINE
  5
125E
100
AcDbEntity
  8
10000_FRONT
370
    25
390
0
  6
CONTINUOUS
 62
     7
100
AcDbLine
 10
92.349999
 20
279.975275
 30
0.0
 11
158.349999
 21
279.975275
 31
0.0
  0
LINE
  5
125F
100
AcDbEntity
  8
10000_FRONT
370
    25
390
0
  6
CONTINUOUS
 62
     7
100
AcDbLine
 10
118.099999
 20
281.025
 30
0.0
 11
132.599999
 21
281.025
 31
0.0
  0
LINE
  5
1260
100
AcDbEntity
  8
10000_FRONT
370
    25
390
0
  6
CONTINUOUS
 62
     7
100
AcDbLine
 10
134.599999
 20
281.025
 30
0.0
 11
138.599999
 21
281.025
 31
0.0
  0
LINE
  5
1261
100
AcDbEntity
  8
10000_FRONT
370
    25
390
0
  6
CONTINUOUS
 62
     7
100
AcDbLine
 10
112.099999
 20
281.025
 30
0.0
 11
116.099999
 21
281.025
 31
0.0
  0
LINE
  5
1262
100
AcDbEntity
  8
10000_FRONT
370
    25
390
0
  6
CONTINUOUS
 62
     7
100
AcDbLine
 10
140.599999
 20
281.025
 30
0.0
 11
156.349999
 21
281.025
 31
0.0
  0
LINE
  5
1263
100
AcDbEntity
  8
10000_FRONT
370
    25
390
0
  6
CONTINUOUS
 62
     7
100
AcDbLine
 10
94.349999
 20
281.025
 30
0.0
 11
110.099999
 21
281.025
 31
0.0
  0
LINE
  5
1264
100
AcDbEntity
  8
10000_FRONT
370
    25
390
0
  6
CONTINUOUS
 62
     7
100
AcDbLine
 10
158.349999
 20
295.774725
 30
0.0
 11
160.340001
 21
295.774725
 31
0.0
  0
LINE
  5
1265
100
AcDbEntity
  8
10000_FRONT
370
    25
390
0
  6
CONTINUOUS
 62
     7
100
AcDbLine
 10
90.359997
 20
295.774725
 30
0.0
 11
92.349999
 21
295.774725
 31
0.0
  0
LINE
  5
1266
100
AcDbEntity
  8
10000_FRONT
370
    25
390
0
  6
CONTINUOUS
 62
     7
100
AcDbLine
 10
118.099999
 20
295.775725
 30
0.0
 11
132.599999
 21
295.775725
 31
0.0
  0
LINE
  5
1267
100
AcDbEntity
  8
10000_FRONT
370
    25
390
0
  6
CONTINUOUS
 62
     7
100
AcDbLine
 10
134.599999
 20
295.775725
 30
0.0
 11
138.599999
 21
295.775725
 31
0.0
  0
LINE
  5
1268
100
AcDbEntity
  8
10000_FRONT
370
    25
390
0
  6
CONTINUOUS
 62
     7
100
AcDbLine
 10
112.099999
 20
295.775725
 30
0.0
 11
116.099999
 21
295.775725
 31
0.0
  0
LINE
  5
1269
100
AcDbEntity
  8
10000_FRONT
370
    25
390
0
  6
CONTINUOUS
 62
     7
100
AcDbLine
 10
140.599999
 20
295.775725
 30
0.0
 11
156.349999
 21
295.775725
 31
0.0
  0
LINE
  5
126A
100
AcDbEntity
  8
10000_FRONT
370
    25
390
0
  6
CONTINUOUS
 62
     7
100
AcDbLine
 10
94.349999
 20
295.775725
 30
0.0
 11
110.099999
 21
295.775725
 31
0.0
  0
LINE
  5
126B
100
AcDbEntity
  8
10000_FRONT
370
    25
390
0
  6
CONTINUOUS
 62
     7
100
AcDbLine
 10
118.099999
 20
296.124998
 30
0.0
 11
132.599999
 21
296.124998
 31
0.0
  0
LINE
  5
126C
100
AcDbEntity
  8
10000_FRONT
370
    25
390
0
  6
CONTINUOUS
 62
     7
100
AcDbLine
 10
134.599999
 20
296.124998
 30
0.0
 11
138.599999
 21
296.124998
 31
0.0
  0
LINE
  5
126D
100
AcDbEntity
  8
10000_FRONT
370
    25
390
0
  6
CONTINUOUS
 62
     7
100
AcDbLine
 10
112.099999
 20
296.124998
 30
0.0
 11
116.099999
 21
296.124998
 31
0.0
  0
LINE
  5
126E
100
AcDbEntity
  8
10000_FRONT
370
    25
390
0
  6
CONTINUOUS
 62
     7
100
AcDbLine
 10
140.599999
 20
296.124998
 30
0.0
 11
156.349999
 21
296.124998
 31
0.0
  0
LINE
  5
126F
100
AcDbEntity
  8
10000_FRONT
370
    25
390
0
  6
CONTINUOUS
 62
     7
100
AcDbLine
 10
94.349999
 20
296.124998
 30
0.0
 11
110.099999
 21
296.124998
 31
0.0
  0
LINE
  5
1270
100
AcDbEntity
  8
10000_FRONT
370
    25
390
0
  6
CONTINUOUS
 62
     7
100
AcDbLine
 10
158.349999
 20
296.124998
 30
0.0
 11
160.340001
 21
296.124998
 31
0.0
  0
LINE
  5
1271
100
AcDbEntity
  8
10000_FRONT
370
    25
390
0
  6
CONTINUOUS
 62
     7
100
AcDbLine
 10
90.359997
 20
296.124998
 30
0.0
 11
92.349999
 21
296.124998
 31
0.0
  0
LINE
  5
1272
100
AcDbEntity
  8
10000_FRONT
370
    25
390
0
  6
CONTINUOUS
 62
     7
100
AcDbLine
 10
158.350064
 20
296.275
 30
0.0
 11
160.349999
 21
296.275
 31
0.0
  0
LINE
  5
1273
100
AcDbEntity
  8
10000_FRONT
370
    25
390
0
  6
CONTINUOUS
 62
     7
100
AcDbLine
 10
90.349999
 20
296.275
 30
0.0
 11
92.350064
 21
296.275
 31
0.0
  0
LINE
  5
1274
100
AcDbEntity
  8
10000_FRONT
370
    25
390
0
  6
CONTINUOUS
 62
     7
100
AcDbLine
 10
158.350098
 20
303.775
 30
0.0
 11
160.349999
 21
303.775
 31
0.0
  0
LINE
  5
1275
100
AcDbEntity
  8
10000_FRONT
370
    25
390
0
  6
CONTINUOUS
 62
     7
100
AcDbLine
 10
90.349999
 20
303.775
 30
0.0
 11
92.350098
 21
303.775
 31
0.0
  0
LINE
  5
1276
100
AcDbEntity
  8
10000_FRONT
370
    25
390
0
  6
CONTINUOUS
 62
     7
100
AcDbLine
 10
118.099999
 20
304.825003
 30
0.0
 11
132.599999
 21
304.825003
 31
0.0
  0
LINE
  5
1277
100
AcDbEntity
  8
10000_FRONT
370
    25
390
0
  6
CONTINUOUS
 62
     7
100
AcDbLine
 10
134.599999
 20
304.825003
 30
0.0
 11
138.599999
 21
304.825003
 31
0.0
  0
LINE
  5
1278
100
AcDbEntity
  8
10000_FRONT
370
    25
390
0
  6
CONTINUOUS
 62
     7
100
AcDbLine
 10
112.099999
 20
304.825003
 30
0.0
 11
116.099999
 21
304.825003
 31
0.0
  0
LINE
  5
1279
100
AcDbEntity
  8
10000_FRONT
370
    25
390
0
  6
CONTINUOUS
 62
     7
100
AcDbLine
 10
140.599999
 20
304.825003
 30
0.0
 11
156.349999
 21
304.825003
 31
0.0
  0
LINE
  5
127A
100
AcDbEntity
  8
10000_FRONT
370
    25
390
0
  6
CONTINUOUS
 62
     7
100
AcDbLine
 10
94.349999
 20
304.825003
 30
0.0
 11
110.099999
 21
304.825003
 31
0.0
  0
LINE
  5
127B
100
AcDbEntity
  8
10000_FRONT
370
    25
390
0
  6
CONTINUOUS
 62
     7
100
AcDbLine
 10
118.099999
 20
305.325003
 30
0.0
 11
132.599999
 21
305.325003
 31
0.0
  0
LINE
  5
127C
100
AcDbEntity
  8
10000_FRONT
370
    25
390
0
  6
CONTINUOUS
 62
     7
100
AcDbLine
 10
134.599999
 20
305.325003
 30
0.0
 11
138.599999
 21
305.325003
 31
0.0
  0
LINE
  5
127D
100
AcDbEntity
  8
10000_FRONT
370
    25
390
0
  6
CONTINUOUS
 62
     7
100
AcDbLine
 10
112.099999
 20
305.325003
 30
0.0
 11
116.099999
 21
305.325003
 31
0.0
  0
LINE
  5
127E
100
AcDbEntity
  8
10000_FRONT
370
    25
390
0
  6
CONTINUOUS
 62
     7
100
AcDbLine
 10
140.599999
 20
305.325003
 30
0.0
 11
156.349999
 21
305.325003
 31
0.0
  0
LINE
  5
127F
100
AcDbEntity
  8
10000_FRONT
370
    25
390
0
  6
CONTINUOUS
 62
     7
100
AcDbLine
 10
94.349999
 20
305.325003
 30
0.0
 11
110.099999
 21
305.325003
 31
0.0
  0
LINE
  5
1280
100
AcDbEntity
  8
10000_FRONT
370
    25
390
0
  6
CONTINUOUS
 62
     7
100
AcDbLine
 10
132.599999
 20
305.475272
 30
0.0
 11
134.599999
 21
305.475272
 31
0.0
  0
LINE
  5
1281
100
AcDbEntity
  8
10000_FRONT
370
    25
390
0
  6
CONTINUOUS
 62
     7
100
AcDbLine
 10
138.599999
 20
305.475272
 30
0.0
 11
140.599999
 21
305.475272
 31
0.0
  0
LINE
  5
1282
100
AcDbEntity
  8
10000_FRONT
370
    25
390
0
  6
CONTINUOUS
 62
     7
100
AcDbLine
 10
116.099999
 20
305.475272
 30
0.0
 11
118.099999
 21
305.475272
 31
0.0
  0
LINE
  5
1283
100
AcDbEntity
  8
10000_FRONT
370
    25
390
0
  6
CONTINUOUS
 62
     7
100
AcDbLine
 10
156.349999
 20
305.475272
 30
0.0
 11
158.349999
 21
305.475272
 31
0.0
  0
LINE
  5
1284
100
AcDbEntity
  8
10000_FRONT
370
    25
390
0
  6
CONTINUOUS
 62
     7
100
AcDbLine
 10
110.099999
 20
305.475272
 30
0.0
 11
112.099999
 21
305.475272
 31
0.0
  0
LINE
  5
1285
100
AcDbEntity
  8
10000_FRONT
370
    25
390
0
  6
CONTINUOUS
 62
     7
100
AcDbLine
 10
92.349999
 20
305.475272
 30
0.0
 11
94.349999
 21
305.475272
 31
0.0
  0
LINE
  5
1286
100
AcDbEntity
  8
10000_FRONT
370
    25
390
0
  6
CONTINUOUS
 62
     7
100
AcDbLine
 10
132.599999
 20
306.124998
 30
0.0
 11
134.599999
 21
306.124998
 31
0.0
  0
LINE
  5
1287
100
AcDbEntity
  8
10000_FRONT
370
    25
390
0
  6
CONTINUOUS
 62
     7
100
AcDbLine
 10
138.599999
 20
306.124998
 30
0.0
 11
140.599999
 21
306.124998
 31
0.0
  0
LINE
  5
1288
100
AcDbEntity
  8
10000_FRONT
370
    25
390
0
  6
CONTINUOUS
 62
     7
100
AcDbLine
 10
116.099999
 20
306.124998
 30
0.0
 11
118.099999
 21
306.124998
 31
0.0
  0
LINE
  5
1289
100
AcDbEntity
  8
10000_FRONT
370
    25
390
0
  6
CONTINUOUS
 62
     7
100
AcDbLine
 10
156.349999
 20
306.124998
 30
0.0
 11
158.349999
 21
306.124998
 31
0.0
  0
LINE
  5
128A
100
AcDbEntity
  8
10000_FRONT
370
    25
390
0
  6
CONTINUOUS
 62
     7
100
AcDbLine
 10
110.099999
 20
306.124998
 30
0.0
 11
112.099999
 21
306.124998
 31
0.0
  0
LINE
  5
128B
100
AcDbEntity
  8
10000_FRONT
370
    25
390
0
  6
CONTINUOUS
 62
     7
100
AcDbLine
 10
92.349999
 20
306.124998
 30
0.0
 11
94.349999
 21
306.124998
 31
0.0
  0
LINE
  5
128C
100
AcDbEntity
  8
10000_FRONT
370
    25
390
0
  6
CONTINUOUS
 62
     7
100
AcDbLine
 10
120.641999
 20
202.252758
 30
0.0
 11
120.660087
 21
202.252789
 31
0.0
  0
LINE
  5
128D
100
AcDbEntity
  8
10000_FRONT
370
    25
390
0
  6
CONTINUOUS
 62
     7
100
AcDbLine
 10
131.641999
 20
202.252758
 30
0.0
 11
131.660087
 21
202.252789
 31
0.0
  0
LINE
  5
128E
100
AcDbEntity
  8
10000_FRONT
370
    25
390
0
  6
CONTINUOUS
 62
     7
100
AcDbLine
 10
120.660087
 20
202.252789
 30
0.0
 11
120.67887
 21
202.25288
 31
0.0
  0
LINE
  5
128F
100
AcDbEntity
  8
10000_FRONT
370
    25
390
0
  6
CONTINUOUS
 62
     7
100
AcDbLine
 10
131.660087
 20
202.252789
 30
0.0
 11
131.67887
 21
202.25288
 31
0.0
  0
LINE
  5
1290
100
AcDbEntity
  8
10000_FRONT
370
    25
390
0
  6
CONTINUOUS
 62
     7
100
AcDbLine
 10
120.67887
 20
202.25288
 30
0.0
 11
120.697933
 21
202.253027
 31
0.0
  0
LINE
  5
1291
100
AcDbEntity
  8
10000_FRONT
370
    25
390
0
  6
CONTINUOUS
 62
     7
100
AcDbLine
 10
131.67887
 20
202.25288
 30
0.0
 11
131.697933
 21
202.253027
 31
0.0
  0
LINE
  5
1292
100
AcDbEntity
  8
10000_FRONT
370
    25
390
0
  6
CONTINUOUS
 62
     7
100
AcDbLine
 10
120.697933
 20
202.253027
 30
0.0
 11
120.716863
 21
202.253226
 31
0.0
  0
LINE
  5
1293
100
AcDbEntity
  8
10000_FRONT
370
    25
390
0
  6
CONTINUOUS
 62
     7
100
AcDbLine
 10
131.697933
 20
202.253027
 30
0.0
 11
131.716863
 21
202.253226
 31
0.0
  0
LINE
  5
1294
100
AcDbEntity
  8
10000_FRONT
370
    25
390
0
  6
CONTINUOUS
 62
     7
100
AcDbLine
 10
120.716863
 20
202.253226
 30
0.0
 11
120.735247
 21
202.253474
 31
0.0
  0
LINE
  5
1295
100
AcDbEntity
  8
10000_FRONT
370
    25
390
0
  6
CONTINUOUS
 62
     7
100
AcDbLine
 10
131.716863
 20
202.253226
 30
0.0
 11
131.735247
 21
202.253474
 31
0.0
  0
LINE
  5
1296
100
AcDbEntity
  8
10000_FRONT
370
    25
390
0
  6
CONTINUOUS
 62
     7
100
AcDbLine
 10
120.735247
 20
202.253474
 30
0.0
 11
120.752673
 21
202.253765
 31
0.0
  0
LINE
  5
1297
100
AcDbEntity
  8
10000_FRONT
370
    25
390
0
  6
CONTINUOUS
 62
     7
100
AcDbLine
 10
131.735247
 20
202.253474
 30
0.0
 11
131.752673
 21
202.253765
 31
0.0
  0
LINE
  5
1298
100
AcDbEntity
  8
10000_FRONT
370
    25
390
0
  6
CONTINUOUS
 62
     7
100
AcDbLine
 10
120.752673
 20
202.253765
 30
0.0
 11
120.769877
 21
202.254118
 31
0.0
  0
LINE
  5
1299
100
AcDbEntity
  8
10000_FRONT
370
    25
390
0
  6
CONTINUOUS
 62
     7
100
AcDbLine
 10
131.752673
 20
202.253765
 30
0.0
 11
131.769877
 21
202.254118
 31
0.0
  0
LINE
  5
129A
100
AcDbEntity
  8
10000_FRONT
370
    25
390
0
  6
CONTINUOUS
 62
     7
100
AcDbLine
 10
120.769877
 20
202.254118
 30
0.0
 11
120.787446
 21
202.25454
 31
0.0
  0
LINE
  5
129B
100
AcDbEntity
  8
10000_FRONT
370
    25
390
0
  6
CONTINUOUS
 62
     7
100
AcDbLine
 10
131.769877
 20
202.254118
 30
0.0
 11
131.787446
 21
202.25454
 31
0.0
  0
LINE
  5
129C
100
AcDbEntity
  8
10000_FRONT
370
    25
390
0
  6
CONTINUOUS
 62
     7
100
AcDbLine
 10
120.787446
 20
202.25454
 30
0.0
 11
120.805005
 21
202.255022
 31
0.0
  0
LINE
  5
129D
100
AcDbEntity
  8
10000_FRONT
370
    25
390
0
  6
CONTINUOUS
 62
     7
100
AcDbLine
 10
131.787446
 20
202.25454
 30
0.0
 11
131.805005
 21
202.255022
 31
0.0
  0
LINE
  5
129E
100
AcDbEntity
  8
10000_FRONT
370
    25
390
0
  6
CONTINUOUS
 62
     7
100
AcDbLine
 10
120.805005
 20
202.255022
 30
0.0
 11
120.822179
 21
202.255551
 31
0.0
  0
LINE
  5
129F
100
AcDbEntity
  8
10000_FRONT
370
    25
390
0
  6
CONTINUOUS
 62
     7
100
AcDbLine
 10
131.805005
 20
202.255022
 30
0.0
 11
131.822179
 21
202.255551
 31
0.0
  0
LINE
  5
12A0
100
AcDbEntity
  8
10000_FRONT
370
    25
390
0
  6
CONTINUOUS
 62
     7
100
AcDbLine
 10
120.822179
 20
202.255551
 30
0.0
 11
120.838594
 21
202.256117
 31
0.0
  0
LINE
  5
12A1
100
AcDbEntity
  8
10000_FRONT
370
    25
390
0
  6
CONTINUOUS
 62
     7
100
AcDbLine
 10
131.822179
 20
202.255551
 30
0.0
 11
131.838594
 21
202.256117
 31
0.0
  0
LINE
  5
12A2
100
AcDbEntity
  8
10000_FRONT
370
    25
390
0
  6
CONTINUOUS
 62
     7
100
AcDbLine
 10
120.838594
 20
202.256117
 30
0.0
 11
120.853877
 21
202.256712
 31
0.0
  0
LINE
  5
12A3
100
AcDbEntity
  8
10000_FRONT
370
    25
390
0
  6
CONTINUOUS
 62
     7
100
AcDbLine
 10
131.838594
 20
202.256117
 30
0.0
 11
131.853877
 21
202.256712
 31
0.0
  0
LINE
  5
12A4
100
AcDbEntity
  8
10000_FRONT
370
    25
390
0
  6
CONTINUOUS
 62
     7
100
AcDbLine
 10
120.853877
 20
202.256712
 30
0.0
 11
120.868637
 21
202.257361
 31
0.0
  0
LINE
  5
12A5
100
AcDbEntity
  8
10000_FRONT
370
    25
390
0
  6
CONTINUOUS
 62
     7
100
AcDbLine
 10
131.853877
 20
202.256712
 30
0.0
 11
131.868637
 21
202.257361
 31
0.0
  0
LINE
  5
12A6
100
AcDbEntity
  8
10000_FRONT
370
    25
390
0
  6
CONTINUOUS
 62
     7
100
AcDbLine
 10
97.454241
 20
270.579138
 30
0.0
 11
97.664788
 21
270.588793
 31
0.0
  0
LINE
  5
12A7
100
AcDbEntity
  8
10000_FRONT
370
    25
390
0
  6
CONTINUOUS
 62
     7
100
AcDbLine
 10
153.454241
 20
270.579138
 30
0.0
 11
153.664788
 21
270.588793
 31
0.0
  0
LINE
  5
12A8
100
AcDbEntity
  8
10000_FRONT
370
    25
390
0
  6
CONTINUOUS
 62
     7
100
AcDbLine
 10
120.868637
 20
202.257361
 30
0.0
 11
120.88339
 21
202.258084
 31
0.0
  0
LINE
  5
12A9
100
AcDbEntity
  8
10000_FRONT
370
    25
390
0
  6
CONTINUOUS
 62
     7
100
AcDbLine
 10
131.868637
 20
202.257361
 30
0.0
 11
131.88339
 21
202.258084
 31
0.0
  0
LINE
  5
12AA
100
AcDbEntity
  8
10000_FRONT
370
    25
390
0
  6
CONTINUOUS
 62
     7
100
AcDbLine
 10
120.88339
 20
202.258084
 30
0.0
 11
120.897827
 21
202.258864
 31
0.0
  0
LINE
  5
12AB
100
AcDbEntity
  8
10000_FRONT
370
    25
390
0
  6
CONTINUOUS
 62
     7
100
AcDbLine
 10
131.88339
 20
202.258084
 30
0.0
 11
131.897827
 21
202.258864
 31
0.0
  0
LINE
  5
12AC
100
AcDbEntity
  8
10000_FRONT
370
    25
390
0
  6
CONTINUOUS
 62
     7
100
AcDbLine
 10
120.897827
 20
202.258864
 30
0.0
 11
120.911635
 21
202.259688
 31
0.0
  0
LINE
  5
12AD
100
AcDbEntity
  8
10000_FRONT
370
    25
390
0
  6
CONTINUOUS
 62
     7
100
AcDbLine
 10
131.897827
 20
202.258864
 30
0.0
 11
131.911635
 21
202.259688
 31
0.0
  0
LINE
  5
12AE
100
AcDbEntity
  8
10000_FRONT
370
    25
390
0
  6
CONTINUOUS
 62
     7
100
AcDbLine
 10
120.911635
 20
202.259688
 30
0.0
 11
120.924505
 21
202.260535
 31
0.0
  0
LINE
  5
12AF
100
AcDbEntity
  8
10000_FRONT
370
    25
390
0
  6
CONTINUOUS
 62
     7
100
AcDbLine
 10
131.911635
 20
202.259688
 30
0.0
 11
131.924505
 21
202.260535
 31
0.0
  0
LINE
  5
12B0
100
AcDbEntity
  8
10000_FRONT
370
    25
390
0
  6
CONTINUOUS
 62
     7
100
AcDbLine
 10
120.924505
 20
202.260535
 30
0.0
 11
120.936125
 21
202.261391
 31
0.0
  0
LINE
  5
12B1
100
AcDbEntity
  8
10000_FRONT
370
    25
390
0
  6
CONTINUOUS
 62
     7
100
AcDbLine
 10
131.924505
 20
202.260535
 30
0.0
 11
131.936125
 21
202.261391
 31
0.0
  0
LINE
  5
12B2
100
AcDbEntity
  8
10000_FRONT
370
    25
390
0
  6
CONTINUOUS
 62
     7
100
AcDbLine
 10
120.936125
 20
202.261391
 30
0.0
 11
120.947042
 21
202.262309
 31
0.0
  0
LINE
  5
12B3
100
AcDbEntity
  8
10000_FRONT
370
    25
390
0
  6
CONTINUOUS
 62
     7
100
AcDbLine
 10
131.936125
 20
202.261391
 30
0.0
 11
131.947042
 21
202.262309
 31
0.0
  0
LINE
  5
12B4
100
AcDbEntity
  8
10000_FRONT
370
    25
390
0
  6
CONTINUOUS
 62
     7
100
AcDbLine
 10
97.664788
 20
270.588793
 30
0.0
 11
97.877289
 21
270.60834
 31
0.0
  0
LINE
  5
12B5
100
AcDbEntity
  8
10000_FRONT
370
    25
390
0
  6
CONTINUOUS
 62
     7
100
AcDbLine
 10
153.664788
 20
270.588793
 30
0.0
 11
153.877289
 21
270.60834
 31
0.0
  0
LINE
  5
12B6
100
AcDbEntity
  8
10000_FRONT
370
    25
390
0
  6
CONTINUOUS
 62
     7
100
AcDbLine
 10
120.947042
 20
202.262309
 30
0.0
 11
120.95755
 21
202.263304
 31
0.0
  0
LINE
  5
12B7
100
AcDbEntity
  8
10000_FRONT
370
    25
390
0
  6
CONTINUOUS
 62
     7
100
AcDbLine
 10
131.947042
 20
202.262309
 30
0.0
 11
131.95755
 21
202.263304
 31
0.0
  0
LINE
  5
12B8
100
AcDbEntity
  8
10000_FRONT
370
    25
390
0
  6
CONTINUOUS
 62
     7
100
AcDbLine
 10
120.95755
 20
202.263304
 30
0.0
 11
120.966812
 21
202.264307
 31
0.0
  0
LINE
  5
12B9
100
AcDbEntity
  8
10000_FRONT
370
    25
390
0
  6
CONTINUOUS
 62
     7
100
AcDbLine
 10
131.95755
 20
202.263304
 30
0.0
 11
131.966812
 21
202.264307
 31
0.0
  0
LINE
  5
12BA
100
AcDbEntity
  8
10000_FRONT
370
    25
390
0
  6
CONTINUOUS
 62
     7
100
AcDbLine
 10
120.966812
 20
202.264307
 30
0.0
 11
120.974538
 21
202.265311
 31
0.0
  0
LINE
  5
12BB
100
AcDbEntity
  8
10000_FRONT
370
    25
390
0
  6
CONTINUOUS
 62
     7
100
AcDbLine
 10
131.966812
 20
202.264307
 30
0.0
 11
131.974538
 21
202.265311
 31
0.0
  0
LINE
  5
12BC
100
AcDbEntity
  8
10000_FRONT
370
    25
390
0
  6
CONTINUOUS
 62
     7
100
AcDbLine
 10
97.877289
 20
270.60834
 30
0.0
 11
98.0908
 21
270.638007
 31
0.0
  0
LINE
  5
12BD
100
AcDbEntity
  8
10000_FRONT
370
    25
390
0
  6
CONTINUOUS
 62
     7
100
AcDbLine
 10
153.877289
 20
270.60834
 30
0.0
 11
154.0908
 21
270.638007
 31
0.0
  0
LINE
  5
12BE
100
AcDbEntity
  8
10000_FRONT
370
    25
390
0
  6
CONTINUOUS
 62
     7
100
AcDbLine
 10
120.974538
 20
202.265311
 30
0.0
 11
120.981241
 21
202.266394
 31
0.0
  0
LINE
  5
12BF
100
AcDbEntity
  8
10000_FRONT
370
    25
390
0
  6
CONTINUOUS
 62
     7
100
AcDbLine
 10
131.974538
 20
202.265311
 30
0.0
 11
131.981241
 21
202.266394
 31
0.0
  0
LINE
  5
12C0
100
AcDbEntity
  8
10000_FRONT
370
    25
390
0
  6
CONTINUOUS
 62
     7
100
AcDbLine
 10
98.0908
 20
270.638007
 30
0.0
 11
98.304368
 21
270.678038
 31
0.0
  0
LINE
  5
12C1
100
AcDbEntity
  8
10000_FRONT
370
    25
390
0
  6
CONTINUOUS
 62
     7
100
AcDbLine
 10
154.0908
 20
270.638007
 30
0.0
 11
154.304368
 21
270.678038
 31
0.0
  0
LINE
  5
12C2
100
AcDbEntity
  8
10000_FRONT
370
    25
390
0
  6
CONTINUOUS
 62
     7
100
AcDbLine
 10
120.981241
 20
202.266394
 30
0.0
 11
120.986641
 21
202.267523
 31
0.0
  0
LINE
  5
12C3
100
AcDbEntity
  8
10000_FRONT
370
    25
390
0
  6
CONTINUOUS
 62
     7
100
AcDbLine
 10
131.981241
 20
202.266394
 30
0.0
 11
131.986641
 21
202.267523
 31
0.0
  0
LINE
  5
12C4
100
AcDbEntity
  8
10000_FRONT
370
    25
390
0
  6
CONTINUOUS
 62
     7
100
AcDbLine
 10
98.304368
 20
270.678038
 30
0.0
 11
98.517073
 21
270.728514
 31
0.0
  0
LINE
  5
12C5
100
AcDbEntity
  8
10000_FRONT
370
    25
390
0
  6
CONTINUOUS
 62
     7
100
AcDbLine
 10
154.304368
 20
270.678038
 30
0.0
 11
154.517073
 21
270.728514
 31
0.0
  0
LINE
  5
12C6
100
AcDbEntity
  8
10000_FRONT
370
    25
390
0
  6
CONTINUOUS
 62
     7
100
AcDbLine
 10
98.517073
 20
270.728514
 30
0.0
 11
98.728045
 21
270.789286
 31
0.0
  0
LINE
  5
12C7
100
AcDbEntity
  8
10000_FRONT
370
    25
390
0
  6
CONTINUOUS
 62
     7
100
AcDbLine
 10
154.517073
 20
270.728514
 30
0.0
 11
154.728045
 21
270.789286
 31
0.0
  0
LINE
  5
12C8
100
AcDbEntity
  8
10000_FRONT
370
    25
390
0
  6
CONTINUOUS
 62
     7
100
AcDbLine
 10
120.986641
 20
202.267523
 30
0.0
 11
120.990439
 21
202.26867
 31
0.0
  0
LINE
  5
12C9
100
AcDbEntity
  8
10000_FRONT
370
    25
390
0
  6
CONTINUOUS
 62
     7
100
AcDbLine
 10
131.986641
 20
202.267523
 30
0.0
 11
131.990439
 21
202.26867
 31
0.0
  0
LINE
  5
12CA
100
AcDbEntity
  8
10000_FRONT
370
    25
390
0
  6
CONTINUOUS
 62
     7
100
AcDbLine
 10
98.728045
 20
270.789286
 30
0.0
 11
98.936411
 21
270.860186
 31
0.0
  0
LINE
  5
12CB
100
AcDbEntity
  8
10000_FRONT
370
    25
390
0
  6
CONTINUOUS
 62
     7
100
AcDbLine
 10
154.728045
 20
270.789286
 30
0.0
 11
154.936411
 21
270.860186
 31
0.0
  0
LINE
  5
12CC
100
AcDbEntity
  8
10000_FRONT
370
    25
390
0
  6
CONTINUOUS
 62
     7
100
AcDbLine
 10
152.271555
 20
274.675677
 30
0.0
 11
152.505999
 21
274.762484
 31
0.0
  0
LINE
  5
12CD
100
AcDbEntity
  8
10000_FRONT
370
    25
390
0
  6
CONTINUOUS
 62
     7
100
AcDbLine
 10
96.271555
 20
274.675677
 30
0.0
 11
96.505999
 21
274.762484
 31
0.0
  0
LINE
  5
12CE
100
AcDbEntity
  8
10000_FRONT
370
    25
390
0
  6
CONTINUOUS
 62
     7
100
AcDbLine
 10
113.021555
 20
167.075678
 30
0.0
 11
113.255999
 21
167.162486
 31
0.0
  0
LINE
  5
12CF
100
AcDbEntity
  8
10000_FRONT
370
    25
390
0
  6
CONTINUOUS
 62
     7
100
AcDbLine
 10
135.521555
 20
167.075678
 30
0.0
 11
135.755999
 21
167.162486
 31
0.0
  0
LINE
  5
12D0
100
AcDbEntity
  8
10000_FRONT
370
    25
390
0
  6
CONTINUOUS
 62
     7
100
AcDbLine
 10
154.193999
 20
275.387514
 30
0.0
 11
154.428443
 21
275.474322
 31
0.0
  0
LINE
  5
12D1
100
AcDbEntity
  8
10000_FRONT
370
    25
390
0
  6
CONTINUOUS
 62
     7
100
AcDbLine
 10
98.193999
 20
275.387514
 30
0.0
 11
98.428443
 21
275.474322
 31
0.0
  0
LINE
  5
12D2
100
AcDbEntity
  8
10000_FRONT
370
    25
390
0
  6
CONTINUOUS
 62
     7
100
AcDbLine
 10
114.943999
 20
167.787512
 30
0.0
 11
115.178443
 21
167.874323
 31
0.0
  0
LINE
  5
12D3
100
AcDbEntity
  8
10000_FRONT
370
    25
390
0
  6
CONTINUOUS
 62
     7
100
AcDbLine
 10
137.443999
 20
167.787512
 30
0.0
 11
137.678443
 21
167.874323
 31
0.0
  0
LINE
  5
12D4
100
AcDbEntity
  8
10000_FRONT
370
    25
390
0
  6
CONTINUOUS
 62
     7
100
AcDbLine
 10
98.936411
 20
270.860186
 30
0.0
 11
99.141308
 21
270.941058
 31
0.0
  0
LINE
  5
12D5
100
AcDbEntity
  8
10000_FRONT
370
    25
390
0
  6
CONTINUOUS
 62
     7
100
AcDbLine
 10
154.936411
 20
270.860186
 30
0.0
 11
155.141308
 21
270.941058
 31
0.0
  0
LINE
  5
12D6
100
AcDbEntity
  8
10000_FRONT
370
    25
390
0
  6
CONTINUOUS
 62
     7
100
AcDbLine
 10
104.158583
 20
225.799326
 30
0.0
 11
104.346837
 21
225.874754
 31
0.0
  0
LINE
  5
12D7
100
AcDbEntity
  8
10000_FRONT
370
    25
390
0
  6
CONTINUOUS
 62
     7
100
AcDbLine
 10
102.514863
 20
225.804367
 30
0.0
 11
102.690535
 21
225.874754
 31
0.0
  0
LINE
  5
12D8
100
AcDbEntity
  8
10000_FRONT
370
    25
390
0
  6
CONTINUOUS
 62
     7
100
AcDbLine
 10
115.008111
 20
167.093775
 30
0.0
 11
115.168106
 21
167.16012
 31
0.0
  0
LINE
  5
12D9
100
AcDbEntity
  8
10000_FRONT
370
    25
390
0
  6
CONTINUOUS
 62
     7
100
AcDbLine
 10
137.508111
 20
167.093775
 30
0.0
 11
137.668106
 21
167.16012
 31
0.0
  0
LINE
  5
12DA
100
AcDbEntity
  8
10000_FRONT
370
    25
390
0
  6
CONTINUOUS
 62
     7
100
AcDbLine
 10
113.568162
 20
166.496661
 30
0.0
 11
113.728156
 21
166.563006
 31
0.0
  0
LINE
  5
12DB
100
AcDbEntity
  8
10000_FRONT
370
    25
390
0
  6
CONTINUOUS
 62
     7
100
AcDbLine
 10
136.068162
 20
166.496661
 30
0.0
 11
136.228156
 21
166.563006
 31
0.0
  0
LINE
  5
12DC
100
AcDbEntity
  8
10000_FRONT
370
    25
390
0
  6
CONTINUOUS
 62
     7
100
AcDbLine
 10
114.37608
 20
168.617926
 30
0.0
 11
114.536074
 21
168.684271
 31
0.0
  0
LINE
  5
12DD
100
AcDbEntity
  8
10000_FRONT
370
    25
390
0
  6
CONTINUOUS
 62
     7
100
AcDbLine
 10
136.87608
 20
168.617926
 30
0.0
 11
137.036074
 21
168.684271
 31
0.0
  0
LINE
  5
12DE
100
AcDbEntity
  8
10000_FRONT
370
    25
390
0
  6
CONTINUOUS
 62
     7
100
AcDbLine
 10
152.913924
 20
273.865729
 30
0.0
 11
153.073918
 21
273.932074
 31
0.0
  0
LINE
  5
12DF
100
AcDbEntity
  8
10000_FRONT
370
    25
390
0
  6
CONTINUOUS
 62
     7
100
AcDbLine
 10
96.913924
 20
273.865729
 30
0.0
 11
97.073918
 21
273.932074
 31
0.0
  0
LINE
  5
12E0
100
AcDbEntity
  8
10000_FRONT
370
    25
390
0
  6
CONTINUOUS
 62
     7
100
AcDbLine
 10
152.818162
 20
274.096659
 30
0.0
 11
152.978156
 21
274.163004
 31
0.0
  0
LINE
  5
12E1
100
AcDbEntity
  8
10000_FRONT
370
    25
390
0
  6
CONTINUOUS
 62
     7
100
AcDbLine
 10
96.818162
 20
274.096659
 30
0.0
 11
96.978156
 21
274.163004
 31
0.0
  0
LINE
  5
12E2
100
AcDbEntity
  8
10000_FRONT
370
    25
390
0
  6
CONTINUOUS
 62
     7
100
AcDbLine
 10
154.258111
 20
274.693774
 30
0.0
 11
154.418105
 21
274.760119
 31
0.0
  0
LINE
  5
12E3
100
AcDbEntity
  8
10000_FRONT
370
    25
390
0
  6
CONTINUOUS
 62
     7
100
AcDbLine
 10
98.258111
 20
274.693774
 30
0.0
 11
98.418105
 21
274.760119
 31
0.0
  0
LINE
  5
12E4
100
AcDbEntity
  8
10000_FRONT
370
    25
390
0
  6
CONTINUOUS
 62
     7
100
AcDbLine
 10
152.281893
 20
275.38988
 30
0.0
 11
152.441887
 21
275.456225
 31
0.0
  0
LINE
  5
12E5
100
AcDbEntity
  8
10000_FRONT
370
    25
390
0
  6
CONTINUOUS
 62
     7
100
AcDbLine
 10
96.281893
 20
275.38988
 30
0.0
 11
96.441887
 21
275.456225
 31
0.0
  0
LINE
  5
12E6
100
AcDbEntity
  8
10000_FRONT
370
    25
390
0
  6
CONTINUOUS
 62
     7
100
AcDbLine
 10
153.721842
 20
275.986994
 30
0.0
 11
153.881836
 21
276.053339
 31
0.0
  0
LINE
  5
12E7
100
AcDbEntity
  8
10000_FRONT
370
    25
390
0
  6
CONTINUOUS
 62
     7
100
AcDbLine
 10
97.721842
 20
275.986994
 30
0.0
 11
97.881836
 21
276.053339
 31
0.0
  0
LINE
  5
12E8
100
AcDbEntity
  8
10000_FRONT
370
    25
390
0
  6
CONTINUOUS
 62
     7
100
AcDbLine
 10
112.93613
 20
168.020811
 30
0.0
 11
113.096125
 21
168.087157
 31
0.0
  0
LINE
  5
12E9
100
AcDbEntity
  8
10000_FRONT
370
    25
390
0
  6
CONTINUOUS
 62
     7
100
AcDbLine
 10
135.43613
 20
168.020811
 30
0.0
 11
135.596125
 21
168.087157
 31
0.0
  0
LINE
  5
12EA
100
AcDbEntity
  8
10000_FRONT
370
    25
390
0
  6
CONTINUOUS
 62
     7
100
AcDbLine
 10
154.353873
 20
274.462843
 30
0.0
 11
154.513867
 21
274.529189
 31
0.0
  0
LINE
  5
12EB
100
AcDbEntity
  8
10000_FRONT
370
    25
390
0
  6
CONTINUOUS
 62
     7
100
AcDbLine
 10
98.353873
 20
274.462843
 30
0.0
 11
98.513867
 21
274.529189
 31
0.0
  0
LINE
  5
12EC
100
AcDbEntity
  8
10000_FRONT
370
    25
390
0
  6
CONTINUOUS
 62
     7
100
AcDbLine
 10
153.62608
 20
276.217924
 30
0.0
 11
153.786074
 21
276.28427
 31
0.0
  0
LINE
  5
12ED
100
AcDbEntity
  8
10000_FRONT
370
    25
390
0
  6
CONTINUOUS
 62
     7
100
AcDbLine
 10
97.62608
 20
276.217924
 30
0.0
 11
97.786074
 21
276.28427
 31
0.0
  0
LINE
  5
12EE
100
AcDbEntity
  8
10000_FRONT
370
    25
390
0
  6
CONTINUOUS
 62
     7
100
AcDbLine
 10
115.103873
 20
166.862841
 30
0.0
 11
115.263868
 21
166.92919
 31
0.0
  0
LINE
  5
12EF
100
AcDbEntity
  8
10000_FRONT
370
    25
390
0
  6
CONTINUOUS
 62
     7
100
AcDbLine
 10
137.603873
 20
166.862841
 30
0.0
 11
137.763868
 21
166.92919
 31
0.0
  0
LINE
  5
12F0
100
AcDbEntity
  8
10000_FRONT
370
    25
390
0
  6
CONTINUOUS
 62
     7
100
AcDbLine
 10
113.031892
 20
167.789877
 30
0.0
 11
113.191887
 21
167.856226
 31
0.0
  0
LINE
  5
12F1
100
AcDbEntity
  8
10000_FRONT
370
    25
390
0
  6
CONTINUOUS
 62
     7
100
AcDbLine
 10
135.531892
 20
167.789877
 30
0.0
 11
135.691887
 21
167.856226
 31
0.0
  0
LINE
  5
12F2
100
AcDbEntity
  8
10000_FRONT
370
    25
390
0
  6
CONTINUOUS
 62
     7
100
AcDbLine
 10
114.471842
 20
168.386992
 30
0.0
 11
114.631836
 21
168.453341
 31
0.0
  0
LINE
  5
12F3
100
AcDbEntity
  8
10000_FRONT
370
    25
390
0
  6
CONTINUOUS
 62
     7
100
AcDbLine
 10
136.971842
 20
168.386992
 30
0.0
 11
137.131836
 21
168.453341
 31
0.0
  0
LINE
  5
12F4
100
AcDbEntity
  8
10000_FRONT
370
    25
390
0
  6
CONTINUOUS
 62
     7
100
AcDbLine
 10
152.186131
 20
275.62081
 30
0.0
 11
152.346125
 21
275.687159
 31
0.0
  0
LINE
  5
12F5
100
AcDbEntity
  8
10000_FRONT
370
    25
390
0
  6
CONTINUOUS
 62
     7
100
AcDbLine
 10
96.186131
 20
275.62081
 30
0.0
 11
96.346125
 21
275.687159
 31
0.0
  0
LINE
  5
12F6
100
AcDbEntity
  8
10000_FRONT
370
    25
390
0
  6
CONTINUOUS
 62
     7
100
AcDbLine
 10
113.663924
 20
166.265726
 30
0.0
 11
113.823918
 21
166.332076
 31
0.0
  0
LINE
  5
12F7
100
AcDbEntity
  8
10000_FRONT
370
    25
390
0
  6
CONTINUOUS
 62
     7
100
AcDbLine
 10
136.163924
 20
166.265726
 30
0.0
 11
136.323918
 21
166.332076
 31
0.0
  0
LINE
  5
12F8
100
AcDbEntity
  8
10000_FRONT
370
    25
390
0
  6
CONTINUOUS
 62
     7
100
AcDbLine
 10
99.141308
 20
270.941058
 30
0.0
 11
99.341998
 21
271.03168
 31
0.0
  0
LINE
  5
12F9
100
AcDbEntity
  8
10000_FRONT
370
    25
390
0
  6
CONTINUOUS
 62
     7
100
AcDbLine
 10
155.141308
 20
270.941058
 30
0.0
 11
155.341998
 21
271.03168
 31
0.0
  0
LINE
  5
12FA
100
AcDbEntity
  8
10000_FRONT
370
    25
390
0
  6
CONTINUOUS
 62
     7
100
AcDbLine
 10
152.30544
 20
274.593962
 30
0.0
 11
152.532519
 21
274.698534
 31
0.0
  0
LINE
  5
12FB
100
AcDbEntity
  8
10000_FRONT
370
    25
390
0
  6
CONTINUOUS
 62
     7
100
AcDbLine
 10
96.30544
 20
274.593962
 30
0.0
 11
96.532519
 21
274.698534
 31
0.0
  0
LINE
  5
12FC
100
AcDbEntity
  8
10000_FRONT
370
    25
390
0
  6
CONTINUOUS
 62
     7
100
AcDbLine
 10
154.167479
 20
275.451464
 30
0.0
 11
154.394558
 21
275.556036
 31
0.0
  0
LINE
  5
12FD
100
AcDbEntity
  8
10000_FRONT
370
    25
390
0
  6
CONTINUOUS
 62
     7
100
AcDbLine
 10
98.167479
 20
275.451464
 30
0.0
 11
98.394558
 21
275.556036
 31
0.0
  0
LINE
  5
12FE
100
AcDbEntity
  8
10000_FRONT
370
    25
390
0
  6
CONTINUOUS
 62
     7
100
AcDbLine
 10
113.05544
 20
166.993964
 30
0.0
 11
113.282518
 21
167.098536
 31
0.0
  0
LINE
  5
12FF
100
AcDbEntity
  8
10000_FRONT
370
    25
390
0
  6
CONTINUOUS
 62
     7
100
AcDbLine
 10
135.55544
 20
166.993964
 30
0.0
 11
135.782518
 21
167.098536
 31
0.0
  0
LINE
  5
1300
100
AcDbEntity
  8
10000_FRONT
370
    25
390
0
  6
CONTINUOUS
 62
     7
100
AcDbLine
 10
114.91748
 20
167.851466
 30
0.0
 11
115.144558
 21
167.956038
 31
0.0
  0
LINE
  5
1301
100
AcDbEntity
  8
10000_FRONT
370
    25
390
0
  6
CONTINUOUS
 62
     7
100
AcDbLine
 10
137.41748
 20
167.851466
 30
0.0
 11
137.644558
 21
167.956038
 31
0.0
  0
LINE
  5
1302
100
AcDbEntity
  8
10000_FRONT
370
    25
390
0
  6
CONTINUOUS
 62
     7
100
AcDbLine
 10
99.341998
 20
271.03168
 30
0.0
 11
99.537798
 21
271.131606
 31
0.0
  0
LINE
  5
1303
100
AcDbEntity
  8
10000_FRONT
370
    25
390
0
  6
CONTINUOUS
 62
     7
100
AcDbLine
 10
155.341998
 20
271.03168
 30
0.0
 11
155.537798
 21
271.131606
 31
0.0
  0
LINE
  5
1304
100
AcDbEntity
  8
10000_FRONT
370
    25
390
0
  6
CONTINUOUS
 62
     7
100
AcDbLine
 10
99.537798
 20
271.131606
 30
0.0
 11
99.727984
 21
271.240324
 31
0.0
  0
LINE
  5
1305
100
AcDbEntity
  8
10000_FRONT
370
    25
390
0
  6
CONTINUOUS
 62
     7
100
AcDbLine
 10
155.537798
 20
271.131606
 30
0.0
 11
155.727984
 21
271.240324
 31
0.0
  0
LINE
  5
1306
100
AcDbEntity
  8
10000_FRONT
370
    25
390
0
  6
CONTINUOUS
 62
     7
100
AcDbLine
 10
102.849999
 20
154.715598
 30
0.0
 11
104.849999
 21
155.870299
 31
0.0
  0
LINE
  5
1307
100
AcDbEntity
  8
10000_FRONT
370
    25
390
0
  6
CONTINUOUS
 62
     7
100
AcDbLine
 10
125.349999
 20
154.715598
 30
0.0
 11
127.349999
 21
155.870299
 31
0.0
  0
LINE
  5
1308
100
AcDbEntity
  8
10000_FRONT
370
    25
390
0
  6
CONTINUOUS
 62
     7
100
AcDbLine
 10
147.849999
 20
154.715598
 30
0.0
 11
149.849999
 21
155.870299
 31
0.0
  0
LINE
  5
1309
100
AcDbEntity
  8
10000_FRONT
370
    25
390
0
  6
CONTINUOUS
 62
     7
100
AcDbLine
 10
100.849999
 20
158.179701
 30
0.0
 11
102.849999
 21
159.334402
 31
0.0
  0
LINE
  5
130A
100
AcDbEntity
  8
10000_FRONT
370
    25
390
0
  6
CONTINUOUS
 62
     7
100
AcDbLine
 10
123.349999
 20
158.179701
 30
0.0
 11
125.349999
 21
159.334402
 31
0.0
  0
LINE
  5
130B
100
AcDbEntity
  8
10000_FRONT
370
    25
390
0
  6
CONTINUOUS
 62
     7
100
AcDbLine
 10
145.849999
 20
158.179701
 30
0.0
 11
147.849999
 21
159.334402
 31
0.0
  0
LINE
  5
130C
100
AcDbEntity
  8
10000_FRONT
370
    25
390
0
  6
CONTINUOUS
 62
     7
100
AcDbLine
 10
147.849999
 20
283.215598
 30
0.0
 11
149.849999
 21
284.370299
 31
0.0
  0
LINE
  5
130D
100
AcDbEntity
  8
10000_FRONT
370
    25
390
0
  6
CONTINUOUS
 62
     7
100
AcDbLine
 10
125.349999
 20
283.215598
 30
0.0
 11
127.349999
 21
284.370299
 31
0.0
  0
LINE
  5
130E
100
AcDbEntity
  8
10000_FRONT
370
    25
390
0
  6
CONTINUOUS
 62
     7
100
AcDbLine
 10
102.849999
 20
283.215598
 30
0.0
 11
104.849999
 21
284.370299
 31
0.0
  0
LINE
  5
130F
100
AcDbEntity
  8
10000_FRONT
370
    25
390
0
  6
CONTINUOUS
 62
     7
100
AcDbLine
 10
145.849999
 20
286.679701
 30
0.0
 11
147.849999
 21
287.834402
 31
0.0
  0
LINE
  5
1310
100
AcDbEntity
  8
10000_FRONT
370
    25
390
0
  6
CONTINUOUS
 62
     7
100
AcDbLine
 10
123.349999
 20
286.679701
 30
0.0
 11
125.349999
 21
287.834402
 31
0.0
  0
LINE
  5
1311
100
AcDbEntity
  8
10000_FRONT
370
    25
390
0
  6
CONTINUOUS
 62
     7
100
AcDbLine
 10
100.849999
 20
286.679701
 30
0.0
 11
102.849999
 21
287.834402
 31
0.0
  0
LINE
  5
1312
100
AcDbEntity
  8
10000_FRONT
370
    25
390
0
  6
CONTINUOUS
 62
     7
100
AcDbLine
 10
120.990439
 20
202.26867
 30
0.0
 11
120.992331
 21
202.269797
 31
0.0
  0
LINE
  5
1313
100
AcDbEntity
  8
10000_FRONT
370
    25
390
0
  6
CONTINUOUS
 62
     7
100
AcDbLine
 10
131.990439
 20
202.26867
 30
0.0
 11
131.992331
 21
202.269797
 31
0.0
  0
LINE
  5
1314
100
AcDbEntity
  8
10000_FRONT
370
    25
390
0
  6
CONTINUOUS
 62
     7
100
AcDbLine
 10
99.727984
 20
271.240324
 30
0.0
 11
99.911826
 21
271.357333
 31
0.0
  0
LINE
  5
1315
100
AcDbEntity
  8
10000_FRONT
370
    25
390
0
  6
CONTINUOUS
 62
     7
100
AcDbLine
 10
155.727984
 20
271.240324
 30
0.0
 11
155.911826
 21
271.357333
 31
0.0
  0
LINE
  5
1316
100
AcDbEntity
  8
10000_FRONT
370
    25
390
0
  6
CONTINUOUS
 62
     7
100
AcDbLine
 10
99.911826
 20
271.357333
 30
0.0
 11
100.088637
 21
271.482069
 31
0.0
  0
LINE
  5
1317
100
AcDbEntity
  8
10000_FRONT
370
    25
390
0
  6
CONTINUOUS
 62
     7
100
AcDbLine
 10
155.911826
 20
271.357333
 30
0.0
 11
156.088637
 21
271.482069
 31
0.0
  0
LINE
  5
1318
100
AcDbEntity
  8
10000_FRONT
370
    25
390
0
  6
CONTINUOUS
 62
     7
100
AcDbLine
 10
100.088637
 20
271.482069
 30
0.0
 11
100.257878
 21
271.613745
 31
0.0
  0
LINE
  5
1319
100
AcDbEntity
  8
10000_FRONT
370
    25
390
0
  6
CONTINUOUS
 62
     7
100
AcDbLine
 10
156.088637
 20
271.482069
 30
0.0
 11
156.257878
 21
271.613745
 31
0.0
  0
LINE
  5
131A
100
AcDbEntity
  8
10000_FRONT
370
    25
390
0
  6
CONTINUOUS
 62
     7
100
AcDbLine
 10
100.257878
 20
271.613745
 30
0.0
 11
100.419056
 21
271.751517
 31
0.0
  0
LINE
  5
131B
100
AcDbEntity
  8
10000_FRONT
370
    25
390
0
  6
CONTINUOUS
 62
     7
100
AcDbLine
 10
156.257878
 20
271.613745
 30
0.0
 11
156.419056
 21
271.751517
 31
0.0
  0
LINE
  5
131C
100
AcDbEntity
  8
10000_FRONT
370
    25
390
0
  6
CONTINUOUS
 62
     7
100
AcDbLine
 10
100.419056
 20
271.751517
 30
0.0
 11
100.571675
 21
271.89453
 31
0.0
  0
LINE
  5
131D
100
AcDbEntity
  8
10000_FRONT
370
    25
390
0
  6
CONTINUOUS
 62
     7
100
AcDbLine
 10
156.419056
 20
271.751517
 30
0.0
 11
156.571675
 21
271.89453
 31
0.0
  0
LINE
  5
131E
100
AcDbEntity
  8
10000_FRONT
370
    25
390
0
  6
CONTINUOUS
 62
     7
100
AcDbLine
 10
100.571675
 20
271.89453
 30
0.0
 11
100.716822
 21
272.043581
 31
0.0
  0
LINE
  5
131F
100
AcDbEntity
  8
10000_FRONT
370
    25
390
0
  6
CONTINUOUS
 62
     7
100
AcDbLine
 10
156.571675
 20
271.89453
 30
0.0
 11
156.716822
 21
272.043581
 31
0.0
  0
LINE
  5
1320
100
AcDbEntity
  8
10000_FRONT
370
    25
390
0
  6
CONTINUOUS
 62
     7
100
AcDbLine
 10
100.716822
 20
272.043581
 30
0.0
 11
100.856858
 21
272.201163
 31
0.0
  0
LINE
  5
1321
100
AcDbEntity
  8
10000_FRONT
370
    25
390
0
  6
CONTINUOUS
 62
     7
100
AcDbLine
 10
156.716822
 20
272.043581
 30
0.0
 11
156.856858
 21
272.201163
 31
0.0
  0
LINE
  5
1322
100
AcDbEntity
  8
10000_FRONT
370
    25
390
0
  6
CONTINUOUS
 62
     7
100
AcDbLine
 10
100.856858
 20
272.201163
 30
0.0
 11
100.99104
 21
272.36685
 31
0.0
  0
LINE
  5
1323
100
AcDbEntity
  8
10000_FRONT
370
    25
390
0
  6
CONTINUOUS
 62
     7
100
AcDbLine
 10
156.856858
 20
272.201163
 30
0.0
 11
156.99104
 21
272.36685
 31
0.0
  0
LINE
  5
1324
100
AcDbEntity
  8
10000_FRONT
370
    25
390
0
  6
CONTINUOUS
 62
     7
100
AcDbLine
 10
153.459246
 20
273.794154
 30
0.0
 11
153.611359
 21
273.992552
 31
0.0
  0
LINE
  5
1325
100
AcDbEntity
  8
10000_FRONT
370
    25
390
0
  6
CONTINUOUS
 62
     7
100
AcDbLine
 10
97.459246
 20
273.794154
 30
0.0
 11
97.611359
 21
273.992552
 31
0.0
  0
LINE
  5
1326
100
AcDbEntity
  8
10000_FRONT
370
    25
390
0
  6
CONTINUOUS
 62
     7
100
AcDbLine
 10
153.321791
 20
273.899542
 30
0.0
 11
153.473904
 21
274.097941
 31
0.0
  0
LINE
  5
1327
100
AcDbEntity
  8
10000_FRONT
370
    25
390
0
  6
CONTINUOUS
 62
     7
100
AcDbLine
 10
97.321791
 20
273.899542
 30
0.0
 11
97.473904
 21
274.097941
 31
0.0
  0
LINE
  5
1328
100
AcDbEntity
  8
10000_FRONT
370
    25
390
0
  6
CONTINUOUS
 62
     7
100
AcDbLine
 10
152.222155
 20
274.742628
 30
0.0
 11
152.374268
 21
274.941027
 31
0.0
  0
LINE
  5
1329
100
AcDbEntity
  8
10000_FRONT
370
    25
390
0
  6
CONTINUOUS
 62
     7
100
AcDbLine
 10
96.222155
 20
274.742628
 30
0.0
 11
96.374268
 21
274.941027
 31
0.0
  0
LINE
  5
132A
100
AcDbEntity
  8
10000_FRONT
370
    25
390
0
  6
CONTINUOUS
 62
     7
100
AcDbLine
 10
154.32573
 20
275.208971
 30
0.0
 11
154.477843
 21
275.40737
 31
0.0
  0
LINE
  5
132B
100
AcDbEntity
  8
10000_FRONT
370
    25
390
0
  6
CONTINUOUS
 62
     7
100
AcDbLine
 10
98.32573
 20
275.208971
 30
0.0
 11
98.477843
 21
275.40737
 31
0.0
  0
LINE
  5
132C
100
AcDbEntity
  8
10000_FRONT
370
    25
390
0
  6
CONTINUOUS
 62
     7
100
AcDbLine
 10
153.226094
 20
276.052061
 30
0.0
 11
153.378207
 21
276.25046
 31
0.0
  0
LINE
  5
132D
100
AcDbEntity
  8
10000_FRONT
370
    25
390
0
  6
CONTINUOUS
 62
     7
100
AcDbLine
 10
97.226094
 20
276.052061
 30
0.0
 11
97.378207
 21
276.25046
 31
0.0
  0
LINE
  5
132E
100
AcDbEntity
  8
10000_FRONT
370
    25
390
0
  6
CONTINUOUS
 62
     7
100
AcDbLine
 10
153.088639
 20
276.157446
 30
0.0
 11
153.240752
 21
276.355845
 31
0.0
  0
LINE
  5
132F
100
AcDbEntity
  8
10000_FRONT
370
    25
390
0
  6
CONTINUOUS
 62
     7
100
AcDbLine
 10
97.088639
 20
276.157446
 30
0.0
 11
97.240752
 21
276.355845
 31
0.0
  0
LINE
  5
1330
100
AcDbEntity
  8
10000_FRONT
370
    25
390
0
  6
CONTINUOUS
 62
     7
100
AcDbLine
 10
112.834701
 20
167.248015
 30
0.0
 11
112.986813
 21
167.446413
 31
0.0
  0
LINE
  5
1331
100
AcDbEntity
  8
10000_FRONT
370
    25
390
0
  6
CONTINUOUS
 62
     7
100
AcDbLine
 10
135.334701
 20
167.248015
 30
0.0
 11
135.486813
 21
167.446413
 31
0.0
  0
LINE
  5
1332
100
AcDbEntity
  8
10000_FRONT
370
    25
390
0
  6
CONTINUOUS
 62
     7
100
AcDbLine
 10
114.071792
 20
166.29954
 30
0.0
 11
114.223904
 21
166.497939
 31
0.0
  0
LINE
  5
1333
100
AcDbEntity
  8
10000_FRONT
370
    25
390
0
  6
CONTINUOUS
 62
     7
100
AcDbLine
 10
136.571792
 20
166.29954
 30
0.0
 11
136.723904
 21
166.497939
 31
0.0
  0
LINE
  5
1334
100
AcDbEntity
  8
10000_FRONT
370
    25
390
0
  6
CONTINUOUS
 62
     7
100
AcDbLine
 10
112.972156
 20
167.14263
 30
0.0
 11
113.124268
 21
167.341029
 31
0.0
  0
LINE
  5
1335
100
AcDbEntity
  8
10000_FRONT
370
    25
390
0
  6
CONTINUOUS
 62
     7
100
AcDbLine
 10
135.472156
 20
167.14263
 30
0.0
 11
135.624268
 21
167.341029
 31
0.0
  0
LINE
  5
1336
100
AcDbEntity
  8
10000_FRONT
370
    25
390
0
  6
CONTINUOUS
 62
     7
100
AcDbLine
 10
115.213185
 20
167.503584
 30
0.0
 11
115.365297
 21
167.701983
 31
0.0
  0
LINE
  5
1337
100
AcDbEntity
  8
10000_FRONT
370
    25
390
0
  6
CONTINUOUS
 62
     7
100
AcDbLine
 10
137.713185
 20
167.503584
 30
0.0
 11
137.865297
 21
167.701983
 31
0.0
  0
LINE
  5
1338
100
AcDbEntity
  8
10000_FRONT
370
    25
390
0
  6
CONTINUOUS
 62
     7
100
AcDbLine
 10
115.07573
 20
167.608969
 30
0.0
 11
115.227842
 21
167.807368
 31
0.0
  0
LINE
  5
1339
100
AcDbEntity
  8
10000_FRONT
370
    25
390
0
  6
CONTINUOUS
 62
     7
100
AcDbLine
 10
137.57573
 20
167.608969
 30
0.0
 11
137.727842
 21
167.807368
 31
0.0
  0
LINE
  5
133A
100
AcDbEntity
  8
10000_FRONT
370
    25
390
0
  6
CONTINUOUS
 62
     7
100
AcDbLine
 10
113.976094
 20
168.452059
 30
0.0
 11
114.128206
 21
168.650458
 31
0.0
  0
LINE
  5
133B
100
AcDbEntity
  8
10000_FRONT
370
    25
390
0
  6
CONTINUOUS
 62
     7
100
AcDbLine
 10
136.476094
 20
168.452059
 30
0.0
 11
136.628206
 21
168.650458
 31
0.0
  0
LINE
  5
133C
100
AcDbEntity
  8
10000_FRONT
370
    25
390
0
  6
CONTINUOUS
 62
     7
100
AcDbLine
 10
113.83864
 20
168.557448
 30
0.0
 11
113.990751
 21
168.755846
 31
0.0
  0
LINE
  5
133D
100
AcDbEntity
  8
10000_FRONT
370
    25
390
0
  6
CONTINUOUS
 62
     7
100
AcDbLine
 10
136.33864
 20
168.557448
 30
0.0
 11
136.490751
 21
168.755846
 31
0.0
  0
LINE
  5
133E
100
AcDbEntity
  8
10000_FRONT
370
    25
390
0
  6
CONTINUOUS
 62
     7
100
AcDbLine
 10
154.463185
 20
275.103587
 30
0.0
 11
154.615296
 21
275.301985
 31
0.0
  0
LINE
  5
133F
100
AcDbEntity
  8
10000_FRONT
370
    25
390
0
  6
CONTINUOUS
 62
     7
100
AcDbLine
 10
98.463185
 20
275.103587
 30
0.0
 11
98.615296
 21
275.301985
 31
0.0
  0
LINE
  5
1340
100
AcDbEntity
  8
10000_FRONT
370
    25
390
0
  6
CONTINUOUS
 62
     7
100
AcDbLine
 10
114.209247
 20
166.194155
 30
0.0
 11
114.361358
 21
166.392554
 31
0.0
  0
LINE
  5
1341
100
AcDbEntity
  8
10000_FRONT
370
    25
390
0
  6
CONTINUOUS
 62
     7
100
AcDbLine
 10
136.709247
 20
166.194155
 30
0.0
 11
136.861358
 21
166.392554
 31
0.0
  0
LINE
  5
1342
100
AcDbEntity
  8
10000_FRONT
370
    25
390
0
  6
CONTINUOUS
 62
     7
100
AcDbLine
 10
152.084702
 20
274.848017
 30
0.0
 11
152.236813
 21
275.046416
 31
0.0
  0
LINE
  5
1343
100
AcDbEntity
  8
10000_FRONT
370
    25
390
0
  6
CONTINUOUS
 62
     7
100
AcDbLine
 10
96.084702
 20
274.848017
 30
0.0
 11
96.236813
 21
275.046416
 31
0.0
  0
LINE
  5
1344
100
AcDbEntity
  8
10000_FRONT
370
    25
390
0
  6
CONTINUOUS
 62
     7
100
AcDbLine
 10
100.99104
 20
272.36685
 30
0.0
 11
101.118552
 21
272.540152
 31
0.0
  0
LINE
  5
1345
100
AcDbEntity
  8
10000_FRONT
370
    25
390
0
  6
CONTINUOUS
 62
     7
100
AcDbLine
 10
156.99104
 20
272.36685
 30
0.0
 11
157.118552
 21
272.540152
 31
0.0
  0
LINE
  5
1346
100
AcDbEntity
  8
10000_FRONT
370
    25
390
0
  6
CONTINUOUS
 62
     7
100
AcDbLine
 10
101.118552
 20
272.540152
 30
0.0
 11
101.238591
 21
272.720568
 31
0.0
  0
LINE
  5
1347
100
AcDbEntity
  8
10000_FRONT
370
    25
390
0
  6
CONTINUOUS
 62
     7
100
AcDbLine
 10
157.118552
 20
272.540152
 30
0.0
 11
157.238591
 21
272.720568
 31
0.0
  0
LINE
  5
1348
100
AcDbEntity
  8
10000_FRONT
370
    25
390
0
  6
CONTINUOUS
 62
     7
100
AcDbLine
 10
97.995921
 20
223.476924
 30
0.0
 11
98.181416
 21
223.77606
 31
0.0
  0
LINE
  5
1349
100
AcDbEntity
  8
10000_FRONT
370
    25
390
0
  6
CONTINUOUS
 62
     7
100
AcDbLine
 10
99.652224
 20
223.476924
 30
0.0
 11
99.825137
 21
223.75577
 31
0.0
  0
LINE
  5
134A
100
AcDbEntity
  8
10000_FRONT
370
    25
390
0
  6
CONTINUOUS
 62
     7
100
AcDbLine
 10
101.238591
 20
272.720568
 30
0.0
 11
101.350541
 21
272.907469
 31
0.0
  0
LINE
  5
134B
100
AcDbEntity
  8
10000_FRONT
370
    25
390
0
  6
CONTINUOUS
 62
     7
100
AcDbLine
 10
157.238591
 20
272.720568
 30
0.0
 11
157.350541
 21
272.907469
 31
0.0
  0
LINE
  5
134C
100
AcDbEntity
  8
10000_FRONT
370
    25
390
0
  6
CONTINUOUS
 62
     7
100
AcDbLine
 10
101.350541
 20
272.907469
 30
0.0
 11
101.453915
 21
273.100142
 31
0.0
  0
LINE
  5
134D
100
AcDbEntity
  8
10000_FRONT
370
    25
390
0
  6
CONTINUOUS
 62
     7
100
AcDbLine
 10
157.350541
 20
272.907469
 30
0.0
 11
157.453915
 21
273.100142
 31
0.0
  0
LINE
  5
134E
100
AcDbEntity
  8
10000_FRONT
370
    25
390
0
  6
CONTINUOUS
 62
     7
100
AcDbLine
 10
157.453915
 20
273.100142
 30
0.0
 11
157.548234
 21
273.297869
 31
0.0
  0
LINE
  5
134F
100
AcDbEntity
  8
10000_FRONT
370
    25
390
0
  6
CONTINUOUS
 62
     7
100
AcDbLine
 10
101.453915
 20
273.100142
 30
0.0
 11
101.548232
 21
273.297869
 31
0.0
  0
LINE
  5
1350
100
AcDbEntity
  8
10000_FRONT
370
    25
390
0
  6
CONTINUOUS
 62
     7
100
AcDbLine
 10
124.783536
 20
240.375
 30
0.0
 11
125.382283
 21
241.782364
 31
0.0
  0
LINE
  5
1351
100
AcDbEntity
  8
10000_FRONT
370
    25
390
0
  6
CONTINUOUS
 62
     7
100
AcDbLine
 10
124.686317
 20
241.206765
 30
0.0
 11
125.237226
 21
242.504565
 31
0.0
  0
LINE
  5
1352
100
AcDbEntity
  8
10000_FRONT
370
    25
390
0
  6
CONTINUOUS
 62
     7
100
AcDbLine
 10
101.548232
 20
273.297869
 30
0.0
 11
101.633017
 21
273.499949
 31
0.0
  0
LINE
  5
1353
100
AcDbEntity
  8
10000_FRONT
370
    25
390
0
  6
CONTINUOUS
 62
     7
100
AcDbLine
 10
157.548234
 20
273.297869
 30
0.0
 11
157.633019
 21
273.499949
 31
0.0
  0
LINE
  5
1354
100
AcDbEntity
  8
10000_FRONT
370
    25
390
0
  6
CONTINUOUS
 62
     7
100
AcDbLine
 10
101.633017
 20
273.499949
 30
0.0
 11
101.70798
 21
273.705717
 31
0.0
  0
LINE
  5
1355
100
AcDbEntity
  8
10000_FRONT
370
    25
390
0
  6
CONTINUOUS
 62
     7
100
AcDbLine
 10
157.633019
 20
273.499949
 30
0.0
 11
157.707982
 21
273.705717
 31
0.0
  0
LINE
  5
1356
100
AcDbEntity
  8
10000_FRONT
370
    25
390
0
  6
CONTINUOUS
 62
     7
100
AcDbLine
 10
101.70798
 20
273.705717
 30
0.0
 11
101.772971
 21
273.914355
 31
0.0
  0
LINE
  5
1357
100
AcDbEntity
  8
10000_FRONT
370
    25
390
0
  6
CONTINUOUS
 62
     7
100
AcDbLine
 10
157.707982
 20
273.705717
 30
0.0
 11
157.772973
 21
273.914355
 31
0.0
  0
LINE
  5
1358
100
AcDbEntity
  8
10000_FRONT
370
    25
390
0
  6
CONTINUOUS
 62
     7
100
AcDbLine
 10
101.772971
 20
273.914355
 30
0.0
 11
101.827843
 21
274.125014
 31
0.0
  0
LINE
  5
1359
100
AcDbEntity
  8
10000_FRONT
370
    25
390
0
  6
CONTINUOUS
 62
     7
100
AcDbLine
 10
157.772973
 20
273.914355
 30
0.0
 11
157.827843
 21
274.125014
 31
0.0
  0
LINE
  5
135A
100
AcDbEntity
  8
10000_FRONT
370
    25
390
0
  6
CONTINUOUS
 62
     7
100
AcDbLine
 10
101.827843
 20
274.125014
 30
0.0
 11
101.872447
 21
274.336844
 31
0.0
  0
LINE
  5
135B
100
AcDbEntity
  8
10000_FRONT
370
    25
390
0
  6
CONTINUOUS
 62
     7
100
AcDbLine
 10
157.827843
 20
274.125014
 30
0.0
 11
157.872445
 21
274.336844
 31
0.0
  0
LINE
  5
135C
100
AcDbEntity
  8
10000_FRONT
370
    25
390
0
  6
CONTINUOUS
 62
     7
100
AcDbLine
 10
113.906601
 20
166.34138
 30
0.0
 11
113.948644
 21
166.587817
 31
0.0
  0
LINE
  5
135D
100
AcDbEntity
  8
10000_FRONT
370
    25
390
0
  6
CONTINUOUS
 62
     7
100
AcDbLine
 10
136.406601
 20
166.34138
 30
0.0
 11
136.448644
 21
166.587817
 31
0.0
  0
LINE
  5
135E
100
AcDbEntity
  8
10000_FRONT
370
    25
390
0
  6
CONTINUOUS
 62
     7
100
AcDbLine
 10
114.251354
 20
168.362181
 30
0.0
 11
114.293397
 21
168.608622
 31
0.0
  0
LINE
  5
135F
100
AcDbEntity
  8
10000_FRONT
370
    25
390
0
  6
CONTINUOUS
 62
     7
100
AcDbLine
 10
136.751354
 20
168.362181
 30
0.0
 11
136.793397
 21
168.608622
 31
0.0
  0
LINE
  5
1360
100
AcDbEntity
  8
10000_FRONT
370
    25
390
0
  6
CONTINUOUS
 62
     7
100
AcDbLine
 10
153.501355
 20
275.962183
 30
0.0
 11
153.543397
 21
276.20862
 31
0.0
  0
LINE
  5
1361
100
AcDbEntity
  8
10000_FRONT
370
    25
390
0
  6
CONTINUOUS
 62
     7
100
AcDbLine
 10
97.501355
 20
275.962183
 30
0.0
 11
97.543397
 21
276.20862
 31
0.0
  0
LINE
  5
1362
100
AcDbEntity
  8
10000_FRONT
370
    25
390
0
  6
CONTINUOUS
 62
     7
100
AcDbLine
 10
153.156601
 20
273.941378
 30
0.0
 11
153.198643
 21
274.187819
 31
0.0
  0
LINE
  5
1363
100
AcDbEntity
  8
10000_FRONT
370
    25
390
0
  6
CONTINUOUS
 62
     7
100
AcDbLine
 10
97.156601
 20
273.941378
 30
0.0
 11
97.198643
 21
274.187819
 31
0.0
  0
LINE
  5
1364
100
AcDbEntity
  8
10000_FRONT
370
    25
390
0
  6
CONTINUOUS
 62
     7
100
AcDbLine
 10
157.872445
 20
274.336844
 30
0.0
 11
157.906743
 21
274.548972
 31
0.0
  0
LINE
  5
1365
100
AcDbEntity
  8
10000_FRONT
370
    25
390
0
  6
CONTINUOUS
 62
     7
100
AcDbLine
 10
101.872447
 20
274.336844
 30
0.0
 11
101.906741
 21
274.548972
 31
0.0
  0
LINE
  5
1366
100
AcDbEntity
  8
10000_FRONT
370
    25
390
0
  6
CONTINUOUS
 62
     7
100
AcDbLine
 10
113.49611
 20
168.253024
 30
0.0
 11
113.518651
 21
168.424754
 31
0.0
  0
LINE
  5
1367
100
AcDbEntity
  8
10000_FRONT
370
    25
390
0
  6
CONTINUOUS
 62
     7
100
AcDbLine
 10
135.99611
 20
168.253024
 30
0.0
 11
136.018651
 21
168.424754
 31
0.0
  0
LINE
  5
1368
100
AcDbEntity
  8
10000_FRONT
370
    25
390
0
  6
CONTINUOUS
 62
     7
100
AcDbLine
 10
152.543252
 20
274.307433
 30
0.0
 11
152.565793
 21
274.479163
 31
0.0
  0
LINE
  5
1369
100
AcDbEntity
  8
10000_FRONT
370
    25
390
0
  6
CONTINUOUS
 62
     7
100
AcDbLine
 10
96.543252
 20
274.307433
 30
0.0
 11
96.565793
 21
274.479163
 31
0.0
  0
LINE
  5
136A
100
AcDbEntity
  8
10000_FRONT
370
    25
390
0
  6
CONTINUOUS
 62
     7
100
AcDbLine
 10
154.134205
 20
275.670836
 30
0.0
 11
154.156746
 21
275.842566
 31
0.0
  0
LINE
  5
136B
100
AcDbEntity
  8
10000_FRONT
370
    25
390
0
  6
CONTINUOUS
 62
     7
100
AcDbLine
 10
98.134205
 20
275.670836
 30
0.0
 11
98.156746
 21
275.842566
 31
0.0
  0
LINE
  5
136C
100
AcDbEntity
  8
10000_FRONT
370
    25
390
0
  6
CONTINUOUS
 62
     7
100
AcDbLine
 10
152.498236
 20
275.885558
 30
0.0
 11
152.520777
 21
276.057288
 31
0.0
  0
LINE
  5
136D
100
AcDbEntity
  8
10000_FRONT
370
    25
390
0
  6
CONTINUOUS
 62
     7
100
AcDbLine
 10
96.498236
 20
275.885558
 30
0.0
 11
96.520777
 21
276.057288
 31
0.0
  0
LINE
  5
136E
100
AcDbEntity
  8
10000_FRONT
370
    25
390
0
  6
CONTINUOUS
 62
     7
100
AcDbLine
 10
114.681347
 20
166.525244
 30
0.0
 11
114.703888
 21
166.696978
 31
0.0
  0
LINE
  5
136F
100
AcDbEntity
  8
10000_FRONT
370
    25
390
0
  6
CONTINUOUS
 62
     7
100
AcDbLine
 10
137.181347
 20
166.525244
 30
0.0
 11
137.203888
 21
166.696978
 31
0.0
  0
LINE
  5
1370
100
AcDbEntity
  8
10000_FRONT
370
    25
390
0
  6
CONTINUOUS
 62
     7
100
AcDbLine
 10
154.179221
 20
274.092711
 30
0.0
 11
154.201762
 21
274.264445
 31
0.0
  0
LINE
  5
1371
100
AcDbEntity
  8
10000_FRONT
370
    25
390
0
  6
CONTINUOUS
 62
     7
100
AcDbLine
 10
98.179221
 20
274.092711
 30
0.0
 11
98.201762
 21
274.264445
 31
0.0
  0
LINE
  5
1372
100
AcDbEntity
  8
10000_FRONT
370
    25
390
0
  6
CONTINUOUS
 62
     7
100
AcDbLine
 10
114.929222
 20
166.492712
 30
0.0
 11
114.951762
 21
166.664442
 31
0.0
  0
LINE
  5
1373
100
AcDbEntity
  8
10000_FRONT
370
    25
390
0
  6
CONTINUOUS
 62
     7
100
AcDbLine
 10
137.429222
 20
166.492712
 30
0.0
 11
137.451762
 21
166.664442
 31
0.0
  0
LINE
  5
1374
100
AcDbEntity
  8
10000_FRONT
370
    25
390
0
  6
CONTINUOUS
 62
     7
100
AcDbLine
 10
113.293253
 20
166.707434
 30
0.0
 11
113.315793
 21
166.879164
 31
0.0
  0
LINE
  5
1375
100
AcDbEntity
  8
10000_FRONT
370
    25
390
0
  6
CONTINUOUS
 62
     7
100
AcDbLine
 10
135.793253
 20
166.707434
 30
0.0
 11
135.815793
 21
166.879164
 31
0.0
  0
LINE
  5
1376
100
AcDbEntity
  8
10000_FRONT
370
    25
390
0
  6
CONTINUOUS
 62
     7
100
AcDbLine
 10
115.13208
 20
168.038302
 30
0.0
 11
115.15462
 21
168.210032
 31
0.0
  0
LINE
  5
1377
100
AcDbEntity
  8
10000_FRONT
370
    25
390
0
  6
CONTINUOUS
 62
     7
100
AcDbLine
 10
137.63208
 20
168.038302
 30
0.0
 11
137.65462
 21
168.210032
 31
0.0
  0
LINE
  5
1378
100
AcDbEntity
  8
10000_FRONT
370
    25
390
0
  6
CONTINUOUS
 62
     7
100
AcDbLine
 10
153.931347
 20
274.125246
 30
0.0
 11
153.953887
 21
274.296976
 31
0.0
  0
LINE
  5
1379
100
AcDbEntity
  8
10000_FRONT
370
    25
390
0
  6
CONTINUOUS
 62
     7
100
AcDbLine
 10
97.931347
 20
274.125246
 30
0.0
 11
97.953887
 21
274.296976
 31
0.0
  0
LINE
  5
137A
100
AcDbEntity
  8
10000_FRONT
370
    25
390
0
  6
CONTINUOUS
 62
     7
100
AcDbLine
 10
114.884205
 20
168.070834
 30
0.0
 11
114.906745
 21
168.242567
 31
0.0
  0
LINE
  5
137B
100
AcDbEntity
  8
10000_FRONT
370
    25
390
0
  6
CONTINUOUS
 62
     7
100
AcDbLine
 10
137.384205
 20
168.070834
 30
0.0
 11
137.406745
 21
168.242567
 31
0.0
  0
LINE
  5
137C
100
AcDbEntity
  8
10000_FRONT
370
    25
390
0
  6
CONTINUOUS
 62
     7
100
AcDbLine
 10
113.045378
 20
166.739966
 30
0.0
 11
113.067918
 21
166.9117
 31
0.0
  0
LINE
  5
137D
100
AcDbEntity
  8
10000_FRONT
370
    25
390
0
  6
CONTINUOUS
 62
     7
100
AcDbLine
 10
135.545378
 20
166.739966
 30
0.0
 11
135.567918
 21
166.9117
 31
0.0
  0
LINE
  5
137E
100
AcDbEntity
  8
10000_FRONT
370
    25
390
0
  6
CONTINUOUS
 62
     7
100
AcDbLine
 10
113.248236
 20
168.285555
 30
0.0
 11
113.270776
 21
168.457289
 31
0.0
  0
LINE
  5
137F
100
AcDbEntity
  8
10000_FRONT
370
    25
390
0
  6
CONTINUOUS
 62
     7
100
AcDbLine
 10
135.748236
 20
168.285555
 30
0.0
 11
135.770776
 21
168.457289
 31
0.0
  0
LINE
  5
1380
100
AcDbEntity
  8
10000_FRONT
370
    25
390
0
  6
CONTINUOUS
 62
     7
100
AcDbLine
 10
152.746111
 20
275.853022
 30
0.0
 11
152.768651
 21
276.024756
 31
0.0
  0
LINE
  5
1381
100
AcDbEntity
  8
10000_FRONT
370
    25
390
0
  6
CONTINUOUS
 62
     7
100
AcDbLine
 10
96.746111
 20
275.853022
 30
0.0
 11
96.768651
 21
276.024756
 31
0.0
  0
LINE
  5
1382
100
AcDbEntity
  8
10000_FRONT
370
    25
390
0
  6
CONTINUOUS
 62
     7
100
AcDbLine
 10
152.295378
 20
274.339964
 30
0.0
 11
152.317917
 21
274.511698
 31
0.0
  0
LINE
  5
1383
100
AcDbEntity
  8
10000_FRONT
370
    25
390
0
  6
CONTINUOUS
 62
     7
100
AcDbLine
 10
96.295378
 20
274.339964
 30
0.0
 11
96.317917
 21
274.511698
 31
0.0
  0
LINE
  5
1384
100
AcDbEntity
  8
10000_FRONT
370
    25
390
0
  6
CONTINUOUS
 62
     7
100
AcDbLine
 10
154.382081
 20
275.6383
 30
0.0
 11
154.40462
 21
275.810034
 31
0.0
  0
LINE
  5
1385
100
AcDbEntity
  8
10000_FRONT
370
    25
390
0
  6
CONTINUOUS
 62
     7
100
AcDbLine
 10
98.382081
 20
275.6383
 30
0.0
 11
98.40462
 21
275.810034
 31
0.0
  0
LINE
  5
1386
100
AcDbEntity
  8
10000_FRONT
370
    25
390
0
  6
CONTINUOUS
 62
     7
100
AcDbLine
 10
101.906741
 20
274.548972
 30
0.0
 11
101.930935
 21
274.760481
 31
0.0
  0
LINE
  5
1387
100
AcDbEntity
  8
10000_FRONT
370
    25
390
0
  6
CONTINUOUS
 62
     7
100
AcDbLine
 10
157.906743
 20
274.548972
 30
0.0
 11
157.930935
 21
274.760481
 31
0.0
  0
LINE
  5
1388
100
AcDbEntity
  8
10000_FRONT
370
    25
390
0
  6
CONTINUOUS
 62
     7
100
AcDbLine
 10
153.432711
 20
275.97119
 30
0.0
 11
153.455687
 21
276.220133
 31
0.0
  0
LINE
  5
1389
100
AcDbEntity
  8
10000_FRONT
370
    25
390
0
  6
CONTINUOUS
 62
     7
100
AcDbLine
 10
97.432711
 20
275.97119
 30
0.0
 11
97.455687
 21
276.220133
 31
0.0
  0
LINE
  5
138A
100
AcDbEntity
  8
10000_FRONT
370
    25
390
0
  6
CONTINUOUS
 62
     7
100
AcDbLine
 10
153.244311
 20
273.929865
 30
0.0
 11
153.267287
 21
274.178809
 31
0.0
  0
LINE
  5
138B
100
AcDbEntity
  8
10000_FRONT
370
    25
390
0
  6
CONTINUOUS
 62
     7
100
AcDbLine
 10
97.244311
 20
273.929865
 30
0.0
 11
97.267287
 21
274.178809
 31
0.0
  0
LINE
  5
138C
100
AcDbEntity
  8
10000_FRONT
370
    25
390
0
  6
CONTINUOUS
 62
     7
100
AcDbLine
 10
113.994311
 20
166.329867
 30
0.0
 11
114.017286
 21
166.57881
 31
0.0
  0
LINE
  5
138D
100
AcDbEntity
  8
10000_FRONT
370
    25
390
0
  6
CONTINUOUS
 62
     7
100
AcDbLine
 10
136.494311
 20
166.329867
 30
0.0
 11
136.517286
 21
166.57881
 31
0.0
  0
LINE
  5
138E
100
AcDbEntity
  8
10000_FRONT
370
    25
390
0
  6
CONTINUOUS
 62
     7
100
AcDbLine
 10
114.182712
 20
168.371191
 30
0.0
 11
114.205687
 21
168.620135
 31
0.0
  0
LINE
  5
138F
100
AcDbEntity
  8
10000_FRONT
370
    25
390
0
  6
CONTINUOUS
 62
     7
100
AcDbLine
 10
136.682712
 20
168.371191
 30
0.0
 11
136.705687
 21
168.620135
 31
0.0
  0
LINE
  5
1390
100
AcDbEntity
  8
10000_FRONT
370
    25
390
0
  6
CONTINUOUS
 62
     7
100
AcDbLine
 10
157.930935
 20
274.760481
 30
0.0
 11
157.945275
 21
274.970446
 31
0.0
  0
LINE
  5
1391
100
AcDbEntity
  8
10000_FRONT
370
    25
390
0
  6
CONTINUOUS
 62
     7
100
AcDbLine
 10
101.930935
 20
274.760481
 30
0.0
 11
101.945273
 21
274.970446
 31
0.0
  0
LINE
  5
1392
100
AcDbEntity
  8
10000_FRONT
370
    25
390
0
  6
CONTINUOUS
 62
     7
100
AcDbLine
 10
101.945273
 20
274.970446
 30
0.0
 11
101.949999
 21
275.177943
 31
0.0
  0
LINE
  5
1393
100
AcDbEntity
  8
10000_FRONT
370
    25
390
0
  6
CONTINUOUS
 62
     7
100
AcDbLine
 10
157.945275
 20
274.970446
 30
0.0
 11
157.949997
 21
275.177943
 31
0.0
  0
LINE
  5
1394
100
AcDbEntity
  8
10000_FRONT
370
    25
390
0
  6
CONTINUOUS
 62
     7
100
AcDbLine
 10
90.349999
 20
138.775
 30
0.0
 11
90.349999
 21
303.775
 31
0.0
  0
LINE
  5
1395
100
AcDbEntity
  8
10000_FRONT
370
    25
390
0
  6
CONTINUOUS
 62
     7
100
AcDbLine
 10
90.359997
 20
146.425002
 30
0.0
 11
90.359997
 21
163.475001
 31
0.0
  0
LINE
  5
1396
100
AcDbEntity
  8
10000_FRONT
370
    25
390
0
  6
CONTINUOUS
 62
     7
100
AcDbLine
 10
90.359997
 20
279.074999
 30
0.0
 11
90.359997
 21
295.774725
 31
0.0
  0
LINE
  5
1397
100
AcDbEntity
  8
10000_FRONT
370
    25
390
0
  6
CONTINUOUS
 62
     7
100
AcDbLine
 10
90.359997
 20
295.774725
 30
0.0
 11
90.359997
 21
296.124998
 31
0.0
  0
LINE
  5
1398
100
AcDbEntity
  8
10000_FRONT
370
    25
390
0
  6
CONTINUOUS
 62
     7
100
AcDbLine
 10
92.349999
 20
136.425002
 30
0.0
 11
92.349999
 21
163.475001
 31
0.0
  0
LINE
  5
1399
100
AcDbEntity
  8
10000_FRONT
370
    25
390
0
  6
CONTINUOUS
 62
     7
100
AcDbLine
 10
92.349999
 20
279.074999
 30
0.0
 11
92.349999
 21
279.975275
 31
0.0
  0
LINE
  5
139A
100
AcDbEntity
  8
10000_FRONT
370
    25
390
0
  6
CONTINUOUS
 62
     7
100
AcDbLine
 10
92.349999
 20
279.975275
 30
0.0
 11
92.349999
 21
305.475272
 31
0.0
  0
LINE
  5
139B
100
AcDbEntity
  8
10000_FRONT
370
    25
390
0
  6
CONTINUOUS
 62
     7
100
AcDbLine
 10
92.349999
 20
305.475272
 30
0.0
 11
92.349999
 21
306.124998
 31
0.0
  0
LINE
  5
139C
100
AcDbEntity
  8
10000_FRONT
370
    25
390
0
  6
CONTINUOUS
 62
     7
100
AcDbLine
 10
92.750001
 20
275.177943
 30
0.0
 11
92.750001
 21
279.074999
 31
0.0
  0
LINE
  5
139D
100
AcDbEntity
  8
10000_FRONT
370
    25
390
0
  6
CONTINUOUS
 62
     7
100
AcDbLine
 10
93.749999
 20
211.8686
 30
0.0
 11
93.749999
 21
215.0686
 31
0.0
  0
LINE
  5
139E
100
AcDbEntity
  8
10000_FRONT
370
    25
390
0
  6
CONTINUOUS
 62
     7
100
AcDbLine
 10
93.899998
 20
212.075
 30
0.0
 11
93.899998
 21
214.875
 31
0.0
  0
LINE
  5
139F
100
AcDbEntity
  8
10000_FRONT
370
    25
390
0
  6
CONTINUOUS
 62
     7
100
AcDbLine
 10
94.349999
 20
136.425002
 30
0.0
 11
94.349999
 21
161.525
 31
0.0
  0
LINE
  5
13A0
100
AcDbEntity
  8
10000_FRONT
370
    25
390
0
  6
CONTINUOUS
 62
     7
100
AcDbLine
 10
94.349999
 20
305.475272
 30
0.0
 11
94.349999
 21
306.124998
 31
0.0
  0
LINE
  5
13A1
100
AcDbEntity
  8
10000_FRONT
370
    25
390
0
  6
CONTINUOUS
 62
     7
100
AcDbLine
 10
94.349999
 20
281.025
 30
0.0
 11
94.349999
 21
305.475272
 31
0.0
  0
LINE
  5
13A2
100
AcDbEntity
  8
10000_FRONT
370
    25
390
0
  6
CONTINUOUS
 62
     7
100
AcDbLine
 10
95.169999
 20
236.974057
 30
0.0
 11
95.169999
 21
237.972296
 31
0.0
  0
LINE
  5
13A3
100
AcDbEntity
  8
10000_FRONT
370
    25
390
0
  6
CONTINUOUS
 62
     7
100
AcDbLine
 10
96.29
 20
214.875
 30
0.0
 11
96.29
 21
215.0686
 31
0.0
  0
LINE
  5
13A4
100
AcDbEntity
  8
10000_FRONT
370
    25
390
0
  6
CONTINUOUS
 62
     7
100
AcDbLine
 10
96.29
 20
211.8686
 30
0.0
 11
96.29
 21
212.075
 31
0.0
  0
LINE
  5
13A5
100
AcDbEntity
  8
10000_FRONT
370
    25
390
0
  6
CONTINUOUS
 62
     7
100
AcDbLine
 10
96.309998
 20
214.875
 30
0.0
 11
96.309998
 21
215.0686
 31
0.0
  0
LINE
  5
13A6
100
AcDbEntity
  8
10000_FRONT
370
    25
390
0
  6
CONTINUOUS
 62
     7
100
AcDbLine
 10
96.309998
 20
211.8686
 30
0.0
 11
96.309998
 21
212.075
 31
0.0
  0
LINE
  5
13A7
100
AcDbEntity
  8
10000_FRONT
370
    25
390
0
  6
CONTINUOUS
 62
     7
100
AcDbLine
 10
98.169999
 20
236.974057
 30
0.0
 11
98.169999
 21
237.972296
 31
0.0
  0
LINE
  5
13A8
100
AcDbEntity
  8
10000_FRONT
370
    25
390
0
  6
CONTINUOUS
 62
     7
100
AcDbLine
 10
98.181416
 20
223.77606
 30
0.0
 11
98.181416
 21
225.799326
 31
0.0
  0
LINE
  5
13A9
100
AcDbEntity
  8
10000_FRONT
370
    25
390
0
  6
CONTINUOUS
 62
     7
100
AcDbLine
 10
98.699999
 20
212.075
 30
0.0
 11
98.699999
 21
214.875
 31
0.0
  0
LINE
  5
13AA
100
AcDbEntity
  8
10000_FRONT
370
    25
390
0
  6
CONTINUOUS
 62
     7
100
AcDbLine
 10
98.949999
 20
211.8686
 30
0.0
 11
98.949999
 21
215.0686
 31
0.0
  0
LINE
  5
13AB
100
AcDbEntity
  8
10000_FRONT
370
    25
390
0
  6
CONTINUOUS
 62
     7
100
AcDbLine
 10
99.71
 20
223.4824
 30
0.0
 11
99.71
 21
223.570099
 31
0.0
  0
LINE
  5
13AC
100
AcDbEntity
  8
10000_FRONT
370
    25
390
0
  6
CONTINUOUS
 62
     7
100
AcDbLine
 10
99.71
 20
225.850503
 30
0.0
 11
99.71
 21
225.8824
 31
0.0
  0
LINE
  5
13AD
100
AcDbEntity
  8
10000_FRONT
370
    25
390
0
  6
CONTINUOUS
 62
     7
100
AcDbLine
 10
100.849999
 20
155.870299
 30
0.0
 11
100.849999
 21
158.179701
 31
0.0
  0
LINE
  5
13AE
100
AcDbEntity
  8
10000_FRONT
370
    25
390
0
  6
CONTINUOUS
 62
     7
100
AcDbLine
 10
100.849999
 20
284.370299
 30
0.0
 11
100.849999
 21
286.679701
 31
0.0
  0
LINE
  5
13AF
100
AcDbEntity
  8
10000_FRONT
370
    25
390
0
  6
CONTINUOUS
 62
     7
100
AcDbLine
 10
101.949999
 20
275.177943
 30
0.0
 11
101.949999
 21
279.074999
 31
0.0
  0
LINE
  5
13B0
100
AcDbEntity
  8
10000_FRONT
370
    25
390
0
  6
CONTINUOUS
 62
     7
100
AcDbLine
 10
102.63
 20
225.850502
 30
0.0
 11
102.63
 21
225.8824
 31
0.0
  0
LINE
  5
13B1
100
AcDbEntity
  8
10000_FRONT
370
    25
390
0
  6
CONTINUOUS
 62
     7
100
AcDbLine
 10
102.63
 20
223.4824
 30
0.0
 11
102.63
 21
223.570101
 31
0.0
  0
LINE
  5
13B2
100
AcDbEntity
  8
10000_FRONT
370
    25
390
0
  6
CONTINUOUS
 62
     7
100
AcDbLine
 10
102.849999
 20
268.975001
 30
0.0
 11
102.849999
 21
279.074999
 31
0.0
  0
LINE
  5
13B3
100
AcDbEntity
  8
10000_FRONT
370
    25
390
0
  6
CONTINUOUS
 62
     7
100
AcDbLine
 10
102.899998
 20
269.07503
 30
0.0
 11
102.899998
 21
279.07503
 31
0.0
  0
LINE
  5
13B4
100
AcDbEntity
  8
10000_FRONT
370
    25
390
0
  6
CONTINUOUS
 62
     7
100
AcDbLine
 10
104.158583
 20
223.77606
 30
0.0
 11
104.158583
 21
225.799326
 31
0.0
  0
LINE
  5
13B5
100
AcDbEntity
  8
10000_FRONT
370
    25
390
0
  6
CONTINUOUS
 62
     7
100
AcDbLine
 10
104.849999
 20
155.870299
 30
0.0
 11
104.849999
 21
158.179701
 31
0.0
  0
LINE
  5
13B6
100
AcDbEntity
  8
10000_FRONT
370
    25
390
0
  6
CONTINUOUS
 62
     7
100
AcDbLine
 10
104.849999
 20
284.370299
 30
0.0
 11
104.849999
 21
286.679701
 31
0.0
  0
LINE
  5
13B7
100
AcDbEntity
  8
10000_FRONT
370
    25
390
0
  6
CONTINUOUS
 62
     7
100
AcDbLine
 10
106.369999
 20
236.974057
 30
0.0
 11
106.369999
 21
237.972296
 31
0.0
  0
LINE
  5
13B8
100
AcDbEntity
  8
10000_FRONT
370
    25
390
0
  6
CONTINUOUS
 62
     7
100
AcDbLine
 10
108.919999
 20
222.075
 30
0.0
 11
108.919999
 21
223.525
 31
0.0
  0
LINE
  5
13B9
100
AcDbEntity
  8
10000_FRONT
370
    25
390
0
  6
CONTINUOUS
 62
     7
100
AcDbLine
 10
109.369999
 20
236.974057
 30
0.0
 11
109.369999
 21
237.972296
 31
0.0
  0
LINE
  5
13BA
100
AcDbEntity
  8
10000_FRONT
370
    25
390
0
  6
CONTINUOUS
 62
     7
100
AcDbLine
 10
110.099999
 20
136.425002
 30
0.0
 11
110.099999
 21
161.525
 31
0.0
  0
LINE
  5
13BB
100
AcDbEntity
  8
10000_FRONT
370
    25
390
0
  6
CONTINUOUS
 62
     7
100
AcDbLine
 10
110.099999
 20
281.025
 30
0.0
 11
110.099999
 21
305.475272
 31
0.0
  0
LINE
  5
13BC
100
AcDbEntity
  8
10000_FRONT
370
    25
390
0
  6
CONTINUOUS
 62
     7
100
AcDbLine
 10
110.099999
 20
305.475272
 30
0.0
 11
110.099999
 21
306.124998
 31
0.0
  0
LINE
  5
13BD
100
AcDbEntity
  8
10000_FRONT
370
    25
390
0
  6
CONTINUOUS
 62
     7
100
AcDbLine
 10
110.299999
 20
163.475001
 30
0.0
 11
110.299999
 21
167.474924
 31
0.0
  0
LINE
  5
13BE
100
AcDbEntity
  8
10000_FRONT
370
    25
390
0
  6
CONTINUOUS
 62
     7
100
AcDbLine
 10
110.446142
 20
219.117738
 30
0.0
 11
110.446142
 21
223.432281
 31
0.0
  0
LINE
  5
13BF
100
AcDbEntity
  8
10000_FRONT
370
    25
390
0
  6
CONTINUOUS
 62
     7
100
AcDbLine
 10
112.099999
 20
136.425002
 30
0.0
 11
112.099999
 21
161.525
 31
0.0
  0
LINE
  5
13C0
100
AcDbEntity
  8
10000_FRONT
370
    25
390
0
  6
CONTINUOUS
 62
     7
100
AcDbLine
 10
112.099999
 20
305.475272
 30
0.0
 11
112.099999
 21
306.124998
 31
0.0
  0
LINE
  5
13C1
100
AcDbEntity
  8
10000_FRONT
370
    25
390
0
  6
CONTINUOUS
 62
     7
100
AcDbLine
 10
112.099999
 20
281.025
 30
0.0
 11
112.099999
 21
305.475272
 31
0.0
  0
LINE
  5
13C2
100
AcDbEntity
  8
10000_FRONT
370
    25
390
0
  6
CONTINUOUS
 62
     7
100
AcDbLine
 10
114.049999
 20
202.209217
 30
0.0
 11
114.049999
 21
208.196658
 31
0.0
  0
LINE
  5
13C3
100
AcDbEntity
  8
10000_FRONT
370
    25
390
0
  6
CONTINUOUS
 62
     7
100
AcDbLine
 10
115.249999
 20
208.196658
 30
0.0
 11
115.249999
 21
209.395213
 31
0.0
  0
LINE
  5
13C4
100
AcDbEntity
  8
10000_FRONT
370
    25
390
0
  6
CONTINUOUS
 62
     7
100
AcDbLine
 10
115.349999
 20
202.339959
 30
0.0
 11
115.349999
 21
209.362307
 31
0.0
  0
LINE
  5
13C5
100
AcDbEntity
  8
10000_FRONT
370
    25
390
0
  6
CONTINUOUS
 62
     7
100
AcDbLine
 10
116.099999
 20
136.425002
 30
0.0
 11
116.099999
 21
161.525
 31
0.0
  0
LINE
  5
13C6
100
AcDbEntity
  8
10000_FRONT
370
    25
390
0
  6
CONTINUOUS
 62
     7
100
AcDbLine
 10
116.099999
 20
281.025
 30
0.0
 11
116.099999
 21
305.475272
 31
0.0
  0
LINE
  5
13C7
100
AcDbEntity
  8
10000_FRONT
370
    25
390
0
  6
CONTINUOUS
 62
     7
100
AcDbLine
 10
116.099999
 20
305.475272
 30
0.0
 11
116.099999
 21
306.124998
 31
0.0
  0
LINE
  5
13C8
100
AcDbEntity
  8
10000_FRONT
370
    25
390
0
  6
CONTINUOUS
 62
     7
100
AcDbLine
 10
117.449999
 20
239.375
 30
0.0
 11
117.449999
 21
243.775
 31
0.0
  0
LINE
  5
13C9
100
AcDbEntity
  8
10000_FRONT
370
    25
390
0
  6
CONTINUOUS
 62
     7
100
AcDbLine
 10
117.549999
 20
239.574999
 30
0.0
 11
117.549999
 21
243.375
 31
0.0
  0
LINE
  5
13CA
100
AcDbEntity
  8
10000_FRONT
370
    25
390
0
  6
CONTINUOUS
 62
     7
100
AcDbLine
 10
117.749999
 20
239.375
 30
0.0
 11
117.749999
 21
243.574999
 31
0.0
  0
LINE
  5
13CB
100
AcDbEntity
  8
10000_FRONT
370
    25
390
0
  6
CONTINUOUS
 62
     7
100
AcDbLine
 10
117.899999
 20
163.475001
 30
0.0
 11
117.899999
 21
167.474924
 31
0.0
  0
LINE
  5
13CC
100
AcDbEntity
  8
10000_FRONT
370
    25
390
0
  6
CONTINUOUS
 62
     7
100
AcDbLine
 10
118.099999
 20
136.425002
 30
0.0
 11
118.099999
 21
161.525
 31
0.0
  0
LINE
  5
13CD
100
AcDbEntity
  8
10000_FRONT
370
    25
390
0
  6
CONTINUOUS
 62
     7
100
AcDbLine
 10
118.099999
 20
305.475272
 30
0.0
 11
118.099999
 21
306.124998
 31
0.0
  0
LINE
  5
13CE
100
AcDbEntity
  8
10000_FRONT
370
    25
390
0
  6
CONTINUOUS
 62
     7
100
AcDbLine
 10
118.099999
 20
281.025
 30
0.0
 11
118.099999
 21
305.475272
 31
0.0
  0
LINE
  5
13CF
100
AcDbEntity
  8
10000_FRONT
370
    25
390
0
  6
CONTINUOUS
 62
     7
100
AcDbLine
 10
118.349999
 20
240.421296
 30
0.0
 11
118.349999
 21
240.859553
 31
0.0
  0
LINE
  5
13D0
100
AcDbEntity
  8
10000_FRONT
370
    25
390
0
  6
CONTINUOUS
 62
     7
100
AcDbLine
 10
118.749999
 20
210.375
 30
0.0
 11
118.749999
 21
210.975
 31
0.0
  0
LINE
  5
13D1
100
AcDbEntity
  8
10000_FRONT
370
    25
390
0
  6
CONTINUOUS
 62
     7
100
AcDbLine
 10
118.749999
 20
200.6591
 30
0.0
 11
118.749999
 21
201.2591
 31
0.0
  0
LINE
  5
13D2
100
AcDbEntity
  8
10000_FRONT
370
    25
390
0
  6
CONTINUOUS
 62
     7
100
AcDbLine
 10
119.057999
 20
202.252758
 30
0.0
 11
119.057999
 21
202.339959
 31
0.0
  0
LINE
  5
13D3
100
AcDbEntity
  8
10000_FRONT
370
    25
390
0
  6
CONTINUOUS
 62
     7
100
AcDbLine
 10
119.057999
 20
209.338938
 30
0.0
 11
119.057999
 21
209.395213
 31
0.0
  0
LINE
  5
13D4
100
AcDbEntity
  8
10000_FRONT
370
    25
390
0
  6
CONTINUOUS
 62
     7
100
AcDbLine
 10
119.808288
 20
242.080195
 30
0.0
 11
119.808288
 21
242.489132
 31
0.0
  0
LINE
  5
13D5
100
AcDbEntity
  8
10000_FRONT
370
    25
390
0
  6
CONTINUOUS
 62
     7
100
AcDbLine
 10
120.289999
 20
240.375
 30
0.0
 11
120.289999
 21
242.504565
 31
0.0
  0
LINE
  5
13D6
100
AcDbEntity
  8
10000_FRONT
370
    25
390
0
  6
CONTINUOUS
 62
     7
100
AcDbLine
 10
120.641999
 20
202.252758
 30
0.0
 11
120.641999
 21
202.339959
 31
0.0
  0
LINE
  5
13D7
100
AcDbEntity
  8
10000_FRONT
370
    25
390
0
  6
CONTINUOUS
 62
     7
100
AcDbLine
 10
120.641999
 20
209.338938
 30
0.0
 11
120.641999
 21
209.395213
 31
0.0
  0
LINE
  5
13D8
100
AcDbEntity
  8
10000_FRONT
370
    25
390
0
  6
CONTINUOUS
 62
     7
100
AcDbLine
 10
120.911893
 20
240.375
 30
0.0
 11
120.911893
 21
242.504565
 31
0.0
  0
LINE
  5
13D9
100
AcDbEntity
  8
10000_FRONT
370
    25
390
0
  6
CONTINUOUS
 62
     7
100
AcDbLine
 10
121.413999
 20
240.375
 30
0.0
 11
121.413999
 21
242.504565
 31
0.0
  0
LINE
  5
13DA
100
AcDbEntity
  8
10000_FRONT
370
    25
390
0
  6
CONTINUOUS
 62
     7
100
AcDbLine
 10
122.035893
 20
241.63885
 30
0.0
 11
122.035893
 21
242.123404
 31
0.0
  0
LINE
  5
13DB
100
AcDbEntity
  8
10000_FRONT
370
    25
390
0
  6
CONTINUOUS
 62
     7
100
AcDbLine
 10
122.035893
 20
240.773137
 30
0.0
 11
122.035893
 21
241.274664
 31
0.0
  0
LINE
  5
13DC
100
AcDbEntity
  8
10000_FRONT
370
    25
390
0
  6
CONTINUOUS
 62
     7
100
AcDbLine
 10
122.249999
 20
210.375
 30
0.0
 11
122.249999
 21
210.975
 31
0.0
  0
LINE
  5
13DD
100
AcDbEntity
  8
10000_FRONT
370
    25
390
0
  6
CONTINUOUS
 62
     7
100
AcDbLine
 10
122.249999
 20
200.6591
 30
0.0
 11
122.249999
 21
201.2591
 31
0.0
  0
LINE
  5
13DE
100
AcDbEntity
  8
10000_FRONT
370
    25
390
0
  6
CONTINUOUS
 62
     7
100
AcDbLine
 10
122.867658
 20
241.274664
 30
0.0
 11
122.867658
 21
241.63885
 31
0.0
  0
LINE
  5
13DF
100
AcDbEntity
  8
10000_FRONT
370
    25
390
0
  6
CONTINUOUS
 62
     7
100
AcDbLine
 10
122.988025
 20
242.123404
 30
0.0
 11
122.988025
 21
242.504565
 31
0.0
  0
LINE
  5
13E0
100
AcDbEntity
  8
10000_FRONT
370
    25
390
0
  6
CONTINUOUS
 62
     7
100
AcDbLine
 10
122.988025
 20
240.375
 30
0.0
 11
122.988025
 21
240.773137
 31
0.0
  0
LINE
  5
13E1
100
AcDbEntity
  8
10000_FRONT
370
    25
390
0
  6
CONTINUOUS
 62
     7
100
AcDbLine
 10
123.349999
 20
155.870299
 30
0.0
 11
123.349999
 21
158.179701
 31
0.0
  0
LINE
  5
13E2
100
AcDbEntity
  8
10000_FRONT
370
    25
390
0
  6
CONTINUOUS
 62
     7
100
AcDbLine
 10
123.349999
 20
284.370299
 30
0.0
 11
123.349999
 21
286.679701
 31
0.0
  0
LINE
  5
13E3
100
AcDbEntity
  8
10000_FRONT
370
    25
390
0
  6
CONTINUOUS
 62
     7
100
AcDbLine
 10
123.369999
 20
240.375
 30
0.0
 11
123.369999
 21
242.504565
 31
0.0
  0
LINE
  5
13E4
100
AcDbEntity
  8
10000_FRONT
370
    25
390
0
  6
CONTINUOUS
 62
     7
100
AcDbLine
 10
123.78511
 20
240.375
 30
0.0
 11
123.78511
 21
241.777735
 31
0.0
  0
LINE
  5
13E5
100
AcDbEntity
  8
10000_FRONT
370
    25
390
0
  6
CONTINUOUS
 62
     7
100
AcDbLine
 10
125.382283
 20
240.375
 30
0.0
 11
125.382283
 21
241.782364
 31
0.0
  0
LINE
  5
13E6
100
AcDbEntity
  8
10000_FRONT
370
    25
390
0
  6
CONTINUOUS
 62
     7
100
AcDbLine
 10
126.001091
 20
240.375
 30
0.0
 11
126.001091
 21
242.504565
 31
0.0
  0
LINE
  5
13E7
100
AcDbEntity
  8
10000_FRONT
370
    25
390
0
  6
CONTINUOUS
 62
     7
100
AcDbLine
 10
126.477999
 20
240.375
 30
0.0
 11
126.477999
 21
242.504565
 31
0.0
  0
LINE
  5
13E8
100
AcDbEntity
  8
10000_FRONT
370
    25
390
0
  6
CONTINUOUS
 62
     7
100
AcDbLine
 10
127.099893
 20
241.63885
 30
0.0
 11
127.099893
 21
242.123404
 31
0.0
  0
LINE
  5
13E9
100
AcDbEntity
  8
10000_FRONT
370
    25
390
0
  6
CONTINUOUS
 62
     7
100
AcDbLine
 10
127.099893
 20
240.773137
 30
0.0
 11
127.099893
 21
241.274664
 31
0.0
  0
LINE
  5
13EA
100
AcDbEntity
  8
10000_FRONT
370
    25
390
0
  6
CONTINUOUS
 62
     7
100
AcDbLine
 10
127.349999
 20
155.870299
 30
0.0
 11
127.349999
 21
158.179701
 31
0.0
  0
LINE
  5
13EB
100
AcDbEntity
  8
10000_FRONT
370
    25
390
0
  6
CONTINUOUS
 62
     7
100
AcDbLine
 10
127.349999
 20
284.370299
 30
0.0
 11
127.349999
 21
286.679701
 31
0.0
  0
LINE
  5
13EC
100
AcDbEntity
  8
10000_FRONT
370
    25
390
0
  6
CONTINUOUS
 62
     7
100
AcDbLine
 10
127.931658
 20
241.274664
 30
0.0
 11
127.931658
 21
241.63885
 31
0.0
  0
LINE
  5
13ED
100
AcDbEntity
  8
10000_FRONT
370
    25
390
0
  6
CONTINUOUS
 62
     7
100
AcDbLine
 10
128.052025
 20
242.123404
 30
0.0
 11
128.052025
 21
242.504565
 31
0.0
  0
LINE
  5
13EE
100
AcDbEntity
  8
10000_FRONT
370
    25
390
0
  6
CONTINUOUS
 62
     7
100
AcDbLine
 10
128.052025
 20
240.375
 30
0.0
 11
128.052025
 21
240.773137
 31
0.0
  0
LINE
  5
13EF
100
AcDbEntity
  8
10000_FRONT
370
    25
390
0
  6
CONTINUOUS
 62
     7
100
AcDbLine
 10
128.433999
 20
240.375
 30
0.0
 11
128.433999
 21
242.504565
 31
0.0
  0
LINE
  5
13F0
100
AcDbEntity
  8
10000_FRONT
370
    25
390
0
  6
CONTINUOUS
 62
     7
100
AcDbLine
 10
128.449999
 20
210.375
 30
0.0
 11
128.449999
 21
210.975
 31
0.0
  0
LINE
  5
13F1
100
AcDbEntity
  8
10000_FRONT
370
    25
390
0
  6
CONTINUOUS
 62
     7
100
AcDbLine
 10
128.449999
 20
200.6591
 30
0.0
 11
128.449999
 21
201.2591
 31
0.0
  0
LINE
  5
13F2
100
AcDbEntity
  8
10000_FRONT
370
    25
390
0
  6
CONTINUOUS
 62
     7
100
AcDbLine
 10
128.867628
 20
240.375
 30
0.0
 11
128.867628
 21
241.725268
 31
0.0
  0
LINE
  5
13F3
100
AcDbEntity
  8
10000_FRONT
370
    25
390
0
  6
CONTINUOUS
 62
     7
100
AcDbLine
 10
129.890744
 20
241.171273
 30
0.0
 11
129.890744
 21
242.504565
 31
0.0
  0
LINE
  5
13F4
100
AcDbEntity
  8
10000_FRONT
370
    25
390
0
  6
CONTINUOUS
 62
     7
100
AcDbLine
 10
130.057999
 20
202.252758
 30
0.0
 11
130.057999
 21
202.339959
 31
0.0
  0
LINE
  5
13F5
100
AcDbEntity
  8
10000_FRONT
370
    25
390
0
  6
CONTINUOUS
 62
     7
100
AcDbLine
 10
130.057999
 20
209.338938
 30
0.0
 11
130.057999
 21
209.395213
 31
0.0
  0
LINE
  5
13F6
100
AcDbEntity
  8
10000_FRONT
370
    25
390
0
  6
CONTINUOUS
 62
     7
100
AcDbLine
 10
130.301226
 20
240.375
 30
0.0
 11
130.301226
 21
242.504565
 31
0.0
  0
LINE
  5
13F7
100
AcDbEntity
  8
10000_FRONT
370
    25
390
0
  6
CONTINUOUS
 62
     7
100
AcDbLine
 10
130.685999
 20
240.421296
 30
0.0
 11
130.685999
 21
240.859553
 31
0.0
  0
LINE
  5
13F8
100
AcDbEntity
  8
10000_FRONT
370
    25
390
0
  6
CONTINUOUS
 62
     7
100
AcDbLine
 10
131.641999
 20
202.252758
 30
0.0
 11
131.641999
 21
202.339959
 31
0.0
  0
LINE
  5
13F9
100
AcDbEntity
  8
10000_FRONT
370
    25
390
0
  6
CONTINUOUS
 62
     7
100
AcDbLine
 10
131.641999
 20
209.338938
 30
0.0
 11
131.641999
 21
209.395213
 31
0.0
  0
LINE
  5
13FA
100
AcDbEntity
  8
10000_FRONT
370
    25
390
0
  6
CONTINUOUS
 62
     7
100
AcDbLine
 10
131.949999
 20
210.375
 30
0.0
 11
131.949999
 21
210.975
 31
0.0
  0
LINE
  5
13FB
100
AcDbEntity
  8
10000_FRONT
370
    25
390
0
  6
CONTINUOUS
 62
     7
100
AcDbLine
 10
131.949999
 20
200.6591
 30
0.0
 11
131.949999
 21
201.2591
 31
0.0
  0
LINE
  5
13FC
100
AcDbEntity
  8
10000_FRONT
370
    25
390
0
  6
CONTINUOUS
 62
     7
100
AcDbLine
 10
132.144288
 20
242.080195
 30
0.0
 11
132.144288
 21
242.489132
 31
0.0
  0
LINE
  5
13FD
100
AcDbEntity
  8
10000_FRONT
370
    25
390
0
  6
CONTINUOUS
 62
     7
100
AcDbLine
 10
132.599999
 20
136.425002
 30
0.0
 11
132.599999
 21
161.525
 31
0.0
  0
LINE
  5
13FE
100
AcDbEntity
  8
10000_FRONT
370
    25
390
0
  6
CONTINUOUS
 62
     7
100
AcDbLine
 10
132.599999
 20
281.025
 30
0.0
 11
132.599999
 21
305.475272
 31
0.0
  0
LINE
  5
13FF
100
AcDbEntity
  8
10000_FRONT
370
    25
390
0
  6
CONTINUOUS
 62
     7
100
AcDbLine
 10
132.599999
 20
305.475272
 30
0.0
 11
132.599999
 21
306.124998
 31
0.0
  0
LINE
  5
1400
100
AcDbEntity
  8
10000_FRONT
370
    25
390
0
  6
CONTINUOUS
 62
     7
100
AcDbLine
 10
132.799999
 20
163.475001
 30
0.0
 11
132.799999
 21
167.474924
 31
0.0
  0
LINE
  5
1401
100
AcDbEntity
  8
10000_FRONT
370
    25
390
0
  6
CONTINUOUS
 62
     7
100
AcDbLine
 10
132.949999
 20
239.375
 30
0.0
 11
132.949999
 21
243.574999
 31
0.0
  0
LINE
  5
1402
100
AcDbEntity
  8
10000_FRONT
370
    25
390
0
  6
CONTINUOUS
 62
     7
100
AcDbLine
 10
133.149999
 20
239.574999
 30
0.0
 11
133.149999
 21
243.375
 31
0.0
  0
LINE
  5
1403
100
AcDbEntity
  8
10000_FRONT
370
    25
390
0
  6
CONTINUOUS
 62
     7
100
AcDbLine
 10
133.249999
 20
239.375
 30
0.0
 11
133.249999
 21
243.775
 31
0.0
  0
LINE
  5
1404
100
AcDbEntity
  8
10000_FRONT
370
    25
390
0
  6
CONTINUOUS
 62
     7
100
AcDbLine
 10
134.599999
 20
136.425002
 30
0.0
 11
134.599999
 21
161.525
 31
0.0
  0
LINE
  5
1405
100
AcDbEntity
  8
10000_FRONT
370
    25
390
0
  6
CONTINUOUS
 62
     7
100
AcDbLine
 10
134.599999
 20
305.475272
 30
0.0
 11
134.599999
 21
306.124998
 31
0.0
  0
LINE
  5
1406
100
AcDbEntity
  8
10000_FRONT
370
    25
390
0
  6
CONTINUOUS
 62
     7
100
AcDbLine
 10
134.599999
 20
281.025
 30
0.0
 11
134.599999
 21
305.475272
 31
0.0
  0
LINE
  5
1407
100
AcDbEntity
  8
10000_FRONT
370
    25
390
0
  6
CONTINUOUS
 62
     7
100
AcDbLine
 10
135.349999
 20
202.339959
 30
0.0
 11
135.349999
 21
209.362307
 31
0.0
  0
LINE
  5
1408
100
AcDbEntity
  8
10000_FRONT
370
    25
390
0
  6
CONTINUOUS
 62
     7
100
AcDbLine
 10
135.449999
 20
208.196658
 30
0.0
 11
135.449999
 21
209.395213
 31
0.0
  0
LINE
  5
1409
100
AcDbEntity
  8
10000_FRONT
370
    25
390
0
  6
CONTINUOUS
 62
     7
100
AcDbLine
 10
136.649999
 20
202.209217
 30
0.0
 11
136.649999
 21
208.196658
 31
0.0
  0
LINE
  5
140A
100
AcDbEntity
  8
10000_FRONT
370
    25
390
0
  6
CONTINUOUS
 62
     7
100
AcDbLine
 10
138.599999
 20
136.425002
 30
0.0
 11
138.599999
 21
161.525
 31
0.0
  0
LINE
  5
140B
100
AcDbEntity
  8
10000_FRONT
370
    25
390
0
  6
CONTINUOUS
 62
     7
100
AcDbLine
 10
138.599999
 20
281.025
 30
0.0
 11
138.599999
 21
305.475272
 31
0.0
  0
LINE
  5
140C
100
AcDbEntity
  8
10000_FRONT
370
    25
390
0
  6
CONTINUOUS
 62
     7
100
AcDbLine
 10
138.599999
 20
305.475272
 30
0.0
 11
138.599999
 21
306.124998
 31
0.0
  0
LINE
  5
140D
100
AcDbEntity
  8
10000_FRONT
370
    25
390
0
  6
CONTINUOUS
 62
     7
100
AcDbLine
 10
140.399999
 20
163.475001
 30
0.0
 11
140.399999
 21
167.474924
 31
0.0
  0
LINE
  5
140E
100
AcDbEntity
  8
10000_FRONT
370
    25
390
0
  6
CONTINUOUS
 62
     7
100
AcDbLine
 10
140.599999
 20
136.425002
 30
0.0
 11
140.599999
 21
161.525
 31
0.0
  0
LINE
  5
140F
100
AcDbEntity
  8
10000_FRONT
370
    25
390
0
  6
CONTINUOUS
 62
     7
100
AcDbLine
 10
140.599999
 20
305.475272
 30
0.0
 11
140.599999
 21
306.124998
 31
0.0
  0
LINE
  5
1410
100
AcDbEntity
  8
10000_FRONT
370
    25
390
0
  6
CONTINUOUS
 62
     7
100
AcDbLine
 10
140.599999
 20
281.025
 30
0.0
 11
140.599999
 21
305.475272
 31
0.0
  0
LINE
  5
1411
100
AcDbEntity
  8
10000_FRONT
370
    25
390
0
  6
CONTINUOUS
 62
     7
100
AcDbLine
 10
145.849999
 20
155.870299
 30
0.0
 11
145.849999
 21
158.179701
 31
0.0
  0
LINE
  5
1412
100
AcDbEntity
  8
10000_FRONT
370
    25
390
0
  6
CONTINUOUS
 62
     7
100
AcDbLine
 10
145.849999
 20
284.370299
 30
0.0
 11
145.849999
 21
286.679701
 31
0.0
  0
LINE
  5
1413
100
AcDbEntity
  8
10000_FRONT
370
    25
390
0
  6
CONTINUOUS
 62
     7
100
AcDbLine
 10
147.15
 20
219.521685
 30
0.0
 11
147.15
 21
223.028587
 31
0.0
  0
LINE
  5
1414
100
AcDbEntity
  8
10000_FRONT
370
    25
390
0
  6
CONTINUOUS
 62
     7
100
AcDbLine
 10
147.8
 20
269.07503
 30
0.0
 11
147.8
 21
279.07503
 31
0.0
  0
LINE
  5
1415
100
AcDbEntity
  8
10000_FRONT
370
    25
390
0
  6
CONTINUOUS
 62
     7
100
AcDbLine
 10
147.849999
 20
268.975001
 30
0.0
 11
147.849999
 21
279.074999
 31
0.0
  0
LINE
  5
1416
100
AcDbEntity
  8
10000_FRONT
370
    25
390
0
  6
CONTINUOUS
 62
     7
100
AcDbLine
 10
148.749999
 20
275.177943
 30
0.0
 11
148.749999
 21
279.074999
 31
0.0
  0
LINE
  5
1417
100
AcDbEntity
  8
10000_FRONT
370
    25
390
0
  6
CONTINUOUS
 62
     7
100
AcDbLine
 10
149.849999
 20
155.870299
 30
0.0
 11
149.849999
 21
158.179701
 31
0.0
  0
LINE
  5
1418
100
AcDbEntity
  8
10000_FRONT
370
    25
390
0
  6
CONTINUOUS
 62
     7
100
AcDbLine
 10
149.849999
 20
284.370299
 30
0.0
 11
149.849999
 21
286.679701
 31
0.0
  0
LINE
  5
1419
100
AcDbEntity
  8
10000_FRONT
370
    25
390
0
  6
CONTINUOUS
 62
     7
100
AcDbLine
 10
156.349999
 20
136.425002
 30
0.0
 11
156.349999
 21
161.525
 31
0.0
  0
LINE
  5
141A
100
AcDbEntity
  8
10000_FRONT
370
    25
390
0
  6
CONTINUOUS
 62
     7
100
AcDbLine
 10
156.349999
 20
281.025
 30
0.0
 11
156.349999
 21
305.475272
 31
0.0
  0
LINE
  5
141B
100
AcDbEntity
  8
10000_FRONT
370
    25
390
0
  6
CONTINUOUS
 62
     7
100
AcDbLine
 10
156.349999
 20
305.475272
 30
0.0
 11
156.349999
 21
306.124998
 31
0.0
  0
LINE
  5
141C
100
AcDbEntity
  8
10000_FRONT
370
    25
390
0
  6
CONTINUOUS
 62
     7
100
AcDbLine
 10
157.949997
 20
275.177943
 30
0.0
 11
157.949997
 21
279.074999
 31
0.0
  0
LINE
  5
141D
100
AcDbEntity
  8
10000_FRONT
370
    25
390
0
  6
CONTINUOUS
 62
     7
100
AcDbLine
 10
158.349999
 20
136.425002
 30
0.0
 11
158.349999
 21
163.475001
 31
0.0
  0
LINE
  5
141E
100
AcDbEntity
  8
10000_FRONT
370
    25
390
0
  6
CONTINUOUS
 62
     7
100
AcDbLine
 10
158.349999
 20
279.074999
 30
0.0
 11
158.349999
 21
279.975275
 31
0.0
  0
LINE
  5
141F
100
AcDbEntity
  8
10000_FRONT
370
    25
390
0
  6
CONTINUOUS
 62
     7
100
AcDbLine
 10
158.349999
 20
305.475272
 30
0.0
 11
158.349999
 21
306.124998
 31
0.0
  0
LINE
  5
1420
100
AcDbEntity
  8
10000_FRONT
370
    25
390
0
  6
CONTINUOUS
 62
     7
100
AcDbLine
 10
158.349999
 20
279.975275
 30
0.0
 11
158.349999
 21
305.475272
 31
0.0
  0
LINE
  5
1421
100
AcDbEntity
  8
10000_FRONT
370
    25
390
0
  6
CONTINUOUS
 62
     7
100
AcDbLine
 10
160.340001
 20
146.425002
 30
0.0
 11
160.340001
 21
163.475001
 31
0.0
  0
LINE
  5
1422
100
AcDbEntity
  8
10000_FRONT
370
    25
390
0
  6
CONTINUOUS
 62
     7
100
AcDbLine
 10
160.340001
 20
279.074999
 30
0.0
 11
160.340001
 21
295.774725
 31
0.0
  0
LINE
  5
1423
100
AcDbEntity
  8
10000_FRONT
370
    25
390
0
  6
CONTINUOUS
 62
     7
100
AcDbLine
 10
160.340001
 20
295.774725
 30
0.0
 11
160.340001
 21
296.124998
 31
0.0
  0
LINE
  5
1424
100
AcDbEntity
  8
10000_FRONT
370
    25
390
0
  6
CONTINUOUS
 62
     7
100
AcDbLine
 10
160.349999
 20
138.775
 30
0.0
 11
160.349999
 21
303.775
 31
0.0
  0
LINE
  5
1425
100
AcDbEntity
  8
10000_FRONT
370
    25
390
0
  6
CONTINUOUS
 62
     7
100
AcDbLine
 10
97.995922
 20
223.476924
 30
0.0
 11
97.993162
 21
225.874755
 31
0.0
  0
ARC
  5
1426
100
AcDbEntity
  8
10000_FRONT
370
    25
390
0
  6
CONTINUOUS
 62
     7
100
AcDbCircle
 10
96.130889
 20
274.623591
 30
0.0
 40
0.150001
100
AcDbArc
 50
20.318514
 51
52.522523
  0
ARC
  5
1427
100
AcDbEntity
  8
10000_FRONT
370
    25
390
0
  6
CONTINUOUS
 62
     7
100
AcDbCircle
 10
96.130889
 20
274.623591
 30
0.0
 40
0.4
100
AcDbArc
 50
20.318215
 51
52.522495
  0
ARC
  5
1428
100
AcDbEntity
  8
10000_FRONT
370
    25
390
0
  6
CONTINUOUS
 62
     7
100
AcDbCircle
 10
96.169194
 20
274.531218
 30
0.0
 40
0.15
100
AcDbArc
 50
352.522723
 51
24.727051
  0
ARC
  5
1429
100
AcDbEntity
  8
10000_FRONT
370
    25
390
0
  6
CONTINUOUS
 62
     7
100
AcDbCircle
 10
96.169194
 20
274.531218
 30
0.0
 40
0.4
100
AcDbArc
 50
352.522415
 51
24.726729
  0
ARC
  5
142A
100
AcDbEntity
  8
10000_FRONT
370
    25
390
0
  6
CONTINUOUS
 62
     7
100
AcDbCircle
 10
96.288668
 20
275.825716
 30
0.0
 40
0.15
100
AcDbArc
 50
292.523033
 51
324.727328
  0
ARC
  5
142B
100
AcDbEntity
  8
10000_FRONT
370
    25
390
0
  6
CONTINUOUS
 62
     7
100
AcDbCircle
 10
96.288668
 20
275.825716
 30
0.0
 40
0.4
100
AcDbArc
 50
292.522691
 51
324.726723
  0
ARC
  5
142C
100
AcDbEntity
  8
10000_FRONT
370
    25
390
0
  6
CONTINUOUS
 62
     7
100
AcDbCircle
 10
96.349512
 20
275.905076
 30
0.0
 40
0.15
100
AcDbArc
 50
320.318492
 51
352.523347
  0
ARC
  5
142D
100
AcDbEntity
  8
10000_FRONT
370
    25
390
0
  6
CONTINUOUS
 62
     7
100
AcDbCircle
 10
96.349512
 20
275.905076
 30
0.0
 40
0.4
100
AcDbArc
 50
320.31854
 51
352.522649
  0
ARC
  5
142E
100
AcDbEntity
  8
10000_FRONT
370
    25
390
0
  6
CONTINUOUS
 62
     7
100
AcDbCircle
 10
96.358503
 20
275.205134
 30
0.0
 40
0.2
100
AcDbArc
 50
112.522479
 51
232.522501
  0
ARC
  5
142F
100
AcDbEntity
  8
10000_FRONT
370
    25
390
0
  6
CONTINUOUS
 62
     7
100
AcDbCircle
 10
96.358503
 20
275.205134
 30
0.0
 40
0.45
100
AcDbArc
 50
112.522669
 51
232.522682
  0
ARC
  5
1430
100
AcDbEntity
  8
10000_FRONT
370
    25
390
0
  6
CONTINUOUS
 62
     7
100
AcDbCircle
 10
96.741552
 20
274.281406
 30
0.0
 40
0.2
100
AcDbArc
 50
172.522624
 51
292.522617
  0
ARC
  5
1431
100
AcDbEntity
  8
10000_FRONT
370
    25
390
0
  6
CONTINUOUS
 62
     7
100
AcDbCircle
 10
96.741552
 20
274.281406
 30
0.0
 40
0.45
100
AcDbArc
 50
172.522856
 51
292.522731
  0
ARC
  5
1432
100
AcDbEntity
  8
10000_FRONT
370
    25
390
0
  6
CONTINUOUS
 62
     7
100
AcDbCircle
 10
96.96695
 20
275.998728
 30
0.0
 40
0.2
100
AcDbArc
 50
52.522769
 51
172.522287
  0
ARC
  5
1433
100
AcDbEntity
  8
10000_FRONT
370
    25
390
0
  6
CONTINUOUS
 62
     7
100
AcDbCircle
 10
96.96695
 20
275.998728
 30
0.0
 40
0.449999
100
AcDbArc
 50
52.522608
 51
172.522706
  0
ARC
  5
1434
100
AcDbEntity
  8
10000_FRONT
370
    25
390
0
  6
CONTINUOUS
 62
     7
100
AcDbCircle
 10
97.131375
 20
273.793515
 30
0.0
 40
0.15
100
AcDbArc
 50
80.318306
 51
112.522728
  0
ARC
  5
1435
100
AcDbEntity
  8
10000_FRONT
370
    25
390
0
  6
CONTINUOUS
 62
     7
100
AcDbCircle
 10
97.131375
 20
273.793515
 30
0.0
 40
0.4
100
AcDbArc
 50
80.318602
 51
112.522786
  0
ARC
  5
1436
100
AcDbEntity
  8
10000_FRONT
370
    25
390
0
  6
CONTINUOUS
 62
     7
100
AcDbCircle
 10
97.230525
 20
273.780501
 30
0.0
 40
0.15
100
AcDbArc
 50
52.523377
 51
84.726692
  0
ARC
  5
1437
100
AcDbEntity
  8
10000_FRONT
370
    25
390
0
  6
CONTINUOUS
 62
     7
100
AcDbCircle
 10
97.230525
 20
273.780501
 30
0.0
 40
0.4
100
AcDbArc
 50
52.522816
 51
84.726818
  0
ARC
  5
1438
100
AcDbEntity
  8
10000_FRONT
370
    25
390
0
  6
CONTINUOUS
 62
     7
100
AcDbCircle
 10
97.349995
 20
275.074998
 30
0.0
 40
0.899995
100
AcDbArc
 50
200.318541
 51
204.726992
  0
ARC
  5
1439
100
AcDbEntity
  8
10000_FRONT
370
    25
390
0
  6
CONTINUOUS
 62
     7
100
AcDbCircle
 10
97.349995
 20
275.074998
 30
0.0
 40
1.149996
100
AcDbArc
 50
200.318431
 51
204.726893
  0
ARC
  5
143A
100
AcDbEntity
  8
10000_FRONT
370
    25
390
0
  6
CONTINUOUS
 62
     7
100
AcDbCircle
 10
97.349996
 20
275.075002
 30
0.0
 40
0.899997
100
AcDbArc
 50
140.318402
 51
144.726995
  0
ARC
  5
143B
100
AcDbEntity
  8
10000_FRONT
370
    25
390
0
  6
CONTINUOUS
 62
     7
100
AcDbCircle
 10
97.349996
 20
275.075002
 30
0.0
 40
1.149996
100
AcDbArc
 50
140.318439
 51
144.726857
  0
ARC
  5
143C
100
AcDbEntity
  8
10000_FRONT
370
    25
390
0
  6
CONTINUOUS
 62
     7
100
AcDbCircle
 10
97.349998
 20
275.074992
 30
0.0
 40
0.899992
100
AcDbArc
 50
260.31836
 51
264.726961
  0
ARC
  5
143D
100
AcDbEntity
  8
10000_FRONT
370
    25
390
0
  6
CONTINUOUS
 62
     7
100
AcDbCircle
 10
97.349998
 20
275.074992
 30
0.0
 40
1.149992
100
AcDbArc
 50
260.318451
 51
264.726946
  0
ARC
  5
143E
100
AcDbEntity
  8
10000_FRONT
370
    25
390
0
  6
CONTINUOUS
 62
     7
100
AcDbCircle
 10
97.349999
 20
275.075001
 30
0.0
 40
0.899999
100
AcDbArc
 50
80.318399
 51
84.726931
  0
ARC
  5
143F
100
AcDbEntity
  8
10000_FRONT
370
    25
390
0
  6
CONTINUOUS
 62
     7
100
AcDbCircle
 10
97.349999
 20
275.075001
 30
0.0
 40
1.149999
100
AcDbArc
 50
80.31845
 51
84.726923
  0
CIRCLE
  5
1440
100
AcDbEntity
  8
10000_FRONT
370
    25
390
0
  6
CONTINUOUS
 62
     7
100
AcDbCircle
 10
97.349999
 20
275.075
 30
0.0
 40
1.631966
  0
CIRCLE
  5
1441
100
AcDbEntity
  8
10000_FRONT
370
    25
390
0
  6
CONTINUOUS
 62
     7
100
AcDbCircle
 10
97.349999
 20
275.075
 30
0.0
 40
1.855573
  0
CIRCLE
  5
1442
100
AcDbEntity
  8
10000_FRONT
370
    25
390
0
  6
CONTINUOUS
 62
     7
100
AcDbCircle
 10
97.349999
 20
275.075
 30
0.0
 40
2.473607
  0
CIRCLE
  5
1443
100
AcDbEntity
  8
10000_FRONT
370
    25
390
0
  6
CONTINUOUS
 62
     7
100
AcDbCircle
 10
97.349999
 20
275.075
 30
0.0
 40
2.75
  0
ARC
  5
1444
100
AcDbEntity
  8
10000_FRONT
370
    25
390
0
  6
CONTINUOUS
 62
     7
100
AcDbCircle
 10
97.350002
 20
275.074998
 30
0.0
 40
0.899997
100
AcDbArc
 50
320.318356
 51
324.726946
  0
ARC
  5
1445
100
AcDbEntity
  8
10000_FRONT
370
    25
390
0
  6
CONTINUOUS
 62
     7
100
AcDbCircle
 10
97.350002
 20
275.074998
 30
0.0
 40
1.149996
100
AcDbArc
 50
320.318402
 51
324.726819
  0
ARC
  5
1446
100
AcDbEntity
  8
10000_FRONT
370
    25
390
0
  6
CONTINUOUS
 62
     7
100
AcDbCircle
 10
97.350003
 20
275.075001
 30
0.0
 40
0.899995
100
AcDbArc
 50
20.318485
 51
24.726938
  0
ARC
  5
1447
100
AcDbEntity
  8
10000_FRONT
370
    25
390
0
  6
CONTINUOUS
 62
     7
100
AcDbCircle
 10
97.350003
 20
275.075001
 30
0.0
 40
1.149996
100
AcDbArc
 50
20.318387
 51
24.726851
  0
ARC
  5
1448
100
AcDbEntity
  8
10000_FRONT
370
    25
390
0
  6
CONTINUOUS
 62
     7
100
AcDbCircle
 10
97.469473
 20
276.369498
 30
0.0
 40
0.15
100
AcDbArc
 50
232.52271
 51
264.726725
  0
ARC
  5
1449
100
AcDbEntity
  8
10000_FRONT
370
    25
390
0
  6
CONTINUOUS
 62
     7
100
AcDbCircle
 10
97.469473
 20
276.369498
 30
0.0
 40
0.4
100
AcDbArc
 50
232.522566
 51
264.726831
  0
ARC
  5
144A
100
AcDbEntity
  8
10000_FRONT
370
    25
390
0
  6
CONTINUOUS
 62
     7
100
AcDbCircle
 10
97.568623
 20
276.356485
 30
0.0
 40
0.15
100
AcDbArc
 50
260.318366
 51
292.522591
  0
ARC
  5
144B
100
AcDbEntity
  8
10000_FRONT
370
    25
390
0
  6
CONTINUOUS
 62
     7
100
AcDbCircle
 10
97.568623
 20
276.356485
 30
0.0
 40
0.4
100
AcDbArc
 50
260.318533
 51
292.522735
  0
ARC
  5
144C
100
AcDbEntity
  8
10000_FRONT
370
    25
390
0
  6
CONTINUOUS
 62
     7
100
AcDbCircle
 10
97.733048
 20
274.151272
 30
0.0
 40
0.2
100
AcDbArc
 50
232.522934
 51
352.523102
  0
ARC
  5
144D
100
AcDbEntity
  8
10000_FRONT
370
    25
390
0
  6
CONTINUOUS
 62
     7
100
AcDbCircle
 10
97.733048
 20
274.151272
 30
0.0
 40
0.449999
100
AcDbArc
 50
232.522681
 51
352.522586
  0
ARC
  5
144E
100
AcDbEntity
  8
10000_FRONT
370
    25
390
0
  6
CONTINUOUS
 62
     7
100
AcDbCircle
 10
97.958446
 20
275.868594
 30
0.0
 40
0.2
100
AcDbArc
 50
352.522355
 51
112.522723
  0
ARC
  5
144F
100
AcDbEntity
  8
10000_FRONT
370
    25
390
0
  6
CONTINUOUS
 62
     7
100
AcDbCircle
 10
97.958446
 20
275.868594
 30
0.0
 40
0.45
100
AcDbArc
 50
352.522736
 51
112.522777
  0
ARC
  5
1450
100
AcDbEntity
  8
10000_FRONT
370
    25
390
0
  6
CONTINUOUS
 62
     7
100
AcDbCircle
 10
98.341495
 20
274.944866
 30
0.0
 40
0.2
100
AcDbArc
 50
292.522375
 51
52.523001
  0
ARC
  5
1451
100
AcDbEntity
  8
10000_FRONT
370
    25
390
0
  6
CONTINUOUS
 62
     7
100
AcDbCircle
 10
98.341495
 20
274.944866
 30
0.0
 40
0.45
100
AcDbArc
 50
292.522623
 51
52.522904
  0
ARC
  5
1452
100
AcDbEntity
  8
10000_FRONT
370
    25
390
0
  6
CONTINUOUS
 62
     7
100
AcDbCircle
 10
98.350486
 20
274.244924
 30
0.0
 40
0.15
100
AcDbArc
 50
140.31877
 51
172.52226
  0
ARC
  5
1453
100
AcDbEntity
  8
10000_FRONT
370
    25
390
0
  6
CONTINUOUS
 62
     7
100
AcDbCircle
 10
98.350486
 20
274.244924
 30
0.0
 40
0.4
100
AcDbArc
 50
140.318644
 51
172.522784
  0
ARC
  5
1454
100
AcDbEntity
  8
10000_FRONT
370
    25
390
0
  6
CONTINUOUS
 62
     7
100
AcDbCircle
 10
98.41133
 20
274.324283
 30
0.0
 40
0.15
100
AcDbArc
 50
112.522613
 51
144.727623
  0
ARC
  5
1455
100
AcDbEntity
  8
10000_FRONT
370
    25
390
0
  6
CONTINUOUS
 62
     7
100
AcDbCircle
 10
98.41133
 20
274.324283
 30
0.0
 40
0.4
100
AcDbArc
 50
112.522743
 51
144.726834
  0
ARC
  5
1456
100
AcDbEntity
  8
10000_FRONT
370
    25
390
0
  6
CONTINUOUS
 62
     7
100
AcDbCircle
 10
98.530804
 20
275.618781
 30
0.0
 40
0.15
100
AcDbArc
 50
172.523077
 51
204.727376
  0
ARC
  5
1457
100
AcDbEntity
  8
10000_FRONT
370
    25
390
0
  6
CONTINUOUS
 62
     7
100
AcDbCircle
 10
98.530804
 20
275.618781
 30
0.0
 40
0.4
100
AcDbArc
 50
172.522548
 51
204.726851
  0
ARC
  5
1458
100
AcDbEntity
  8
10000_FRONT
370
    25
390
0
  6
CONTINUOUS
 62
     7
100
AcDbCircle
 10
98.569109
 20
275.526409
 30
0.0
 40
0.150001
100
AcDbArc
 50
200.31886
 51
232.52274
  0
ARC
  5
1459
100
AcDbEntity
  8
10000_FRONT
370
    25
390
0
  6
CONTINUOUS
 62
     7
100
AcDbCircle
 10
98.569109
 20
275.526409
 30
0.0
 40
0.4
100
AcDbArc
 50
200.318345
 51
232.522577
  0
POLYLINE
  5
145A
100
AcDbEntity
  8
10000_FRONT
370
    25
390
0
  6
CONTINUOUS
 62
     7
100
AcDb2dPolyline
 66
     1
 10
0.0
 20
0.0
 30
0.0
  0
VERTEX
  5
145B
100
AcDbEntity
  8
10000_FRONT
370
    25
390
0
  6
CONTINUOUS
 62
     7
100
AcDbVertex
100
AcDb2dVertex
 10
102.514862
 20
223.755771
 30
0.0
  0
VERTEX
  5
145C
100
AcDbEntity
  8
10000_FRONT
370
    25
390
0
  6
CONTINUOUS
 62
     7
100
AcDbVertex
100
AcDb2dVertex
 10
102.465515
 20
223.792735
 30
0.0
  0
VERTEX
  5
145D
100
AcDbEntity
  8
10000_FRONT
370
    25
390
0
  6
CONTINUOUS
 62
     7
100
AcDbVertex
100
AcDb2dVertex
 10
102.365645
 20
223.82761
 30
0.0
  0
VERTEX
  5
145E
100
AcDbEntity
  8
10000_FRONT
370
    25
390
0
  6
CONTINUOUS
 62
     7
100
AcDbVertex
100
AcDb2dVertex
 10
102.219146
 20
223.859036
 30
0.0
  0
VERTEX
  5
145F
100
AcDbEntity
  8
10000_FRONT
370
    25
390
0
  6
CONTINUOUS
 62
     7
100
AcDbVertex
100
AcDb2dVertex
 10
102.031731
 20
223.885788
 30
0.0
  0
VERTEX
  5
1460
100
AcDbEntity
  8
10000_FRONT
370
    25
390
0
  6
CONTINUOUS
 62
     7
100
AcDbVertex
100
AcDb2dVertex
 10
101.810709
 20
223.906821
 30
0.0
  0
VERTEX
  5
1461
100
AcDbEntity
  8
10000_FRONT
370
    25
390
0
  6
CONTINUOUS
 62
     7
100
AcDbVertex
100
AcDb2dVertex
 10
101.564701
 20
223.921316
 30
0.0
  0
VERTEX
  5
1462
100
AcDbEntity
  8
10000_FRONT
370
    25
390
0
  6
CONTINUOUS
 62
     7
100
AcDbVertex
100
AcDb2dVertex
 10
101.303299
 20
223.928708
 30
0.0
  0
VERTEX
  5
1463
100
AcDbEntity
  8
10000_FRONT
370
    25
390
0
  6
CONTINUOUS
 62
     7
100
AcDbVertex
100
AcDb2dVertex
 10
101.036699
 20
223.928708
 30
0.0
  0
VERTEX
  5
1464
100
AcDbEntity
  8
10000_FRONT
370
    25
390
0
  6
CONTINUOUS
 62
     7
100
AcDbVertex
100
AcDb2dVertex
 10
100.775297
 20
223.921316
 30
0.0
  0
VERTEX
  5
1465
100
AcDbEntity
  8
10000_FRONT
370
    25
390
0
  6
CONTINUOUS
 62
     7
100
AcDbVertex
100
AcDb2dVertex
 10
100.529289
 20
223.906821
 30
0.0
  0
VERTEX
  5
1466
100
AcDbEntity
  8
10000_FRONT
370
    25
390
0
  6
CONTINUOUS
 62
     7
100
AcDbVertex
100
AcDb2dVertex
 10
100.308267
 20
223.885788
 30
0.0
  0
VERTEX
  5
1467
100
AcDbEntity
  8
10000_FRONT
370
    25
390
0
  6
CONTINUOUS
 62
     7
100
AcDbVertex
100
AcDb2dVertex
 10
100.120852
 20
223.859036
 30
0.0
  0
VERTEX
  5
1468
100
AcDbEntity
  8
10000_FRONT
370
    25
390
0
  6
CONTINUOUS
 62
     7
100
AcDbVertex
100
AcDb2dVertex
 10
99.974353
 20
223.82761
 30
0.0
  0
VERTEX
  5
1469
100
AcDbEntity
  8
10000_FRONT
370
    25
390
0
  6
CONTINUOUS
 62
     7
100
AcDbVertex
100
AcDb2dVertex
 10
99.874483
 20
223.792735
 30
0.0
  0
VERTEX
  5
146A
100
AcDbEntity
  8
10000_FRONT
370
    25
390
0
  6
CONTINUOUS
 62
     7
100
AcDbVertex
100
AcDb2dVertex
 10
99.825136
 20
223.755771
 30
0.0
  0
SEQEND
  5
146B
100
AcDbEntity
  8
10000_FRONT
370
    25
390
0
  6
CONTINUOUS
 62
     7
  0
POLYLINE
  5
146C
100
AcDbEntity
  8
10000_FRONT
370
    25
390
0
  6
CONTINUOUS
 62
     7
100
AcDb2dPolyline
 66
     1
 10
0.0
 20
0.0
 30
0.0
  0
VERTEX
  5
146D
100
AcDbEntity
  8
10000_FRONT
370
    25
390
0
  6
CONTINUOUS
 62
     7
100
AcDbVertex
100
AcDb2dVertex
 10
104.158583
 20
223.77606
 30
0.0
  0
VERTEX
  5
146E
100
AcDbEntity
  8
10000_FRONT
370
    25
390
0
  6
CONTINUOUS
 62
     7
100
AcDbVertex
100
AcDb2dVertex
 10
104.048924
 20
223.858203
 30
0.0
  0
VERTEX
  5
146F
100
AcDbEntity
  8
10000_FRONT
370
    25
390
0
  6
CONTINUOUS
 62
     7
100
AcDbVertex
100
AcDb2dVertex
 10
103.826991
 20
223.935703
 30
0.0
  0
VERTEX
  5
1470
100
AcDbEntity
  8
10000_FRONT
370
    25
390
0
  6
CONTINUOUS
 62
     7
100
AcDbVertex
100
AcDb2dVertex
 10
103.501437
 20
224.005539
 30
0.0
  0
VERTEX
  5
1471
100
AcDbEntity
  8
10000_FRONT
370
    25
390
0
  6
CONTINUOUS
 62
     7
100
AcDbVertex
100
AcDb2dVertex
 10
103.084959
 20
224.064987
 30
0.0
  0
VERTEX
  5
1472
100
AcDbEntity
  8
10000_FRONT
370
    25
390
0
  6
CONTINUOUS
 62
     7
100
AcDbVertex
100
AcDb2dVertex
 10
102.5938
 20
224.111728
 30
0.0
  0
VERTEX
  5
1473
100
AcDbEntity
  8
10000_FRONT
370
    25
390
0
  6
CONTINUOUS
 62
     7
100
AcDbVertex
100
AcDb2dVertex
 10
102.047114
 20
224.14394
 30
0.0
  0
VERTEX
  5
1474
100
AcDbEntity
  8
10000_FRONT
370
    25
390
0
  6
CONTINUOUS
 62
     7
100
AcDbVertex
100
AcDb2dVertex
 10
101.466222
 20
224.160367
 30
0.0
  0
VERTEX
  5
1475
100
AcDbEntity
  8
10000_FRONT
370
    25
390
0
  6
CONTINUOUS
 62
     7
100
AcDbVertex
100
AcDb2dVertex
 10
100.873777
 20
224.160367
 30
0.0
  0
VERTEX
  5
1476
100
AcDbEntity
  8
10000_FRONT
370
    25
390
0
  6
CONTINUOUS
 62
     7
100
AcDbVertex
100
AcDb2dVertex
 10
100.292884
 20
224.14394
 30
0.0
  0
VERTEX
  5
1477
100
AcDbEntity
  8
10000_FRONT
370
    25
390
0
  6
CONTINUOUS
 62
     7
100
AcDbVertex
100
AcDb2dVertex
 10
99.746198
 20
224.111728
 30
0.0
  0
VERTEX
  5
1478
100
AcDbEntity
  8
10000_FRONT
370
    25
390
0
  6
CONTINUOUS
 62
     7
100
AcDbVertex
100
AcDb2dVertex
 10
99.255039
 20
224.064987
 30
0.0
  0
VERTEX
  5
1479
100
AcDbEntity
  8
10000_FRONT
370
    25
390
0
  6
CONTINUOUS
 62
     7
100
AcDbVertex
100
AcDb2dVertex
 10
98.838561
 20
224.005539
 30
0.0
  0
VERTEX
  5
147A
100
AcDbEntity
  8
10000_FRONT
370
    25
390
0
  6
CONTINUOUS
 62
     7
100
AcDbVertex
100
AcDb2dVertex
 10
98.513007
 20
223.935703
 30
0.0
  0
VERTEX
  5
147B
100
AcDbEntity
  8
10000_FRONT
370
    25
390
0
  6
CONTINUOUS
 62
     7
100
AcDbVertex
100
AcDb2dVertex
 10
98.291074
 20
223.858203
 30
0.0
  0
VERTEX
  5
147C
100
AcDbEntity
  8
10000_FRONT
370
    25
390
0
  6
CONTINUOUS
 62
     7
100
AcDbVertex
100
AcDb2dVertex
 10
98.181415
 20
223.77606
 30
0.0
  0
SEQEND
  5
147D
100
AcDbEntity
  8
10000_FRONT
370
    25
390
0
  6
CONTINUOUS
 62
     7
  0
POLYLINE
  5
147E
100
AcDbEntity
  8
10000_FRONT
370
    25
390
0
  6
CONTINUOUS
 62
     7
100
AcDb2dPolyline
 66
     1
 10
0.0
 20
0.0
 30
0.0
  0
VERTEX
  5
147F
100
AcDbEntity
  8
10000_FRONT
370
    25
390
0
  6
CONTINUOUS
 62
     7
100
AcDbVertex
100
AcDb2dVertex
 10
99.825136
 20
225.804368
 30
0.0
  0
VERTEX
  5
1480
100
AcDbEntity
  8
10000_FRONT
370
    25
390
0
  6
CONTINUOUS
 62
     7
100
AcDbVertex
100
AcDb2dVertex
 10
99.874482
 20
225.795184
 30
0.0
  0
VERTEX
  5
1481
100
AcDbEntity
  8
10000_FRONT
370
    25
390
0
  6
CONTINUOUS
 62
     7
100
AcDbVertex
100
AcDb2dVertex
 10
99.974352
 20
225.786519
 30
0.0
  0
VERTEX
  5
1482
100
AcDbEntity
  8
10000_FRONT
370
    25
390
0
  6
CONTINUOUS
 62
     7
100
AcDbVertex
100
AcDb2dVertex
 10
100.120851
 20
225.778711
 30
0.0
  0
VERTEX
  5
1483
100
AcDbEntity
  8
10000_FRONT
370
    25
390
0
  6
CONTINUOUS
 62
     7
100
AcDbVertex
100
AcDb2dVertex
 10
100.308266
 20
225.772064
 30
0.0
  0
VERTEX
  5
1484
100
AcDbEntity
  8
10000_FRONT
370
    25
390
0
  6
CONTINUOUS
 62
     7
100
AcDbVertex
100
AcDb2dVertex
 10
100.529288
 20
225.766838
 30
0.0
  0
VERTEX
  5
1485
100
AcDbEntity
  8
10000_FRONT
370
    25
390
0
  6
CONTINUOUS
 62
     7
100
AcDbVertex
100
AcDb2dVertex
 10
100.775297
 20
225.763237
 30
0.0
  0
VERTEX
  5
1486
100
AcDbEntity
  8
10000_FRONT
370
    25
390
0
  6
CONTINUOUS
 62
     7
100
AcDbVertex
100
AcDb2dVertex
 10
101.036699
 20
225.7614
 30
0.0
  0
VERTEX
  5
1487
100
AcDbEntity
  8
10000_FRONT
370
    25
390
0
  6
CONTINUOUS
 62
     7
100
AcDbVertex
100
AcDb2dVertex
 10
101.303299
 20
225.7614
 30
0.0
  0
VERTEX
  5
1488
100
AcDbEntity
  8
10000_FRONT
370
    25
390
0
  6
CONTINUOUS
 62
     7
100
AcDbVertex
100
AcDb2dVertex
 10
101.564701
 20
225.763237
 30
0.0
  0
VERTEX
  5
1489
100
AcDbEntity
  8
10000_FRONT
370
    25
390
0
  6
CONTINUOUS
 62
     7
100
AcDbVertex
100
AcDb2dVertex
 10
101.81071
 20
225.766838
 30
0.0
  0
VERTEX
  5
148A
100
AcDbEntity
  8
10000_FRONT
370
    25
390
0
  6
CONTINUOUS
 62
     7
100
AcDbVertex
100
AcDb2dVertex
 10
102.031732
 20
225.772064
 30
0.0
  0
VERTEX
  5
148B
100
AcDbEntity
  8
10000_FRONT
370
    25
390
0
  6
CONTINUOUS
 62
     7
100
AcDbVertex
100
AcDb2dVertex
 10
102.219147
 20
225.778711
 30
0.0
  0
VERTEX
  5
148C
100
AcDbEntity
  8
10000_FRONT
370
    25
390
0
  6
CONTINUOUS
 62
     7
100
AcDbVertex
100
AcDb2dVertex
 10
102.365646
 20
225.786519
 30
0.0
  0
VERTEX
  5
148D
100
AcDbEntity
  8
10000_FRONT
370
    25
390
0
  6
CONTINUOUS
 62
     7
100
AcDbVertex
100
AcDb2dVertex
 10
102.465516
 20
225.795184
 30
0.0
  0
VERTEX
  5
148E
100
AcDbEntity
  8
10000_FRONT
370
    25
390
0
  6
CONTINUOUS
 62
     7
100
AcDbVertex
100
AcDb2dVertex
 10
102.514862
 20
225.804368
 30
0.0
  0
SEQEND
  5
148F
100
AcDbEntity
  8
10000_FRONT
370
    25
390
0
  6
CONTINUOUS
 62
     7
  0
POLYLINE
  5
1490
100
AcDbEntity
  8
10000_FRONT
370
    25
390
0
  6
CONTINUOUS
 62
     7
100
AcDb2dPolyline
 66
     1
 10
0.0
 20
0.0
 30
0.0
  0
VERTEX
  5
1491
100
AcDbEntity
  8
10000_FRONT
370
    25
390
0
  6
CONTINUOUS
 62
     7
100
AcDbVertex
100
AcDb2dVertex
 10
98.181415
 20
225.799326
 30
0.0
  0
VERTEX
  5
1492
100
AcDbEntity
  8
10000_FRONT
370
    25
390
0
  6
CONTINUOUS
 62
     7
100
AcDbVertex
100
AcDb2dVertex
 10
98.291073
 20
225.778918
 30
0.0
  0
VERTEX
  5
1493
100
AcDbEntity
  8
10000_FRONT
370
    25
390
0
  6
CONTINUOUS
 62
     7
100
AcDbVertex
100
AcDb2dVertex
 10
98.513007
 20
225.759662
 30
0.0
  0
VERTEX
  5
1494
100
AcDbEntity
  8
10000_FRONT
370
    25
390
0
  6
CONTINUOUS
 62
     7
100
AcDbVertex
100
AcDb2dVertex
 10
98.838561
 20
225.742311
 30
0.0
  0
VERTEX
  5
1495
100
AcDbEntity
  8
10000_FRONT
370
    25
390
0
  6
CONTINUOUS
 62
     7
100
AcDbVertex
100
AcDb2dVertex
 10
99.255038
 20
225.727541
 30
0.0
  0
VERTEX
  5
1496
100
AcDbEntity
  8
10000_FRONT
370
    25
390
0
  6
CONTINUOUS
 62
     7
100
AcDbVertex
100
AcDb2dVertex
 10
99.746197
 20
225.715927
 30
0.0
  0
VERTEX
  5
1497
100
AcDbEntity
  8
10000_FRONT
370
    25
390
0
  6
CONTINUOUS
 62
     7
100
AcDbVertex
100
AcDb2dVertex
 10
100.292884
 20
225.707924
 30
0.0
  0
VERTEX
  5
1498
100
AcDbEntity
  8
10000_FRONT
370
    25
390
0
  6
CONTINUOUS
 62
     7
100
AcDbVertex
100
AcDb2dVertex
 10
100.873776
 20
225.703843
 30
0.0
  0
VERTEX
  5
1499
100
AcDbEntity
  8
10000_FRONT
370
    25
390
0
  6
CONTINUOUS
 62
     7
100
AcDbVertex
100
AcDb2dVertex
 10
101.466222
 20
225.703843
 30
0.0
  0
VERTEX
  5
149A
100
AcDbEntity
  8
10000_FRONT
370
    25
390
0
  6
CONTINUOUS
 62
     7
100
AcDbVertex
100
AcDb2dVertex
 10
102.047114
 20
225.707924
 30
0.0
  0
VERTEX
  5
149B
100
AcDbEntity
  8
10000_FRONT
370
    25
390
0
  6
CONTINUOUS
 62
     7
100
AcDbVertex
100
AcDb2dVertex
 10
102.593801
 20
225.715927
 30
0.0
  0
VERTEX
  5
149C
100
AcDbEntity
  8
10000_FRONT
370
    25
390
0
  6
CONTINUOUS
 62
     7
100
AcDbVertex
100
AcDb2dVertex
 10
103.08496
 20
225.727541
 30
0.0
  0
VERTEX
  5
149D
100
AcDbEntity
  8
10000_FRONT
370
    25
390
0
  6
CONTINUOUS
 62
     7
100
AcDbVertex
100
AcDb2dVertex
 10
103.501437
 20
225.742311
 30
0.0
  0
VERTEX
  5
149E
100
AcDbEntity
  8
10000_FRONT
370
    25
390
0
  6
CONTINUOUS
 62
     7
100
AcDbVertex
100
AcDb2dVertex
 10
103.826991
 20
225.759662
 30
0.0
  0
VERTEX
  5
149F
100
AcDbEntity
  8
10000_FRONT
370
    25
390
0
  6
CONTINUOUS
 62
     7
100
AcDbVertex
100
AcDb2dVertex
 10
104.048925
 20
225.778918
 30
0.0
  0
VERTEX
  5
14A0
100
AcDbEntity
  8
10000_FRONT
370
    25
390
0
  6
CONTINUOUS
 62
     7
100
AcDbVertex
100
AcDb2dVertex
 10
104.158583
 20
225.799326
 30
0.0
  0
SEQEND
  5
14A1
100
AcDbEntity
  8
10000_FRONT
370
    25
390
0
  6
CONTINUOUS
 62
     7
  0
CIRCLE
  5
14A2
100
AcDbEntity
  8
10000_FRONT
370
    25
390
0
  6
CONTINUOUS
 62
     7
100
AcDbCircle
 10
102.849999
 20
157.025
 30
0.0
 40
3.0
  0
CIRCLE
  5
14A3
100
AcDbEntity
  8
10000_FRONT
370
    25
390
0
  6
CONTINUOUS
 62
     7
100
AcDbCircle
 10
102.849999
 20
285.525
 30
0.0
 40
3.0
  0
ARC
  5
14A4
100
AcDbEntity
  8
10000_FRONT
370
    25
390
0
  6
CONTINUOUS
 62
     7
100
AcDbCircle
 10
112.880889
 20
167.023591
 30
0.0
 40
0.150001
100
AcDbArc
 50
20.31906
 51
52.522588
  0
ARC
  5
14A5
100
AcDbEntity
  8
10000_FRONT
370
    25
390
0
  6
CONTINUOUS
 62
     7
100
AcDbCircle
 10
112.880889
 20
167.023591
 30
0.0
 40
0.4
100
AcDbArc
 50
20.31842
 51
52.522628
  0
ARC
  5
14A6
100
AcDbEntity
  8
10000_FRONT
370
    25
390
0
  6
CONTINUOUS
 62
     7
100
AcDbCircle
 10
112.919194
 20
166.931218
 30
0.0
 40
0.15
100
AcDbArc
 50
352.523348
 51
24.727428
  0
ARC
  5
14A7
100
AcDbEntity
  8
10000_FRONT
370
    25
390
0
  6
CONTINUOUS
 62
     7
100
AcDbCircle
 10
112.919194
 20
166.931218
 30
0.0
 40
0.4
100
AcDbArc
 50
352.522632
 51
24.726985
  0
ARC
  5
14A8
100
AcDbEntity
  8
10000_FRONT
370
    25
390
0
  6
CONTINUOUS
 62
     7
100
AcDbCircle
 10
113.038668
 20
168.225716
 30
0.0
 40
0.15
100
AcDbArc
 50
292.522698
 51
324.726404
  0
ARC
  5
14A9
100
AcDbEntity
  8
10000_FRONT
370
    25
390
0
  6
CONTINUOUS
 62
     7
100
AcDbCircle
 10
113.038668
 20
168.225716
 30
0.0
 40
0.4
100
AcDbArc
 50
292.522775
 51
324.726901
  0
ARC
  5
14AA
100
AcDbEntity
  8
10000_FRONT
370
    25
390
0
  6
CONTINUOUS
 62
     7
100
AcDbCircle
 10
113.099512
 20
168.305076
 30
0.0
 40
0.15
100
AcDbArc
 50
320.318941
 51
352.522527
  0
ARC
  5
14AB
100
AcDbEntity
  8
10000_FRONT
370
    25
390
0
  6
CONTINUOUS
 62
     7
100
AcDbCircle
 10
113.099512
 20
168.305076
 30
0.0
 40
0.4
100
AcDbArc
 50
320.318621
 51
352.522848
  0
ARC
  5
14AC
100
AcDbEntity
  8
10000_FRONT
370
    25
390
0
  6
CONTINUOUS
 62
     7
100
AcDbCircle
 10
113.108503
 20
167.605134
 30
0.0
 40
0.2
100
AcDbArc
 50
112.522983
 51
232.5229
  0
ARC
  5
14AD
100
AcDbEntity
  8
10000_FRONT
370
    25
390
0
  6
CONTINUOUS
 62
     7
100
AcDbCircle
 10
113.108503
 20
167.605134
 30
0.0
 40
0.45
100
AcDbArc
 50
112.522707
 51
232.522763
  0
ARC
  5
14AE
100
AcDbEntity
  8
10000_FRONT
370
    25
390
0
  6
CONTINUOUS
 62
     7
100
AcDbCircle
 10
113.491552
 20
166.681406
 30
0.0
 40
0.2
100
AcDbArc
 50
172.522155
 51
292.522785
  0
ARC
  5
14AF
100
AcDbEntity
  8
10000_FRONT
370
    25
390
0
  6
CONTINUOUS
 62
     7
100
AcDbCircle
 10
113.491552
 20
166.681406
 30
0.0
 40
0.45
100
AcDbArc
 50
172.522663
 51
292.522619
  0
ARC
  5
14B0
100
AcDbEntity
  8
10000_FRONT
370
    25
390
0
  6
CONTINUOUS
 62
     7
100
AcDbCircle
 10
113.71695
 20
168.398728
 30
0.0
 40
0.2
100
AcDbArc
 50
52.522818
 51
172.522937
  0
ARC
  5
14B1
100
AcDbEntity
  8
10000_FRONT
370
    25
390
0
  6
CONTINUOUS
 62
     7
100
AcDbCircle
 10
113.71695
 20
168.398728
 30
0.0
 40
0.449999
100
AcDbArc
 50
52.522823
 51
172.522529
  0
ARC
  5
14B2
100
AcDbEntity
  8
10000_FRONT
370
    25
390
0
  6
CONTINUOUS
 62
     7
100
AcDbCircle
 10
113.881375
 20
166.193515
 30
0.0
 40
0.15
100
AcDbArc
 50
80.318404
 51
112.522505
  0
ARC
  5
14B3
100
AcDbEntity
  8
10000_FRONT
370
    25
390
0
  6
CONTINUOUS
 62
     7
100
AcDbCircle
 10
113.881375
 20
166.193515
 30
0.0
 40
0.4
100
AcDbArc
 50
80.318413
 51
112.522702
  0
ARC
  5
14B4
100
AcDbEntity
  8
10000_FRONT
370
    25
390
0
  6
CONTINUOUS
 62
     7
100
AcDbCircle
 10
113.980525
 20
166.180501
 30
0.0
 40
0.15
100
AcDbArc
 50
52.522556
 51
84.726745
  0
ARC
  5
14B5
100
AcDbEntity
  8
10000_FRONT
370
    25
390
0
  6
CONTINUOUS
 62
     7
100
AcDbCircle
 10
113.980525
 20
166.180501
 30
0.0
 40
0.4
100
AcDbArc
 50
52.522616
 51
84.726974
  0
ARC
  5
14B6
100
AcDbEntity
  8
10000_FRONT
370
    25
390
0
  6
CONTINUOUS
 62
     7
100
AcDbCircle
 10
114.099995
 20
167.474998
 30
0.0
 40
0.899995
100
AcDbArc
 50
200.31845
 51
204.726878
  0
ARC
  5
14B7
100
AcDbEntity
  8
10000_FRONT
370
    25
390
0
  6
CONTINUOUS
 62
     7
100
AcDbCircle
 10
114.099995
 20
167.474998
 30
0.0
 40
1.149996
100
AcDbArc
 50
200.31836
 51
204.726844
  0
ARC
  5
14B8
100
AcDbEntity
  8
10000_FRONT
370
    25
390
0
  6
CONTINUOUS
 62
     7
100
AcDbCircle
 10
114.099996
 20
167.475002
 30
0.0
 40
0.899997
100
AcDbArc
 50
140.318366
 51
144.726916
  0
ARC
  5
14B9
100
AcDbEntity
  8
10000_FRONT
370
    25
390
0
  6
CONTINUOUS
 62
     7
100
AcDbCircle
 10
114.099996
 20
167.475002
 30
0.0
 40
1.149996
100
AcDbArc
 50
140.31838
 51
144.726978
  0
ARC
  5
14BA
100
AcDbEntity
  8
10000_FRONT
370
    25
390
0
  6
CONTINUOUS
 62
     7
100
AcDbCircle
 10
114.099999
 20
167.474924
 30
0.0
 40
3.8
100
AcDbArc
 50
0.0
 51
180.0
  0
ARC
  5
14BB
100
AcDbEntity
  8
10000_FRONT
370
    25
390
0
  6
CONTINUOUS
 62
     7
100
AcDbCircle
 10
114.099998
 20
167.474992
 30
0.0
 40
0.899992
100
AcDbArc
 50
260.318444
 51
264.726892
  0
ARC
  5
14BC
100
AcDbEntity
  8
10000_FRONT
370
    25
390
0
  6
CONTINUOUS
 62
     7
100
AcDbCircle
 10
114.099998
 20
167.474992
 30
0.0
 40
1.149992
100
AcDbArc
 50
260.318439
 51
264.726939
  0
ARC
  5
14BD
100
AcDbEntity
  8
10000_FRONT
370
    25
390
0
  6
CONTINUOUS
 62
     7
100
AcDbCircle
 10
114.099999
 20
167.475001
 30
0.0
 40
0.899999
100
AcDbArc
 50
80.318434
 51
84.726879
  0
ARC
  5
14BE
100
AcDbEntity
  8
10000_FRONT
370
    25
390
0
  6
CONTINUOUS
 62
     7
100
AcDbCircle
 10
114.099999
 20
167.475001
 30
0.0
 40
1.149999
100
AcDbArc
 50
80.318463
 51
84.72693
  0
CIRCLE
  5
14BF
100
AcDbEntity
  8
10000_FRONT
370
    25
390
0
  6
CONTINUOUS
 62
     7
100
AcDbCircle
 10
114.099999
 20
167.475
 30
0.0
 40
1.631966
  0
CIRCLE
  5
14C0
100
AcDbEntity
  8
10000_FRONT
370
    25
390
0
  6
CONTINUOUS
 62
     7
100
AcDbCircle
 10
114.099999
 20
167.475
 30
0.0
 40
1.855573
  0
CIRCLE
  5
14C1
100
AcDbEntity
  8
10000_FRONT
370
    25
390
0
  6
CONTINUOUS
 62
     7
100
AcDbCircle
 10
114.099999
 20
167.475
 30
0.0
 40
2.473607
  0
CIRCLE
  5
14C2
100
AcDbEntity
  8
10000_FRONT
370
    25
390
0
  6
CONTINUOUS
 62
     7
100
AcDbCircle
 10
114.099999
 20
167.475
 30
0.0
 40
2.75
  0
ARC
  5
14C3
100
AcDbEntity
  8
10000_FRONT
370
    25
390
0
  6
CONTINUOUS
 62
     7
100
AcDbCircle
 10
114.100002
 20
167.474998
 30
0.0
 40
0.899997
100
AcDbArc
 50
320.31847
 51
324.726827
  0
ARC
  5
14C4
100
AcDbEntity
  8
10000_FRONT
370
    25
390
0
  6
CONTINUOUS
 62
     7
100
AcDbCircle
 10
114.100002
 20
167.474998
 30
0.0
 40
1.149996
100
AcDbArc
 50
320.318461
 51
324.726908
  0
ARC
  5
14C5
100
AcDbEntity
  8
10000_FRONT
370
    25
390
0
  6
CONTINUOUS
 62
     7
100
AcDbCircle
 10
114.100003
 20
167.475001
 30
0.0
 40
0.899995
100
AcDbArc
 50
20.318348
 51
24.727001
  0
ARC
  5
14C6
100
AcDbEntity
  8
10000_FRONT
370
    25
390
0
  6
CONTINUOUS
 62
     7
100
AcDbCircle
 10
114.100003
 20
167.475001
 30
0.0
 40
1.149996
100
AcDbArc
 50
20.318459
 51
24.726939
  0
ARC
  5
14C7
100
AcDbEntity
  8
10000_FRONT
370
    25
390
0
  6
CONTINUOUS
 62
     7
100
AcDbCircle
 10
114.219473
 20
168.769498
 30
0.0
 40
0.15
100
AcDbArc
 50
232.522953
 51
264.726671
  0
ARC
  5
14C8
100
AcDbEntity
  8
10000_FRONT
370
    25
390
0
  6
CONTINUOUS
 62
     7
100
AcDbCircle
 10
114.219473
 20
168.769498
 30
0.0
 40
0.4
100
AcDbArc
 50
232.522765
 51
264.726947
  0
ARC
  5
14C9
100
AcDbEntity
  8
10000_FRONT
370
    25
390
0
  6
CONTINUOUS
 62
     7
100
AcDbCircle
 10
114.318623
 20
168.756485
 30
0.0
 40
0.15
100
AcDbArc
 50
260.318268
 51
292.522814
  0
ARC
  5
14CA
100
AcDbEntity
  8
10000_FRONT
370
    25
390
0
  6
CONTINUOUS
 62
     7
100
AcDbCircle
 10
114.318623
 20
168.756485
 30
0.0
 40
0.4
100
AcDbArc
 50
260.318453
 51
292.522609
  0
ARC
  5
14CB
100
AcDbEntity
  8
10000_FRONT
370
    25
390
0
  6
CONTINUOUS
 62
     7
100
AcDbCircle
 10
114.483048
 20
166.551272
 30
0.0
 40
0.2
100
AcDbArc
 50
232.522451
 51
352.522452
  0
ARC
  5
14CC
100
AcDbEntity
  8
10000_FRONT
370
    25
390
0
  6
CONTINUOUS
 62
     7
100
AcDbCircle
 10
114.483048
 20
166.551272
 30
0.0
 40
0.449999
100
AcDbArc
 50
232.522659
 51
352.522795
  0
ARC
  5
14CD
100
AcDbEntity
  8
10000_FRONT
370
    25
390
0
  6
CONTINUOUS
 62
     7
100
AcDbCircle
 10
114.708446
 20
168.268594
 30
0.0
 40
0.2
100
AcDbArc
 50
352.522753
 51
112.522556
  0
ARC
  5
14CE
100
AcDbEntity
  8
10000_FRONT
370
    25
390
0
  6
CONTINUOUS
 62
     7
100
AcDbCircle
 10
114.708446
 20
168.268594
 30
0.0
 40
0.45
100
AcDbArc
 50
352.522447
 51
112.522703
  0
ARC
  5
14CF
100
AcDbEntity
  8
10000_FRONT
370
    25
390
0
  6
CONTINUOUS
 62
     7
100
AcDbCircle
 10
114.995544
 20
232.215316
 30
0.0
 40
9.841273
100
AcDbArc
 50
64.158717
 51
67.40028
  0
ARC
  5
14D0
100
AcDbEntity
  8
10000_FRONT
370
    25
390
0
  6
CONTINUOUS
 62
     7
100
AcDbCircle
 10
115.091495
 20
167.344866
 30
0.0
 40
0.2
100
AcDbArc
 50
292.522795
 51
52.522602
  0
ARC
  5
14D1
100
AcDbEntity
  8
10000_FRONT
370
    25
390
0
  6
CONTINUOUS
 62
     7
100
AcDbCircle
 10
115.091495
 20
167.344866
 30
0.0
 40
0.45
100
AcDbArc
 50
292.522809
 51
52.52263
  0
ARC
  5
14D2
100
AcDbEntity
  8
10000_FRONT
370
    25
390
0
  6
CONTINUOUS
 62
     7
100
AcDbCircle
 10
115.100486
 20
166.644924
 30
0.0
 40
0.15
100
AcDbArc
 50
140.318322
 51
172.523174
  0
ARC
  5
14D3
100
AcDbEntity
  8
10000_FRONT
370
    25
390
0
  6
CONTINUOUS
 62
     7
100
AcDbCircle
 10
115.100486
 20
166.644924
 30
0.0
 40
0.4
100
AcDbArc
 50
140.318388
 51
172.522549
  0
ARC
  5
14D4
100
AcDbEntity
  8
10000_FRONT
370
    25
390
0
  6
CONTINUOUS
 62
     7
100
AcDbCircle
 10
115.16133
 20
166.724283
 30
0.0
 40
0.15
100
AcDbArc
 50
112.522948
 51
144.726937
  0
ARC
  5
14D5
100
AcDbEntity
  8
10000_FRONT
370
    25
390
0
  6
CONTINUOUS
 62
     7
100
AcDbCircle
 10
115.16133
 20
166.724283
 30
0.0
 40
0.4
100
AcDbArc
 50
112.522659
 51
144.727101
  0
ARC
  5
14D6
100
AcDbEntity
  8
10000_FRONT
370
    25
390
0
  6
CONTINUOUS
 62
     7
100
AcDbCircle
 10
115.280804
 20
168.018781
 30
0.0
 40
0.15
100
AcDbArc
 50
172.522547
 51
204.726694
  0
ARC
  5
14D7
100
AcDbEntity
  8
10000_FRONT
370
    25
390
0
  6
CONTINUOUS
 62
     7
100
AcDbCircle
 10
115.280804
 20
168.018781
 30
0.0
 40
0.4
100
AcDbArc
 50
172.522873
 51
204.72671
  0
ARC
  5
14D8
100
AcDbEntity
  8
10000_FRONT
370
    25
390
0
  6
CONTINUOUS
 62
     7
100
AcDbCircle
 10
115.319109
 20
167.926409
 30
0.0
 40
0.150001
100
AcDbArc
 50
200.318313
 51
232.522983
  0
ARC
  5
14D9
100
AcDbEntity
  8
10000_FRONT
370
    25
390
0
  6
CONTINUOUS
 62
     7
100
AcDbCircle
 10
115.319109
 20
167.926409
 30
0.0
 40
0.4
100
AcDbArc
 50
200.318652
 51
232.522776
  0
ARC
  5
14DA
100
AcDbEntity
  8
10000_FRONT
370
    25
390
0
  6
CONTINUOUS
 62
     7
100
AcDbCircle
 10
117.749999
 20
239.575
 30
0.0
 40
0.2
100
AcDbArc
 50
180.000219
 51
270.000027
  0
ARC
  5
14DB
100
AcDbEntity
  8
10000_FRONT
370
    25
390
0
  6
CONTINUOUS
 62
     7
100
AcDbCircle
 10
117.749999
 20
243.375
 30
0.0
 40
0.2
100
AcDbArc
 50
89.999973
 51
179.999891
  0
ARC
  5
14DC
100
AcDbEntity
  8
10000_FRONT
370
    25
390
0
  6
CONTINUOUS
 62
     7
100
AcDbCircle
 10
118.879022
 20
241.914895
 30
0.0
 40
0.582983
100
AcDbArc
 50
153.406532
 51
207.918183
  0
ARC
  5
14DD
100
AcDbEntity
  8
10000_FRONT
370
    25
390
0
  6
CONTINUOUS
 62
     7
100
AcDbCircle
 10
118.968162
 20
241.82188
 30
0.0
 40
0.705659
100
AcDbArc
 50
101.936998
 51
149.891047
  0
ARC
  5
14DE
100
AcDbEntity
  8
10000_FRONT
370
    25
390
0
  6
CONTINUOUS
 62
     7
100
AcDbCircle
 10
119.014304
 20
243.055452
 30
0.0
 40
2.716631
100
AcDbArc
 50
255.84578
 51
278.740597
  0
ARC
  5
14DF
100
AcDbEntity
  8
10000_FRONT
370
    25
390
0
  6
CONTINUOUS
 62
     7
100
AcDbCircle
 10
119.025524
 20
242.007693
 30
0.0
 40
0.125967
100
AcDbArc
 50
144.861337
 51
206.967188
  0
ARC
  5
14E0
100
AcDbEntity
  8
10000_FRONT
370
    25
390
0
  6
CONTINUOUS
 62
     7
100
AcDbCircle
 10
119.041207
 20
241.348736
 30
0.0
 40
0.628003
100
AcDbArc
 50
266.066542
 51
292.858131
  0
ARC
  5
14E1
100
AcDbEntity
  8
10000_FRONT
370
    25
390
0
  6
CONTINUOUS
 62
     7
100
AcDbCircle
 10
119.057999
 20
202.47887
 30
0.0
 40
0.408
100
AcDbArc
 50
199.90555
 51
210.810737
  0
ARC
  5
14E2
100
AcDbEntity
  8
10000_FRONT
370
    25
390
0
  6
CONTINUOUS
 62
     7
100
AcDbCircle
 10
119.057999
 20
209.249473
 30
0.0
 40
0.408
100
AcDbArc
 50
159.070918
 51
164.649521
  0
POLYLINE
  5
14E3
100
AcDbEntity
  8
10000_FRONT
370
    25
390
0
  6
CONTINUOUS
 62
     7
100
AcDb2dPolyline
 66
     1
 10
0.0
 20
0.0
 30
0.0
  0
VERTEX
  5
14E4
100
AcDbEntity
  8
10000_FRONT
370
    25
390
0
  6
CONTINUOUS
 62
     7
100
AcDbVertex
100
AcDb2dVertex
 10
118.664556
 20
209.357479
 30
0.0
  0
VERTEX
  5
14E5
100
AcDbEntity
  8
10000_FRONT
370
    25
390
0
  6
CONTINUOUS
 62
     7
100
AcDbVertex
100
AcDb2dVertex
 10
118.691338
 20
209.353095
 30
0.0
  0
VERTEX
  5
14E6
100
AcDbEntity
  8
10000_FRONT
370
    25
390
0
  6
CONTINUOUS
 62
     7
100
AcDbVertex
100
AcDb2dVertex
 10
118.730786
 20
209.349092
 30
0.0
  0
VERTEX
  5
14E7
100
AcDbEntity
  8
10000_FRONT
370
    25
390
0
  6
CONTINUOUS
 62
     7
100
AcDbVertex
100
AcDb2dVertex
 10
118.781537
 20
209.34561
 30
0.0
  0
VERTEX
  5
14E8
100
AcDbEntity
  8
10000_FRONT
370
    25
390
0
  6
CONTINUOUS
 62
     7
100
AcDbVertex
100
AcDb2dVertex
 10
118.841838
 20
209.342768
 30
0.0
  0
VERTEX
  5
14E9
100
AcDbEntity
  8
10000_FRONT
370
    25
390
0
  6
CONTINUOUS
 62
     7
100
AcDbVertex
100
AcDb2dVertex
 10
118.909605
 20
209.340665
 30
0.0
  0
VERTEX
  5
14EA
100
AcDbEntity
  8
10000_FRONT
370
    25
390
0
  6
CONTINUOUS
 62
     7
100
AcDbVertex
100
AcDb2dVertex
 10
118.982498
 20
209.339374
 30
0.0
  0
VERTEX
  5
14EB
100
AcDbEntity
  8
10000_FRONT
370
    25
390
0
  6
CONTINUOUS
 62
     7
100
AcDbVertex
100
AcDb2dVertex
 10
119.057999
 20
209.338938
 30
0.0
  0
SEQEND
  5
14EC
100
AcDbEntity
  8
10000_FRONT
370
    25
390
0
  6
CONTINUOUS
 62
     7
  0
ARC
  5
14ED
100
AcDbEntity
  8
10000_FRONT
370
    25
390
0
  6
CONTINUOUS
 62
     7
100
AcDbCircle
 10
119.093406
 20
242.105321
 30
0.0
 40
0.864247
100
AcDbArc
 50
212.423452
 51
248.556751
  0
ARC
  5
14EE
100
AcDbEntity
  8
10000_FRONT
370
    25
390
0
  6
CONTINUOUS
 62
     7
100
AcDbCircle
 10
119.111405
 20
241.915346
 30
0.0
 40
0.25071
100
AcDbArc
 50
95.087283
 51
138.888512
  0
ARC
  5
14EF
100
AcDbEntity
  8
10000_FRONT
370
    25
390
0
  6
CONTINUOUS
 62
     7
100
AcDbCircle
 10
119.126517
 20
242.92606
 30
0.0
 40
2.207585
100
AcDbArc
 50
249.4056
 51
266.665878
  0
ARC
  5
14F0
100
AcDbEntity
  8
10000_FRONT
370
    25
390
0
  6
CONTINUOUS
 62
     7
100
AcDbCircle
 10
119.148576
 20
240.811505
 30
0.0
 40
0.898151
100
AcDbArc
 50
32.198971
 51
67.096933
  0
ARC
  5
14F1
100
AcDbEntity
  8
10000_FRONT
370
    25
390
0
  6
CONTINUOUS
 62
     7
100
AcDbCircle
 10
119.19971
 20
240.912793
 30
0.0
 40
0.181136
100
AcDbArc
 50
0.731728
 51
61.854276
  0
ARC
  5
14F2
100
AcDbEntity
  8
10000_FRONT
370
    25
390
0
  6
CONTINUOUS
 62
     7
100
AcDbCircle
 10
119.223363
 20
240.914887
 30
0.0
 40
0.157468
100
AcDbArc
 50
293.104572
 51
0.079577
  0
ARC
  5
14F3
100
AcDbEntity
  8
10000_FRONT
370
    25
390
0
  6
CONTINUOUS
 62
     7
100
AcDbCircle
 10
119.250497
 20
241.112626
 30
0.0
 40
0.762982
100
AcDbArc
 50
283.38532
 51
330.296245
  0
ARC
  5
14F4
100
AcDbEntity
  8
10000_FRONT
370
    25
390
0
  6
CONTINUOUS
 62
     7
100
AcDbCircle
 10
119.258472
 20
240.510624
 30
0.0
 40
1.663084
100
AcDbArc
 50
70.69482
 51
95.84271
  0
ARC
  5
14F5
100
AcDbEntity
  8
10000_FRONT
370
    25
390
0
  6
CONTINUOUS
 62
     7
100
AcDbCircle
 10
119.268015
 20
240.488608
 30
0.0
 40
2.072196
100
AcDbArc
 50
74.886923
 51
102.423631
  0
ARC
  5
14F6
100
AcDbEntity
  8
10000_FRONT
370
    25
390
0
  6
CONTINUOUS
 62
     7
100
AcDbCircle
 10
119.327916
 20
242.337568
 30
0.0
 40
0.567198
100
AcDbArc
 50
223.02358
 51
247.996468
  0
ARC
  5
14F7
100
AcDbEntity
  8
10000_FRONT
370
    25
390
0
  6
CONTINUOUS
 62
     7
100
AcDbCircle
 10
119.355732
 20
241.0077
 30
0.0
 40
0.620808
100
AcDbArc
 50
333.897403
 51
27.057432
  0
ARC
  5
14F8
100
AcDbEntity
  8
10000_FRONT
370
    25
390
0
  6
CONTINUOUS
 62
     7
100
AcDbCircle
 10
120.641999
 20
202.47887
 30
0.0
 40
0.408
100
AcDbArc
 50
329.189493
 51
340.09445
  0
ARC
  5
14F9
100
AcDbEntity
  8
10000_FRONT
370
    25
390
0
  6
CONTINUOUS
 62
     7
100
AcDbCircle
 10
120.641999
 20
209.249473
 30
0.0
 40
0.408
100
AcDbArc
 50
15.350479
 51
20.929082
  0
POLYLINE
  5
14FA
100
AcDbEntity
  8
10000_FRONT
370
    25
390
0
  6
CONTINUOUS
 62
     7
100
AcDb2dPolyline
 66
     1
 10
0.0
 20
0.0
 30
0.0
  0
VERTEX
  5
14FB
100
AcDbEntity
  8
10000_FRONT
370
    25
390
0
  6
CONTINUOUS
 62
     7
100
AcDbVertex
100
AcDb2dVertex
 10
120.641999
 20
209.338938
 30
0.0
  0
VERTEX
  5
14FC
100
AcDbEntity
  8
10000_FRONT
370
    25
390
0
  6
CONTINUOUS
 62
     7
100
AcDbVertex
100
AcDb2dVertex
 10
120.7175
 20
209.339374
 30
0.0
  0
VERTEX
  5
14FD
100
AcDbEntity
  8
10000_FRONT
370
    25
390
0
  6
CONTINUOUS
 62
     7
100
AcDbVertex
100
AcDb2dVertex
 10
120.790393
 20
209.340665
 30
0.0
  0
VERTEX
  5
14FE
100
AcDbEntity
  8
10000_FRONT
370
    25
390
0
  6
CONTINUOUS
 62
     7
100
AcDbVertex
100
AcDb2dVertex
 10
120.85816
 20
209.342768
 30
0.0
  0
VERTEX
  5
14FF
100
AcDbEntity
  8
10000_FRONT
370
    25
390
0
  6
CONTINUOUS
 62
     7
100
AcDbVertex
100
AcDb2dVertex
 10
120.918461
 20
209.34561
 30
0.0
  0
VERTEX
  5
1500
100
AcDbEntity
  8
10000_FRONT
370
    25
390
0
  6
CONTINUOUS
 62
     7
100
AcDbVertex
100
AcDb2dVertex
 10
120.969212
 20
209.349092
 30
0.0
  0
VERTEX
  5
1501
100
AcDbEntity
  8
10000_FRONT
370
    25
390
0
  6
CONTINUOUS
 62
     7
100
AcDbVertex
100
AcDb2dVertex
 10
121.00866
 20
209.353095
 30
0.0
  0
VERTEX
  5
1502
100
AcDbEntity
  8
10000_FRONT
370
    25
390
0
  6
CONTINUOUS
 62
     7
100
AcDbVertex
100
AcDb2dVertex
 10
121.035442
 20
209.357479
 30
0.0
  0
SEQEND
  5
1503
100
AcDbEntity
  8
10000_FRONT
370
    25
390
0
  6
CONTINUOUS
 62
     7
  0
CIRCLE
  5
1504
100
AcDbEntity
  8
10000_FRONT
370
    25
390
0
  6
CONTINUOUS
 62
     7
100
AcDbCircle
 10
125.349999
 20
157.025
 30
0.0
 40
3.0
  0
ARC
  5
1505
100
AcDbEntity
  8
10000_FRONT
370
    25
390
0
  6
CONTINUOUS
 62
     7
100
AcDbCircle
 10
125.349999
 20
221.275
 30
0.0
 40
8.0
100
AcDbArc
 50
206.754211
 51
328.947299
  0
ARC
  5
1506
100
AcDbEntity
  8
10000_FRONT
370
    25
390
0
  6
CONTINUOUS
 62
     7
100
AcDbCircle
 10
125.349999
 20
221.275
 30
0.0
 40
8.0
100
AcDbArc
 50
31.052892
 51
153.246017
  0
CIRCLE
  5
1507
100
AcDbEntity
  8
10000_FRONT
370
    25
390
0
  6
CONTINUOUS
 62
     7
100
AcDbCircle
 10
125.349999
 20
285.525
 30
0.0
 40
3.0
  0
LINE
  5
1508
100
AcDbEntity
  8
10000_FRONT
370
    25
390
0
  6
CONTINUOUS
 62
     7
100
AcDbLine
 10
104.346837
 20
225.874755
 30
0.0
 11
104.344077
 21
223.476924
 31
0.0
  0
ARC
  5
1509
100
AcDbEntity
  8
10000_FRONT
370
    25
390
0
  6
CONTINUOUS
 62
     7
100
AcDbCircle
 10
127.331544
 20
232.215316
 30
0.0
 40
9.841273
100
AcDbArc
 50
64.158717
 51
67.400281
  0
ARC
  5
150A
100
AcDbEntity
  8
10000_FRONT
370
    25
390
0
  6
CONTINUOUS
 62
     7
100
AcDbCircle
 10
127.999553
 20
291.875423
 30
0.0
 40
74.845194
100
AcDbArc
 50
256.436105
 51
284.82499
  0
ARC
  5
150B
100
AcDbEntity
  8
10000_FRONT
370
    25
390
0
  6
CONTINUOUS
 62
     7
100
AcDbCircle
 10
128.0
 20
150.66979
 30
0.0
 40
74.84997
100
AcDbArc
 50
75.176331
 51
103.563364
  0
ARC
  5
150C
100
AcDbEntity
  8
10000_FRONT
370
    25
390
0
  6
CONTINUOUS
 62
     7
100
AcDbCircle
 10
130.057999
 20
202.47887
 30
0.0
 40
0.408
100
AcDbArc
 50
199.90555
 51
210.810737
  0
ARC
  5
150D
100
AcDbEntity
  8
10000_FRONT
370
    25
390
0
  6
CONTINUOUS
 62
     7
100
AcDbCircle
 10
130.057999
 20
209.249473
 30
0.0
 40
0.408
100
AcDbArc
 50
159.070918
 51
164.649521
  0
POLYLINE
  5
150E
100
AcDbEntity
  8
10000_FRONT
370
    25
390
0
  6
CONTINUOUS
 62
     7
100
AcDb2dPolyline
 66
     1
 10
0.0
 20
0.0
 30
0.0
  0
VERTEX
  5
150F
100
AcDbEntity
  8
10000_FRONT
370
    25
390
0
  6
CONTINUOUS
 62
     7
100
AcDbVertex
100
AcDb2dVertex
 10
129.664556
 20
209.357479
 30
0.0
  0
VERTEX
  5
1510
100
AcDbEntity
  8
10000_FRONT
370
    25
390
0
  6
CONTINUOUS
 62
     7
100
AcDbVertex
100
AcDb2dVertex
 10
129.691338
 20
209.353095
 30
0.0
  0
VERTEX
  5
1511
100
AcDbEntity
  8
10000_FRONT
370
    25
390
0
  6
CONTINUOUS
 62
     7
100
AcDbVertex
100
AcDb2dVertex
 10
129.730786
 20
209.349092
 30
0.0
  0
VERTEX
  5
1512
100
AcDbEntity
  8
10000_FRONT
370
    25
390
0
  6
CONTINUOUS
 62
     7
100
AcDbVertex
100
AcDb2dVertex
 10
129.781537
 20
209.34561
 30
0.0
  0
VERTEX
  5
1513
100
AcDbEntity
  8
10000_FRONT
370
    25
390
0
  6
CONTINUOUS
 62
     7
100
AcDbVertex
100
AcDb2dVertex
 10
129.841838
 20
209.342768
 30
0.0
  0
VERTEX
  5
1514
100
AcDbEntity
  8
10000_FRONT
370
    25
390
0
  6
CONTINUOUS
 62
     7
100
AcDbVertex
100
AcDb2dVertex
 10
129.909605
 20
209.340665
 30
0.0
  0
VERTEX
  5
1515
100
AcDbEntity
  8
10000_FRONT
370
    25
390
0
  6
CONTINUOUS
 62
     7
100
AcDbVertex
100
AcDb2dVertex
 10
129.982498
 20
209.339374
 30
0.0
  0
VERTEX
  5
1516
100
AcDbEntity
  8
10000_FRONT
370
    25
390
0
  6
CONTINUOUS
 62
     7
100
AcDbVertex
100
AcDb2dVertex
 10
130.057999
 20
209.338938
 30
0.0
  0
SEQEND
  5
1517
100
AcDbEntity
  8
10000_FRONT
370
    25
390
0
  6
CONTINUOUS
 62
     7
  0
ARC
  5
1518
100
AcDbEntity
  8
10000_FRONT
370
    25
390
0
  6
CONTINUOUS
 62
     7
100
AcDbCircle
 10
131.215022
 20
241.914895
 30
0.0
 40
0.582983
100
AcDbArc
 50
153.406534
 51
207.918181
  0
ARC
  5
1519
100
AcDbEntity
  8
10000_FRONT
370
    25
390
0
  6
CONTINUOUS
 62
     7
100
AcDbCircle
 10
131.304162
 20
241.82188
 30
0.0
 40
0.705659
100
AcDbArc
 50
101.936963
 51
149.891048
  0
ARC
  5
151A
100
AcDbEntity
  8
10000_FRONT
370
    25
390
0
  6
CONTINUOUS
 62
     7
100
AcDbCircle
 10
131.350304
 20
243.055452
 30
0.0
 40
2.716631
100
AcDbArc
 50
255.845779
 51
278.740597
  0
ARC
  5
151B
100
AcDbEntity
  8
10000_FRONT
370
    25
390
0
  6
CONTINUOUS
 62
     7
100
AcDbCircle
 10
131.361524
 20
242.007693
 30
0.0
 40
0.125967
100
AcDbArc
 50
144.861222
 51
206.967181
  0
ARC
  5
151C
100
AcDbEntity
  8
10000_FRONT
370
    25
390
0
  6
CONTINUOUS
 62
     7
100
AcDbCircle
 10
131.377207
 20
241.348736
 30
0.0
 40
0.628003
100
AcDbArc
 50
266.066539
 51
292.858128
  0
ARC
  5
151D
100
AcDbEntity
  8
10000_FRONT
370
    25
390
0
  6
CONTINUOUS
 62
     7
100
AcDbCircle
 10
131.429406
 20
242.105321
 30
0.0
 40
0.864247
100
AcDbArc
 50
212.423451
 51
248.556749
  0
ARC
  5
151E
100
AcDbEntity
  8
10000_FRONT
370
    25
390
0
  6
CONTINUOUS
 62
     7
100
AcDbCircle
 10
131.447405
 20
241.915346
 30
0.0
 40
0.25071
100
AcDbArc
 50
95.087291
 51
138.888445
  0
ARC
  5
151F
100
AcDbEntity
  8
10000_FRONT
370
    25
390
0
  6
CONTINUOUS
 62
     7
100
AcDbCircle
 10
131.462517
 20
242.92606
 30
0.0
 40
2.207585
100
AcDbArc
 50
249.4056
 51
266.665877
  0
ARC
  5
1520
100
AcDbEntity
  8
10000_FRONT
370
    25
390
0
  6
CONTINUOUS
 62
     7
100
AcDbCircle
 10
131.484576
 20
240.811505
 30
0.0
 40
0.898151
100
AcDbArc
 50
32.198972
 51
67.096935
  0
ARC
  5
1521
100
AcDbEntity
  8
10000_FRONT
370
    25
390
0
  6
CONTINUOUS
 62
     7
100
AcDbCircle
 10
131.53571
 20
240.912793
 30
0.0
 40
0.181136
100
AcDbArc
 50
0.731728
 51
61.854286
  0
ARC
  5
1522
100
AcDbEntity
  8
10000_FRONT
370
    25
390
0
  6
CONTINUOUS
 62
     7
100
AcDbCircle
 10
131.559363
 20
240.914887
 30
0.0
 40
0.157468
100
AcDbArc
 50
293.104561
 51
0.079577
  0
ARC
  5
1523
100
AcDbEntity
  8
10000_FRONT
370
    25
390
0
  6
CONTINUOUS
 62
     7
100
AcDbCircle
 10
131.586497
 20
241.112626
 30
0.0
 40
0.762982
100
AcDbArc
 50
283.385317
 51
330.296244
  0
ARC
  5
1524
100
AcDbEntity
  8
10000_FRONT
370
    25
390
0
  6
CONTINUOUS
 62
     7
100
AcDbCircle
 10
131.594472
 20
240.510624
 30
0.0
 40
1.663084
100
AcDbArc
 50
70.694821
 51
95.842711
  0
ARC
  5
1525
100
AcDbEntity
  8
10000_FRONT
370
    25
390
0
  6
CONTINUOUS
 62
     7
100
AcDbCircle
 10
131.604015
 20
240.488608
 30
0.0
 40
2.072196
100
AcDbArc
 50
74.886924
 51
102.423619
  0
ARC
  5
1526
100
AcDbEntity
  8
10000_FRONT
370
    25
390
0
  6
CONTINUOUS
 62
     7
100
AcDbCircle
 10
131.641999
 20
202.47887
 30
0.0
 40
0.408
100
AcDbArc
 50
329.189493
 51
340.09445
  0
ARC
  5
1527
100
AcDbEntity
  8
10000_FRONT
370
    25
390
0
  6
CONTINUOUS
 62
     7
100
AcDbCircle
 10
131.641999
 20
209.249473
 30
0.0
 40
0.408
100
AcDbArc
 50
15.350479
 51
20.929082
  0
POLYLINE
  5
1528
100
AcDbEntity
  8
10000_FRONT
370
    25
390
0
  6
CONTINUOUS
 62
     7
100
AcDb2dPolyline
 66
     1
 10
0.0
 20
0.0
 30
0.0
  0
VERTEX
  5
1529
100
AcDbEntity
  8
10000_FRONT
370
    25
390
0
  6
CONTINUOUS
 62
     7
100
AcDbVertex
100
AcDb2dVertex
 10
131.641999
 20
209.338938
 30
0.0
  0
VERTEX
  5
152A
100
AcDbEntity
  8
10000_FRONT
370
    25
390
0
  6
CONTINUOUS
 62
     7
100
AcDbVertex
100
AcDb2dVertex
 10
131.7175
 20
209.339374
 30
0.0
  0
VERTEX
  5
152B
100
AcDbEntity
  8
10000_FRONT
370
    25
390
0
  6
CONTINUOUS
 62
     7
100
AcDbVertex
100
AcDb2dVertex
 10
131.790393
 20
209.340665
 30
0.0
  0
VERTEX
  5
152C
100
AcDbEntity
  8
10000_FRONT
370
    25
390
0
  6
CONTINUOUS
 62
     7
100
AcDbVertex
100
AcDb2dVertex
 10
131.85816
 20
209.342768
 30
0.0
  0
VERTEX
  5
152D
100
AcDbEntity
  8
10000_FRONT
370
    25
390
0
  6
CONTINUOUS
 62
     7
100
AcDbVertex
100
AcDb2dVertex
 10
131.918461
 20
209.34561
 30
0.0
  0
VERTEX
  5
152E
100
AcDbEntity
  8
10000_FRONT
370
    25
390
0
  6
CONTINUOUS
 62
     7
100
AcDbVertex
100
AcDb2dVertex
 10
131.969212
 20
209.349092
 30
0.0
  0
VERTEX
  5
152F
100
AcDbEntity
  8
10000_FRONT
370
    25
390
0
  6
CONTINUOUS
 62
     7
100
AcDbVertex
100
AcDb2dVertex
 10
132.00866
 20
209.353095
 30
0.0
  0
VERTEX
  5
1530
100
AcDbEntity
  8
10000_FRONT
370
    25
390
0
  6
CONTINUOUS
 62
     7
100
AcDbVertex
100
AcDb2dVertex
 10
132.035442
 20
209.357479
 30
0.0
  0
SEQEND
  5
1531
100
AcDbEntity
  8
10000_FRONT
370
    25
390
0
  6
CONTINUOUS
 62
     7
  0
ARC
  5
1532
100
AcDbEntity
  8
10000_FRONT
370
    25
390
0
  6
CONTINUOUS
 62
     7
100
AcDbCircle
 10
131.663916
 20
242.337568
 30
0.0
 40
0.567198
100
AcDbArc
 50
223.023578
 51
247.996465
  0
ARC
  5
1533
100
AcDbEntity
  8
10000_FRONT
370
    25
390
0
  6
CONTINUOUS
 62
     7
100
AcDbCircle
 10
131.691732
 20
241.0077
 30
0.0
 40
0.620808
100
AcDbArc
 50
333.897401
 51
27.057433
  0
ARC
  5
1534
100
AcDbEntity
  8
10000_FRONT
370
    25
390
0
  6
CONTINUOUS
 62
     7
100
AcDbCircle
 10
132.949999
 20
239.575
 30
0.0
 40
0.2
100
AcDbArc
 50
269.999973
 51
359.999781
  0
ARC
  5
1535
100
AcDbEntity
  8
10000_FRONT
370
    25
390
0
  6
CONTINUOUS
 62
     7
100
AcDbCircle
 10
132.949999
 20
243.375
 30
0.0
 40
0.2
100
AcDbArc
 50
0.000109
 51
90.000027
  0
ARC
  5
1536
100
AcDbEntity
  8
10000_FRONT
370
    25
390
0
  6
CONTINUOUS
 62
     7
100
AcDbCircle
 10
135.380889
 20
167.023591
 30
0.0
 40
0.150001
100
AcDbArc
 50
20.31906
 51
52.522588
  0
ARC
  5
1537
100
AcDbEntity
  8
10000_FRONT
370
    25
390
0
  6
CONTINUOUS
 62
     7
100
AcDbCircle
 10
135.380889
 20
167.023591
 30
0.0
 40
0.4
100
AcDbArc
 50
20.31842
 51
52.522628
  0
ARC
  5
1538
100
AcDbEntity
  8
10000_FRONT
370
    25
390
0
  6
CONTINUOUS
 62
     7
100
AcDbCircle
 10
135.419194
 20
166.931218
 30
0.0
 40
0.15
100
AcDbArc
 50
352.523348
 51
24.727428
  0
ARC
  5
1539
100
AcDbEntity
  8
10000_FRONT
370
    25
390
0
  6
CONTINUOUS
 62
     7
100
AcDbCircle
 10
135.419194
 20
166.931218
 30
0.0
 40
0.4
100
AcDbArc
 50
352.522632
 51
24.726985
  0
ARC
  5
153A
100
AcDbEntity
  8
10000_FRONT
370
    25
390
0
  6
CONTINUOUS
 62
     7
100
AcDbCircle
 10
135.538668
 20
168.225716
 30
0.0
 40
0.15
100
AcDbArc
 50
292.522698
 51
324.726404
  0
ARC
  5
153B
100
AcDbEntity
  8
10000_FRONT
370
    25
390
0
  6
CONTINUOUS
 62
     7
100
AcDbCircle
 10
135.538668
 20
168.225716
 30
0.0
 40
0.4
100
AcDbArc
 50
292.522775
 51
324.726901
  0
ARC
  5
153C
100
AcDbEntity
  8
10000_FRONT
370
    25
390
0
  6
CONTINUOUS
 62
     7
100
AcDbCircle
 10
135.599512
 20
168.305076
 30
0.0
 40
0.15
100
AcDbArc
 50
320.318941
 51
352.522527
  0
ARC
  5
153D
100
AcDbEntity
  8
10000_FRONT
370
    25
390
0
  6
CONTINUOUS
 62
     7
100
AcDbCircle
 10
135.599512
 20
168.305076
 30
0.0
 40
0.4
100
AcDbArc
 50
320.318621
 51
352.522848
  0
ARC
  5
153E
100
AcDbEntity
  8
10000_FRONT
370
    25
390
0
  6
CONTINUOUS
 62
     7
100
AcDbCircle
 10
135.608503
 20
167.605134
 30
0.0
 40
0.2
100
AcDbArc
 50
112.522983
 51
232.5229
  0
ARC
  5
153F
100
AcDbEntity
  8
10000_FRONT
370
    25
390
0
  6
CONTINUOUS
 62
     7
100
AcDbCircle
 10
135.608503
 20
167.605134
 30
0.0
 40
0.45
100
AcDbArc
 50
112.522707
 51
232.522763
  0
ARC
  5
1540
100
AcDbEntity
  8
10000_FRONT
370
    25
390
0
  6
CONTINUOUS
 62
     7
100
AcDbCircle
 10
135.991552
 20
166.681406
 30
0.0
 40
0.2
100
AcDbArc
 50
172.522155
 51
292.522785
  0
ARC
  5
1541
100
AcDbEntity
  8
10000_FRONT
370
    25
390
0
  6
CONTINUOUS
 62
     7
100
AcDbCircle
 10
135.991552
 20
166.681406
 30
0.0
 40
0.45
100
AcDbArc
 50
172.522663
 51
292.522619
  0
ARC
  5
1542
100
AcDbEntity
  8
10000_FRONT
370
    25
390
0
  6
CONTINUOUS
 62
     7
100
AcDbCircle
 10
136.21695
 20
168.398728
 30
0.0
 40
0.2
100
AcDbArc
 50
52.522818
 51
172.522937
  0
ARC
  5
1543
100
AcDbEntity
  8
10000_FRONT
370
    25
390
0
  6
CONTINUOUS
 62
     7
100
AcDbCircle
 10
136.21695
 20
168.398728
 30
0.0
 40
0.449999
100
AcDbArc
 50
52.522823
 51
172.522529
  0
ARC
  5
1544
100
AcDbEntity
  8
10000_FRONT
370
    25
390
0
  6
CONTINUOUS
 62
     7
100
AcDbCircle
 10
136.381375
 20
166.193515
 30
0.0
 40
0.15
100
AcDbArc
 50
80.318404
 51
112.522505
  0
ARC
  5
1545
100
AcDbEntity
  8
10000_FRONT
370
    25
390
0
  6
CONTINUOUS
 62
     7
100
AcDbCircle
 10
136.381375
 20
166.193515
 30
0.0
 40
0.4
100
AcDbArc
 50
80.318413
 51
112.522702
  0
ARC
  5
1546
100
AcDbEntity
  8
10000_FRONT
370
    25
390
0
  6
CONTINUOUS
 62
     7
100
AcDbCircle
 10
136.480525
 20
166.180501
 30
0.0
 40
0.15
100
AcDbArc
 50
52.522556
 51
84.726745
  0
ARC
  5
1547
100
AcDbEntity
  8
10000_FRONT
370
    25
390
0
  6
CONTINUOUS
 62
     7
100
AcDbCircle
 10
136.480525
 20
166.180501
 30
0.0
 40
0.4
100
AcDbArc
 50
52.522616
 51
84.726974
  0
ARC
  5
1548
100
AcDbEntity
  8
10000_FRONT
370
    25
390
0
  6
CONTINUOUS
 62
     7
100
AcDbCircle
 10
136.599995
 20
167.474998
 30
0.0
 40
0.899995
100
AcDbArc
 50
200.31845
 51
204.726878
  0
ARC
  5
1549
100
AcDbEntity
  8
10000_FRONT
370
    25
390
0
  6
CONTINUOUS
 62
     7
100
AcDbCircle
 10
136.599995
 20
167.474998
 30
0.0
 40
1.149996
100
AcDbArc
 50
200.31836
 51
204.726844
  0
ARC
  5
154A
100
AcDbEntity
  8
10000_FRONT
370
    25
390
0
  6
CONTINUOUS
 62
     7
100
AcDbCircle
 10
136.599996
 20
167.475002
 30
0.0
 40
0.899997
100
AcDbArc
 50
140.318366
 51
144.726916
  0
ARC
  5
154B
100
AcDbEntity
  8
10000_FRONT
370
    25
390
0
  6
CONTINUOUS
 62
     7
100
AcDbCircle
 10
136.599996
 20
167.475002
 30
0.0
 40
1.149996
100
AcDbArc
 50
140.31838
 51
144.726978
  0
ARC
  5
154C
100
AcDbEntity
  8
10000_FRONT
370
    25
390
0
  6
CONTINUOUS
 62
     7
100
AcDbCircle
 10
136.599998
 20
167.474992
 30
0.0
 40
0.899992
100
AcDbArc
 50
260.318444
 51
264.726892
  0
ARC
  5
154D
100
AcDbEntity
  8
10000_FRONT
370
    25
390
0
  6
CONTINUOUS
 62
     7
100
AcDbCircle
 10
136.599998
 20
167.474992
 30
0.0
 40
1.149992
100
AcDbArc
 50
260.318439
 51
264.726939
  0
ARC
  5
154E
100
AcDbEntity
  8
10000_FRONT
370
    25
390
0
  6
CONTINUOUS
 62
     7
100
AcDbCircle
 10
136.599999
 20
167.474924
 30
0.0
 40
3.8
100
AcDbArc
 50
0.0
 51
180.0
  0
ARC
  5
154F
100
AcDbEntity
  8
10000_FRONT
370
    25
390
0
  6
CONTINUOUS
 62
     7
100
AcDbCircle
 10
136.599999
 20
167.475001
 30
0.0
 40
0.899999
100
AcDbArc
 50
80.318434
 51
84.726879
  0
ARC
  5
1550
100
AcDbEntity
  8
10000_FRONT
370
    25
390
0
  6
CONTINUOUS
 62
     7
100
AcDbCircle
 10
136.599999
 20
167.475001
 30
0.0
 40
1.149999
100
AcDbArc
 50
80.318463
 51
84.72693
  0
CIRCLE
  5
1551
100
AcDbEntity
  8
10000_FRONT
370
    25
390
0
  6
CONTINUOUS
 62
     7
100
AcDbCircle
 10
136.599999
 20
167.475
 30
0.0
 40
1.631966
  0
CIRCLE
  5
1552
100
AcDbEntity
  8
10000_FRONT
370
    25
390
0
  6
CONTINUOUS
 62
     7
100
AcDbCircle
 10
136.599999
 20
167.475
 30
0.0
 40
1.855573
  0
CIRCLE
  5
1553
100
AcDbEntity
  8
10000_FRONT
370
    25
390
0
  6
CONTINUOUS
 62
     7
100
AcDbCircle
 10
136.599999
 20
167.475
 30
0.0
 40
2.473607
  0
CIRCLE
  5
1554
100
AcDbEntity
  8
10000_FRONT
370
    25
390
0
  6
CONTINUOUS
 62
     7
100
AcDbCircle
 10
136.599999
 20
167.475
 30
0.0
 40
2.75
  0
ARC
  5
1555
100
AcDbEntity
  8
10000_FRONT
370
    25
390
0
  6
CONTINUOUS
 62
     7
100
AcDbCircle
 10
136.600002
 20
167.474998
 30
0.0
 40
0.899997
100
AcDbArc
 50
320.31847
 51
324.726827
  0
ARC
  5
1556
100
AcDbEntity
  8
10000_FRONT
370
    25
390
0
  6
CONTINUOUS
 62
     7
100
AcDbCircle
 10
136.600002
 20
167.474998
 30
0.0
 40
1.149996
100
AcDbArc
 50
320.318461
 51
324.726908
  0
ARC
  5
1557
100
AcDbEntity
  8
10000_FRONT
370
    25
390
0
  6
CONTINUOUS
 62
     7
100
AcDbCircle
 10
136.600003
 20
167.475001
 30
0.0
 40
0.899995
100
AcDbArc
 50
20.318348
 51
24.727001
  0
ARC
  5
1558
100
AcDbEntity
  8
10000_FRONT
370
    25
390
0
  6
CONTINUOUS
 62
     7
100
AcDbCircle
 10
136.600003
 20
167.475001
 30
0.0
 40
1.149996
100
AcDbArc
 50
20.318459
 51
24.726939
  0
ARC
  5
1559
100
AcDbEntity
  8
10000_FRONT
370
    25
390
0
  6
CONTINUOUS
 62
     7
100
AcDbCircle
 10
136.719473
 20
168.769498
 30
0.0
 40
0.15
100
AcDbArc
 50
232.522953
 51
264.726671
  0
ARC
  5
155A
100
AcDbEntity
  8
10000_FRONT
370
    25
390
0
  6
CONTINUOUS
 62
     7
100
AcDbCircle
 10
136.719473
 20
168.769498
 30
0.0
 40
0.4
100
AcDbArc
 50
232.522765
 51
264.726947
  0
ARC
  5
155B
100
AcDbEntity
  8
10000_FRONT
370
    25
390
0
  6
CONTINUOUS
 62
     7
100
AcDbCircle
 10
136.818623
 20
168.756485
 30
0.0
 40
0.15
100
AcDbArc
 50
260.318268
 51
292.522814
  0
ARC
  5
155C
100
AcDbEntity
  8
10000_FRONT
370
    25
390
0
  6
CONTINUOUS
 62
     7
100
AcDbCircle
 10
136.818623
 20
168.756485
 30
0.0
 40
0.4
100
AcDbArc
 50
260.318453
 51
292.522609
  0
ARC
  5
155D
100
AcDbEntity
  8
10000_FRONT
370
    25
390
0
  6
CONTINUOUS
 62
     7
100
AcDbCircle
 10
136.983048
 20
166.551272
 30
0.0
 40
0.2
100
AcDbArc
 50
232.522451
 51
352.522452
  0
ARC
  5
155E
100
AcDbEntity
  8
10000_FRONT
370
    25
390
0
  6
CONTINUOUS
 62
     7
100
AcDbCircle
 10
136.983048
 20
166.551272
 30
0.0
 40
0.449999
100
AcDbArc
 50
232.522659
 51
352.522795
  0
ARC
  5
155F
100
AcDbEntity
  8
10000_FRONT
370
    25
390
0
  6
CONTINUOUS
 62
     7
100
AcDbCircle
 10
137.208446
 20
168.268594
 30
0.0
 40
0.2
100
AcDbArc
 50
352.522753
 51
112.522556
  0
ARC
  5
1560
100
AcDbEntity
  8
10000_FRONT
370
    25
390
0
  6
CONTINUOUS
 62
     7
100
AcDbCircle
 10
137.208446
 20
168.268594
 30
0.0
 40
0.45
100
AcDbArc
 50
352.522447
 51
112.522703
  0
ARC
  5
1561
100
AcDbEntity
  8
10000_FRONT
370
    25
390
0
  6
CONTINUOUS
 62
     7
100
AcDbCircle
 10
137.591495
 20
167.344866
 30
0.0
 40
0.2
100
AcDbArc
 50
292.522795
 51
52.522602
  0
ARC
  5
1562
100
AcDbEntity
  8
10000_FRONT
370
    25
390
0
  6
CONTINUOUS
 62
     7
100
AcDbCircle
 10
137.591495
 20
167.344866
 30
0.0
 40
0.45
100
AcDbArc
 50
292.522809
 51
52.52263
  0
ARC
  5
1563
100
AcDbEntity
  8
10000_FRONT
370
    25
390
0
  6
CONTINUOUS
 62
     7
100
AcDbCircle
 10
137.600486
 20
166.644924
 30
0.0
 40
0.15
100
AcDbArc
 50
140.318322
 51
172.523174
  0
ARC
  5
1564
100
AcDbEntity
  8
10000_FRONT
370
    25
390
0
  6
CONTINUOUS
 62
     7
100
AcDbCircle
 10
137.600486
 20
166.644924
 30
0.0
 40
0.4
100
AcDbArc
 50
140.318388
 51
172.522549
  0
ARC
  5
1565
100
AcDbEntity
  8
10000_FRONT
370
    25
390
0
  6
CONTINUOUS
 62
     7
100
AcDbCircle
 10
137.66133
 20
166.724283
 30
0.0
 40
0.15
100
AcDbArc
 50
112.522948
 51
144.726937
  0
ARC
  5
1566
100
AcDbEntity
  8
10000_FRONT
370
    25
390
0
  6
CONTINUOUS
 62
     7
100
AcDbCircle
 10
137.66133
 20
166.724283
 30
0.0
 40
0.4
100
AcDbArc
 50
112.522659
 51
144.727101
  0
ARC
  5
1567
100
AcDbEntity
  8
10000_FRONT
370
    25
390
0
  6
CONTINUOUS
 62
     7
100
AcDbCircle
 10
137.780804
 20
168.018781
 30
0.0
 40
0.15
100
AcDbArc
 50
172.522547
 51
204.726694
  0
ARC
  5
1568
100
AcDbEntity
  8
10000_FRONT
370
    25
390
0
  6
CONTINUOUS
 62
     7
100
AcDbCircle
 10
137.780804
 20
168.018781
 30
0.0
 40
0.4
100
AcDbArc
 50
172.522873
 51
204.72671
  0
ARC
  5
1569
100
AcDbEntity
  8
10000_FRONT
370
    25
390
0
  6
CONTINUOUS
 62
     7
100
AcDbCircle
 10
137.819109
 20
167.926409
 30
0.0
 40
0.150001
100
AcDbArc
 50
200.318313
 51
232.522983
  0
ARC
  5
156A
100
AcDbEntity
  8
10000_FRONT
370
    25
390
0
  6
CONTINUOUS
 62
     7
100
AcDbCircle
 10
137.819109
 20
167.926409
 30
0.0
 40
0.4
100
AcDbArc
 50
200.318652
 51
232.522776
  0
CIRCLE
  5
156B
100
AcDbEntity
  8
10000_FRONT
370
    25
390
0
  6
CONTINUOUS
 62
     7
100
AcDbCircle
 10
147.849999
 20
157.025
 30
0.0
 40
3.0
  0
CIRCLE
  5
156C
100
AcDbEntity
  8
10000_FRONT
370
    25
390
0
  6
CONTINUOUS
 62
     7
100
AcDbCircle
 10
147.849999
 20
285.525
 30
0.0
 40
3.0
  0
ARC
  5
156D
100
AcDbEntity
  8
10000_FRONT
370
    25
390
0
  6
CONTINUOUS
 62
     7
100
AcDbCircle
 10
152.130889
 20
274.623591
 30
0.0
 40
0.150001
100
AcDbArc
 50
20.318514
 51
52.522523
  0
ARC
  5
156E
100
AcDbEntity
  8
10000_FRONT
370
    25
390
0
  6
CONTINUOUS
 62
     7
100
AcDbCircle
 10
152.130889
 20
274.623591
 30
0.0
 40
0.4
100
AcDbArc
 50
20.318215
 51
52.522495
  0
ARC
  5
156F
100
AcDbEntity
  8
10000_FRONT
370
    25
390
0
  6
CONTINUOUS
 62
     7
100
AcDbCircle
 10
152.169194
 20
274.531218
 30
0.0
 40
0.15
100
AcDbArc
 50
352.522723
 51
24.727051
  0
ARC
  5
1570
100
AcDbEntity
  8
10000_FRONT
370
    25
390
0
  6
CONTINUOUS
 62
     7
100
AcDbCircle
 10
152.169194
 20
274.531218
 30
0.0
 40
0.4
100
AcDbArc
 50
352.522415
 51
24.726729
  0
ARC
  5
1571
100
AcDbEntity
  8
10000_FRONT
370
    25
390
0
  6
CONTINUOUS
 62
     7
100
AcDbCircle
 10
152.288668
 20
275.825716
 30
0.0
 40
0.15
100
AcDbArc
 50
292.523033
 51
324.727328
  0
ARC
  5
1572
100
AcDbEntity
  8
10000_FRONT
370
    25
390
0
  6
CONTINUOUS
 62
     7
100
AcDbCircle
 10
152.288668
 20
275.825716
 30
0.0
 40
0.4
100
AcDbArc
 50
292.522691
 51
324.726723
  0
ARC
  5
1573
100
AcDbEntity
  8
10000_FRONT
370
    25
390
0
  6
CONTINUOUS
 62
     7
100
AcDbCircle
 10
152.349512
 20
275.905076
 30
0.0
 40
0.15
100
AcDbArc
 50
320.318492
 51
352.523347
  0
ARC
  5
1574
100
AcDbEntity
  8
10000_FRONT
370
    25
390
0
  6
CONTINUOUS
 62
     7
100
AcDbCircle
 10
152.349512
 20
275.905076
 30
0.0
 40
0.4
100
AcDbArc
 50
320.31854
 51
352.522649
  0
ARC
  5
1575
100
AcDbEntity
  8
10000_FRONT
370
    25
390
0
  6
CONTINUOUS
 62
     7
100
AcDbCircle
 10
152.358503
 20
275.205134
 30
0.0
 40
0.2
100
AcDbArc
 50
112.522479
 51
232.522501
  0
ARC
  5
1576
100
AcDbEntity
  8
10000_FRONT
370
    25
390
0
  6
CONTINUOUS
 62
     7
100
AcDbCircle
 10
152.358503
 20
275.205134
 30
0.0
 40
0.45
100
AcDbArc
 50
112.522669
 51
232.522682
  0
ARC
  5
1577
100
AcDbEntity
  8
10000_FRONT
370
    25
390
0
  6
CONTINUOUS
 62
     7
100
AcDbCircle
 10
152.741552
 20
274.281406
 30
0.0
 40
0.2
100
AcDbArc
 50
172.522624
 51
292.522617
  0
ARC
  5
1578
100
AcDbEntity
  8
10000_FRONT
370
    25
390
0
  6
CONTINUOUS
 62
     7
100
AcDbCircle
 10
152.741552
 20
274.281406
 30
0.0
 40
0.45
100
AcDbArc
 50
172.522856
 51
292.522731
  0
ARC
  5
1579
100
AcDbEntity
  8
10000_FRONT
370
    25
390
0
  6
CONTINUOUS
 62
     7
100
AcDbCircle
 10
152.96695
 20
275.998728
 30
0.0
 40
0.2
100
AcDbArc
 50
52.522769
 51
172.522287
  0
ARC
  5
157A
100
AcDbEntity
  8
10000_FRONT
370
    25
390
0
  6
CONTINUOUS
 62
     7
100
AcDbCircle
 10
152.96695
 20
275.998728
 30
0.0
 40
0.449999
100
AcDbArc
 50
52.522608
 51
172.522706
  0
ARC
  5
157B
100
AcDbEntity
  8
10000_FRONT
370
    25
390
0
  6
CONTINUOUS
 62
     7
100
AcDbCircle
 10
153.131375
 20
273.793515
 30
0.0
 40
0.15
100
AcDbArc
 50
80.318306
 51
112.522728
  0
ARC
  5
157C
100
AcDbEntity
  8
10000_FRONT
370
    25
390
0
  6
CONTINUOUS
 62
     7
100
AcDbCircle
 10
153.131375
 20
273.793515
 30
0.0
 40
0.4
100
AcDbArc
 50
80.318602
 51
112.522786
  0
ARC
  5
157D
100
AcDbEntity
  8
10000_FRONT
370
    25
390
0
  6
CONTINUOUS
 62
     7
100
AcDbCircle
 10
153.230525
 20
273.780501
 30
0.0
 40
0.15
100
AcDbArc
 50
52.523377
 51
84.726692
  0
ARC
  5
157E
100
AcDbEntity
  8
10000_FRONT
370
    25
390
0
  6
CONTINUOUS
 62
     7
100
AcDbCircle
 10
153.230525
 20
273.780501
 30
0.0
 40
0.4
100
AcDbArc
 50
52.522816
 51
84.726818
  0
ARC
  5
157F
100
AcDbEntity
  8
10000_FRONT
370
    25
390
0
  6
CONTINUOUS
 62
     7
100
AcDbCircle
 10
153.349995
 20
275.074998
 30
0.0
 40
0.899995
100
AcDbArc
 50
200.318541
 51
204.726992
  0
ARC
  5
1580
100
AcDbEntity
  8
10000_FRONT
370
    25
390
0
  6
CONTINUOUS
 62
     7
100
AcDbCircle
 10
153.349995
 20
275.074998
 30
0.0
 40
1.149996
100
AcDbArc
 50
200.318431
 51
204.726893
  0
ARC
  5
1581
100
AcDbEntity
  8
10000_FRONT
370
    25
390
0
  6
CONTINUOUS
 62
     7
100
AcDbCircle
 10
153.349996
 20
275.075002
 30
0.0
 40
0.899997
100
AcDbArc
 50
140.318402
 51
144.726995
  0
ARC
  5
1582
100
AcDbEntity
  8
10000_FRONT
370
    25
390
0
  6
CONTINUOUS
 62
     7
100
AcDbCircle
 10
153.349996
 20
275.075002
 30
0.0
 40
1.149996
100
AcDbArc
 50
140.318439
 51
144.726857
  0
ARC
  5
1583
100
AcDbEntity
  8
10000_FRONT
370
    25
390
0
  6
CONTINUOUS
 62
     7
100
AcDbCircle
 10
153.349998
 20
275.074992
 30
0.0
 40
0.899992
100
AcDbArc
 50
260.31836
 51
264.726961
  0
ARC
  5
1584
100
AcDbEntity
  8
10000_FRONT
370
    25
390
0
  6
CONTINUOUS
 62
     7
100
AcDbCircle
 10
153.349998
 20
275.074992
 30
0.0
 40
1.149992
100
AcDbArc
 50
260.318451
 51
264.726946
  0
ARC
  5
1585
100
AcDbEntity
  8
10000_FRONT
370
    25
390
0
  6
CONTINUOUS
 62
     7
100
AcDbCircle
 10
153.349999
 20
275.075001
 30
0.0
 40
0.899999
100
AcDbArc
 50
80.318399
 51
84.726931
  0
ARC
  5
1586
100
AcDbEntity
  8
10000_FRONT
370
    25
390
0
  6
CONTINUOUS
 62
     7
100
AcDbCircle
 10
153.349999
 20
275.075001
 30
0.0
 40
1.149999
100
AcDbArc
 50
80.31845
 51
84.726923
  0
CIRCLE
  5
1587
100
AcDbEntity
  8
10000_FRONT
370
    25
390
0
  6
CONTINUOUS
 62
     7
100
AcDbCircle
 10
153.349999
 20
275.075
 30
0.0
 40
1.631966
  0
CIRCLE
  5
1588
100
AcDbEntity
  8
10000_FRONT
370
    25
390
0
  6
CONTINUOUS
 62
     7
100
AcDbCircle
 10
153.349999
 20
275.075
 30
0.0
 40
1.855573
  0
CIRCLE
  5
1589
100
AcDbEntity
  8
10000_FRONT
370
    25
390
0
  6
CONTINUOUS
 62
     7
100
AcDbCircle
 10
153.349999
 20
275.075
 30
0.0
 40
2.473607
  0
CIRCLE
  5
158A
100
AcDbEntity
  8
10000_FRONT
370
    25
390
0
  6
CONTINUOUS
 62
     7
100
AcDbCircle
 10
153.349999
 20
275.075
 30
0.0
 40
2.75
  0
ARC
  5
158B
100
AcDbEntity
  8
10000_FRONT
370
    25
390
0
  6
CONTINUOUS
 62
     7
100
AcDbCircle
 10
153.350002
 20
275.074998
 30
0.0
 40
0.899997
100
AcDbArc
 50
320.318356
 51
324.726946
  0
ARC
  5
158C
100
AcDbEntity
  8
10000_FRONT
370
    25
390
0
  6
CONTINUOUS
 62
     7
100
AcDbCircle
 10
153.350002
 20
275.074998
 30
0.0
 40
1.149996
100
AcDbArc
 50
320.318402
 51
324.726819
  0
ARC
  5
158D
100
AcDbEntity
  8
10000_FRONT
370
    25
390
0
  6
CONTINUOUS
 62
     7
100
AcDbCircle
 10
153.350003
 20
275.075001
 30
0.0
 40
0.899995
100
AcDbArc
 50
20.318485
 51
24.726938
  0
ARC
  5
158E
100
AcDbEntity
  8
10000_FRONT
370
    25
390
0
  6
CONTINUOUS
 62
     7
100
AcDbCircle
 10
153.350003
 20
275.075001
 30
0.0
 40
1.149996
100
AcDbArc
 50
20.318387
 51
24.726851
  0
ARC
  5
158F
100
AcDbEntity
  8
10000_FRONT
370
    25
390
0
  6
CONTINUOUS
 62
     7
100
AcDbCircle
 10
153.469473
 20
276.369498
 30
0.0
 40
0.15
100
AcDbArc
 50
232.52271
 51
264.726725
  0
ARC
  5
1590
100
AcDbEntity
  8
10000_FRONT
370
    25
390
0
  6
CONTINUOUS
 62
     7
100
AcDbCircle
 10
153.469473
 20
276.369498
 30
0.0
 40
0.4
100
AcDbArc
 50
232.522566
 51
264.726831
  0
ARC
  5
1591
100
AcDbEntity
  8
10000_FRONT
370
    25
390
0
  6
CONTINUOUS
 62
     7
100
AcDbCircle
 10
153.568623
 20
276.356485
 30
0.0
 40
0.15
100
AcDbArc
 50
260.318366
 51
292.522591
  0
ARC
  5
1592
100
AcDbEntity
  8
10000_FRONT
370
    25
390
0
  6
CONTINUOUS
 62
     7
100
AcDbCircle
 10
153.568623
 20
276.356485
 30
0.0
 40
0.4
100
AcDbArc
 50
260.318533
 51
292.522735
  0
ARC
  5
1593
100
AcDbEntity
  8
10000_FRONT
370
    25
390
0
  6
CONTINUOUS
 62
     7
100
AcDbCircle
 10
153.733048
 20
274.151272
 30
0.0
 40
0.2
100
AcDbArc
 50
232.522934
 51
352.523102
  0
ARC
  5
1594
100
AcDbEntity
  8
10000_FRONT
370
    25
390
0
  6
CONTINUOUS
 62
     7
100
AcDbCircle
 10
153.733048
 20
274.151272
 30
0.0
 40
0.449999
100
AcDbArc
 50
232.522681
 51
352.522586
  0
ARC
  5
1595
100
AcDbEntity
  8
10000_FRONT
370
    25
390
0
  6
CONTINUOUS
 62
     7
100
AcDbCircle
 10
153.958446
 20
275.868594
 30
0.0
 40
0.2
100
AcDbArc
 50
352.522355
 51
112.522723
  0
ARC
  5
1596
100
AcDbEntity
  8
10000_FRONT
370
    25
390
0
  6
CONTINUOUS
 62
     7
100
AcDbCircle
 10
153.958446
 20
275.868594
 30
0.0
 40
0.45
100
AcDbArc
 50
352.522736
 51
112.522777
  0
ARC
  5
1597
100
AcDbEntity
  8
10000_FRONT
370
    25
390
0
  6
CONTINUOUS
 62
     7
100
AcDbCircle
 10
154.341495
 20
274.944866
 30
0.0
 40
0.2
100
AcDbArc
 50
292.522375
 51
52.523001
  0
ARC
  5
1598
100
AcDbEntity
  8
10000_FRONT
370
    25
390
0
  6
CONTINUOUS
 62
     7
100
AcDbCircle
 10
154.341495
 20
274.944866
 30
0.0
 40
0.45
100
AcDbArc
 50
292.522623
 51
52.522904
  0
ARC
  5
1599
100
AcDbEntity
  8
10000_FRONT
370
    25
390
0
  6
CONTINUOUS
 62
     7
100
AcDbCircle
 10
154.350486
 20
274.244924
 30
0.0
 40
0.15
100
AcDbArc
 50
140.31877
 51
172.52226
  0
ARC
  5
159A
100
AcDbEntity
  8
10000_FRONT
370
    25
390
0
  6
CONTINUOUS
 62
     7
100
AcDbCircle
 10
154.350486
 20
274.244924
 30
0.0
 40
0.4
100
AcDbArc
 50
140.318644
 51
172.522784
  0
ARC
  5
159B
100
AcDbEntity
  8
10000_FRONT
370
    25
390
0
  6
CONTINUOUS
 62
     7
100
AcDbCircle
 10
154.41133
 20
274.324283
 30
0.0
 40
0.15
100
AcDbArc
 50
112.522613
 51
144.727623
  0
ARC
  5
159C
100
AcDbEntity
  8
10000_FRONT
370
    25
390
0
  6
CONTINUOUS
 62
     7
100
AcDbCircle
 10
154.41133
 20
274.324283
 30
0.0
 40
0.4
100
AcDbArc
 50
112.522743
 51
144.726834
  0
ARC
  5
159D
100
AcDbEntity
  8
10000_FRONT
370
    25
390
0
  6
CONTINUOUS
 62
     7
100
AcDbCircle
 10
154.530804
 20
275.618781
 30
0.0
 40
0.15
100
AcDbArc
 50
172.523077
 51
204.727376
  0
ARC
  5
159E
100
AcDbEntity
  8
10000_FRONT
370
    25
390
0
  6
CONTINUOUS
 62
     7
100
AcDbCircle
 10
154.530804
 20
275.618781
 30
0.0
 40
0.4
100
AcDbArc
 50
172.522548
 51
204.726851
  0
ARC
  5
159F
100
AcDbEntity
  8
10000_FRONT
370
    25
390
0
  6
CONTINUOUS
 62
     7
100
AcDbCircle
 10
154.569109
 20
275.526409
 30
0.0
 40
0.150001
100
AcDbArc
 50
200.31886
 51
232.52274
  0
ARC
  5
15A0
100
AcDbEntity
  8
10000_FRONT
370
    25
390
0
  6
CONTINUOUS
 62
     7
100
AcDbCircle
 10
154.569109
 20
275.526409
 30
0.0
 40
0.4
100
AcDbArc
 50
200.318345
 51
232.522577
  0
LINE
  5
15A1
100
AcDbEntity
  8
10100_FRONT_DIM
370
    13
390
0
  6
CONTINUOUS
 62
     7
100
AcDbLine
 10
90.349999
 20
303.775
 30
0.0
 11
90.349999
 21
314.775
 31
0.0
  0
LINE
  5
15A2
100
AcDbEntity
  8
10100_FRONT_DIM
370
    13
390
0
  6
CONTINUOUS
 62
     7
100
AcDbLine
 10
160.349999
 20
314.775
 30
0.0
 11
160.349999
 21
303.775
 31
0.0
  0
LINE
  5
15A3
100
AcDbEntity
  8
10100_FRONT_DIM
370
    13
390
0
  6
CONTINUOUS
 62
     7
100
AcDbLine
 10
90.349999
 20
313.775
 30
0.0
 11
160.349999
 21
313.775
 31
0.0
  0
TEXT
  5
15A4
100
AcDbEntity
  8
10100_FRONT_DIM
370
    13
390
0
  6
CONTINUOUS
 62
     7
100
AcDbText
 10
123.849999
 20
314.775
 30
0.0
 40
2.0
  1
70
 72
     1
 11
125.349999
 21
314.775
 31
0.0
100
AcDbText
  0
LINE
  5
15A5
100
AcDbEntity
  8
10100_FRONT_DIM
370
    13
390
0
  6
CONTINUOUS
 62
     7
100
AcDbLine
 10
92.349999
 20
136.425
 30
0.0
 11
81.349999
 21
136.425
 31
0.0
  0
LINE
  5
15A6
100
AcDbEntity
  8
10100_FRONT_DIM
370
    13
390
0
  6
CONTINUOUS
 62
     7
100
AcDbLine
 10
81.349999
 20
306.125
 30
0.0
 11
92.349999
 21
306.125
 31
0.0
  0
LINE
  5
15A7
100
AcDbEntity
  8
10100_FRONT_DIM
370
    13
390
0
  6
CONTINUOUS
 62
     7
100
AcDbLine
 10
82.349999
 20
136.425
 30
0.0
 11
82.349999
 21
306.125
 31
0.0
  0
TEXT
  5
15A8
100
AcDbEntity
  8
10100_FRONT_DIM
370
    13
390
0
  6
CONTINUOUS
 62
     7
100
AcDbText
 10
81.349999
 20
219.108333
 30
0.0
 40
2.0
  1
170
 50
90.0
 72
     1
 11
81.349999
 21
221.275
 31
0.0
100
AcDbText
  0
SOLID
  5
15A9
100
AcDbEntity
  8
10100_FRONT_DIM
370
    13
390
0
  6
CONTINUOUS
 62
     7
100
AcDbTrace
 10
94.349999
 20
314.30161
 30
0.0
 11
90.349999
 21
313.775
 31
0.0
 12
94.349999
 22
313.24839
 32
0.0
 13
90.349999
 23
313.775
 33
0.0
  0
SOLID
  5
15AA
100
AcDbEntity
  8
10100_FRONT_DIM
370
    13
390
0
  6
CONTINUOUS
 62
     7
100
AcDbTrace
 10
156.349999
 20
313.24839
 30
0.0
 11
160.349999
 21
313.775
 31
0.0
 12
156.349999
 22
314.30161
 32
0.0
 13
160.349999
 23
313.775
 33
0.0
  0
SOLID
  5
15AB
100
AcDbEntity
  8
10100_FRONT_DIM
370
    13
390
0
  6
CONTINUOUS
 62
     7
100
AcDbTrace
 10
81.823389
 20
140.425
 30
0.0
 11
82.349999
 21
136.425
 31
0.0
 12
82.876609
 22
140.425
 32
0.0
 13
82.349999
 23
136.425
 33
0.0
  0
SOLID
  5
15AC
100
AcDbEntity
  8
10100_FRONT_DIM
370
    13
390
0
  6
CONTINUOUS
 62
     7
100
AcDbTrace
 10
82.876609
 20
302.125
 30
0.0
 11
82.349999
 21
306.125
 31
0.0
 12
81.823389
 22
302.125
 32
0.0
 13
82.349999
 23
306.125
 33
0.0
  0
LINE
  5
15AD
100
AcDbEntity
  8
11000_LEFT
370
    25
390
0
  6
CONTINUOUS
 62
     7
100
AcDbLine
 10
350.093728
 20
279.074999
 30
0.0
 11
348.001473
 21
295.774725
 31
0.0
  0
LINE
  5
15AE
100
AcDbEntity
  8
11000_LEFT
370
    25
390
0
  6
CONTINUOUS
 62
     7
100
AcDbLine
 10
369.645302
 20
269.525046
 30
0.0
 11
368.507882
 21
278.550055
 31
0.0
  0
LINE
  5
15AF
100
AcDbEntity
  8
11000_LEFT
370
    25
390
0
  6
CONTINUOUS
 62
     7
100
AcDbLine
 10
367.307778
 20
279.975275
 30
0.0
 11
362.430932
 21
305.475272
 31
0.0
  0
LINE
  5
15B0
100
AcDbEntity
  8
11000_LEFT
370
    25
390
0
  6
CONTINUOUS
 62
     7
100
AcDbLine
 10
279.549996
 20
261.3109
 30
0.0
 11
276.55
 21
263.042948
 31
0.0
  0
LINE
  5
15B1
100
AcDbEntity
  8
11000_LEFT
370
    25
390
0
  6
CONTINUOUS
 62
     7
100
AcDbLine
 10
282.549996
 20
266.507052
 30
0.0
 11
279.549996
 21
268.2391
 31
0.0
  0
LINE
  5
15B2
100
AcDbEntity
  8
11000_LEFT
370
    25
390
0
  6
CONTINUOUS
 62
     7
100
AcDbLine
 10
381.099999
 20
225.703329
 30
0.0
 11
376.20971
 21
225.874754
 31
0.0
  0
LINE
  5
15B3
100
AcDbEntity
  8
11000_LEFT
370
    25
390
0
  6
CONTINUOUS
 62
     7
100
AcDbLine
 10
275.949994
 20
136.425002
 30
0.0
 11
361.64518
 21
136.425002
 31
0.0
  0
LINE
  5
15B4
100
AcDbEntity
  8
11000_LEFT
370
    25
390
0
  6
CONTINUOUS
 62
     7
100
AcDbLine
 10
213.349999
 20
138.775
 30
0.0
 11
221.349999
 21
138.775
 31
0.0
  0
LINE
  5
15B5
100
AcDbEntity
  8
11000_LEFT
370
    25
390
0
  6
CONTINUOUS
 62
     7
100
AcDbLine
 10
221.349999
 20
146.275
 30
0.0
 11
275.05
 21
146.275
 31
0.0
  0
LINE
  5
15B6
100
AcDbEntity
  8
11000_LEFT
370
    25
390
0
  6
CONTINUOUS
 62
     7
100
AcDbLine
 10
275.149998
 20
146.425002
 30
0.0
 11
347.604577
 21
146.425002
 31
0.0
  0
LINE
  5
15B7
100
AcDbEntity
  8
11000_LEFT
370
    25
390
0
  6
CONTINUOUS
 62
     7
100
AcDbLine
 10
234.05
 20
155.678778
 30
0.0
 11
236.649998
 21
155.678778
 31
0.0
  0
LINE
  5
15B8
100
AcDbEntity
  8
11000_LEFT
370
    25
390
0
  6
CONTINUOUS
 62
     7
100
AcDbLine
 10
239.249999
 20
155.678778
 30
0.0
 11
241.849999
 21
155.678778
 31
0.0
  0
LINE
  5
15B9
100
AcDbEntity
  8
11000_LEFT
370
    25
390
0
  6
CONTINUOUS
 62
     7
100
AcDbLine
 10
244.449999
 20
155.678778
 30
0.0
 11
247.05
 21
155.678778
 31
0.0
  0
LINE
  5
15BA
100
AcDbEntity
  8
11000_LEFT
370
    25
390
0
  6
CONTINUOUS
 62
     7
100
AcDbLine
 10
249.649998
 20
155.678778
 30
0.0
 11
252.250001
 21
155.678778
 31
0.0
  0
LINE
  5
15BB
100
AcDbEntity
  8
11000_LEFT
370
    25
390
0
  6
CONTINUOUS
 62
     7
100
AcDbLine
 10
254.849999
 20
155.678778
 30
0.0
 11
257.449997
 21
155.678778
 31
0.0
  0
LINE
  5
15BC
100
AcDbEntity
  8
11000_LEFT
370
    25
390
0
  6
CONTINUOUS
 62
     7
100
AcDbLine
 10
275.05
 20
163.475001
 30
0.0
 11
279.250001
 21
163.475001
 31
0.0
  0
LINE
  5
15BD
100
AcDbEntity
  8
11000_LEFT
370
    25
390
0
  6
CONTINUOUS
 62
     7
100
AcDbLine
 10
345.450005
 20
163.475001
 30
0.0
 11
369.950005
 21
163.475001
 31
0.0
  0
LINE
  5
15BE
100
AcDbEntity
  8
11000_LEFT
370
    25
390
0
  6
CONTINUOUS
 62
     7
100
AcDbLine
 10
279.250001
 20
163.525
 30
0.0
 11
345.450005
 21
163.525
 31
0.0
  0
LINE
  5
15BF
100
AcDbEntity
  8
11000_LEFT
370
    25
390
0
  6
CONTINUOUS
 62
     7
100
AcDbLine
 10
298.150002
 20
178.525
 30
0.0
 11
301.150002
 21
178.525
 31
0.0
  0
LINE
  5
15C0
100
AcDbEntity
  8
11000_LEFT
370
    25
390
0
  6
CONTINUOUS
 62
     7
100
AcDbLine
 10
216.449999
 20
182.975001
 30
0.0
 11
220.349999
 21
182.975001
 31
0.0
  0
LINE
  5
15C1
100
AcDbEntity
  8
11000_LEFT
370
    25
390
0
  6
CONTINUOUS
 62
     7
100
AcDbLine
 10
298.150002
 20
184.525
 30
0.0
 11
301.150002
 21
184.525
 31
0.0
  0
LINE
  5
15C2
100
AcDbEntity
  8
11000_LEFT
370
    25
390
0
  6
CONTINUOUS
 62
     7
100
AcDbLine
 10
369.950005
 20
198.775
 30
0.0
 11
375.225289
 21
198.775
 31
0.0
  0
LINE
  5
15C3
100
AcDbEntity
  8
11000_LEFT
370
    25
390
0
  6
CONTINUOUS
 62
     7
100
AcDbLine
 10
213.349999
 20
200.775
 30
0.0
 11
216.349999
 21
200.775
 31
0.0
  0
LINE
  5
15C4
100
AcDbEntity
  8
11000_LEFT
370
    25
390
0
  6
CONTINUOUS
 62
     7
100
AcDbLine
 10
346.650002
 20
200.875
 30
0.0
 11
352.650002
 21
200.875
 31
0.0
  0
LINE
  5
15C5
100
AcDbEntity
  8
11000_LEFT
370
    25
390
0
  6
CONTINUOUS
 62
     7
100
AcDbLine
 10
346.650002
 20
202.775
 30
0.0
 11
352.650002
 21
202.775
 31
0.0
  0
LINE
  5
15C6
100
AcDbEntity
  8
11000_LEFT
370
    25
390
0
  6
CONTINUOUS
 62
     7
100
AcDbLine
 10
217.049999
 20
203.074999
 30
0.0
 11
218.349999
 21
203.074999
 31
0.0
  0
LINE
  5
15C7
100
AcDbEntity
  8
11000_LEFT
370
    25
390
0
  6
CONTINUOUS
 62
     7
100
AcDbLine
 10
376.076516
 20
212.075
 30
0.0
 11
376.371102
 21
212.075
 31
0.0
  0
LINE
  5
15C8
100
AcDbEntity
  8
11000_LEFT
370
    25
390
0
  6
CONTINUOUS
 62
     7
100
AcDbLine
 10
376.549996
 20
213.275
 30
0.0
 11
378.549996
 21
213.275
 31
0.0
  0
LINE
  5
15C9
100
AcDbEntity
  8
11000_LEFT
370
    25
390
0
  6
CONTINUOUS
 62
     7
100
AcDbLine
 10
376.371117
 20
213.275
 30
0.0
 11
376.450005
 21
213.275
 31
0.0
  0
LINE
  5
15CA
100
AcDbEntity
  8
11000_LEFT
370
    25
390
0
  6
CONTINUOUS
 62
     7
100
AcDbLine
 10
376.450005
 20
213.475
 30
0.0
 11
376.549996
 21
213.475
 31
0.0
  0
LINE
  5
15CB
100
AcDbEntity
  8
11000_LEFT
370
    25
390
0
  6
CONTINUOUS
 62
     7
100
AcDbLine
 10
376.165169
 20
214.875
 30
0.0
 11
376.371102
 21
214.875
 31
0.0
  0
LINE
  5
15CC
100
AcDbEntity
  8
11000_LEFT
370
    25
390
0
  6
CONTINUOUS
 62
     7
100
AcDbLine
 10
345.450005
 20
216.975
 30
0.0
 11
347.650002
 21
216.975
 31
0.0
  0
LINE
  5
15CD
100
AcDbEntity
  8
11000_LEFT
370
    25
390
0
  6
CONTINUOUS
 62
     7
100
AcDbLine
 10
339.250001
 20
216.985
 30
0.0
 11
345.450005
 21
216.985
 31
0.0
  0
LINE
  5
15CE
100
AcDbEntity
  8
11000_LEFT
370
    25
390
0
  6
CONTINUOUS
 62
     7
100
AcDbLine
 10
378.549996
 20
217.030229
 30
0.0
 11
389.150002
 21
217.030229
 31
0.0
  0
LINE
  5
15CF
100
AcDbEntity
  8
11000_LEFT
370
    25
390
0
  6
CONTINUOUS
 62
     7
100
AcDbLine
 10
376.549996
 20
217.673686
 30
0.0
 11
378.549996
 21
217.673686
 31
0.0
  0
LINE
  5
15D0
100
AcDbEntity
  8
11000_LEFT
370
    25
390
0
  6
CONTINUOUS
 62
     7
100
AcDbLine
 10
376.549996
 20
218.735456
 30
0.0
 11
377.685921
 21
218.735456
 31
0.0
  0
LINE
  5
15D1
100
AcDbEntity
  8
11000_LEFT
370
    25
390
0
  6
CONTINUOUS
 62
     7
100
AcDbLine
 10
379.353859
 20
219.117738
 30
0.0
 11
389.150002
 21
219.117738
 31
0.0
  0
LINE
  5
15D2
100
AcDbEntity
  8
11000_LEFT
370
    25
390
0
  6
CONTINUOUS
 62
     7
100
AcDbLine
 10
345.450005
 20
220.975
 30
0.0
 11
347.650002
 21
220.975
 31
0.0
  0
LINE
  5
15D3
100
AcDbEntity
  8
11000_LEFT
370
    25
390
0
  6
CONTINUOUS
 62
     7
100
AcDbLine
 10
339.250001
 20
220.985
 30
0.0
 11
345.450005
 21
220.985
 31
0.0
  0
LINE
  5
15D4
100
AcDbEntity
  8
11000_LEFT
370
    25
390
0
  6
CONTINUOUS
 62
     7
100
AcDbLine
 10
376.249047
 20
222.075
 30
0.0
 11
378.046395
 21
222.075
 31
0.0
  0
LINE
  5
15D5
100
AcDbEntity
  8
11000_LEFT
370
    25
390
0
  6
CONTINUOUS
 62
     7
100
AcDbLine
 10
334.449997
 20
223.075
 30
0.0
 11
339.449997
 21
223.075
 31
0.0
  0
LINE
  5
15D6
100
AcDbEntity
  8
11000_LEFT
370
    25
390
0
  6
CONTINUOUS
 62
     7
100
AcDbLine
 10
379.353859
 20
223.432281
 30
0.0
 11
389.150002
 21
223.432281
 31
0.0
  0
LINE
  5
15D7
100
AcDbEntity
  8
11000_LEFT
370
    25
390
0
  6
CONTINUOUS
 62
     7
100
AcDbLine
 10
361.490181
 20
223.4824
 30
0.0
 11
366.809823
 21
223.4824
 31
0.0
  0
LINE
  5
15D8
100
AcDbEntity
  8
11000_LEFT
370
    25
390
0
  6
CONTINUOUS
 62
     7
100
AcDbLine
 10
376.581963
 20
223.525
 30
0.0
 11
378.046395
 21
223.525
 31
0.0
  0
LINE
  5
15D9
100
AcDbEntity
  8
11000_LEFT
370
    25
390
0
  6
CONTINUOUS
 62
     7
100
AcDbLine
 10
381.099999
 20
225.51976
 30
0.0
 11
389.150002
 21
225.51976
 31
0.0
  0
LINE
  5
15DA
100
AcDbEntity
  8
11000_LEFT
370
    25
390
0
  6
CONTINUOUS
 62
     7
100
AcDbLine
 10
361.099999
 20
225.8824
 30
0.0
 11
367.200005
 21
225.8824
 31
0.0
  0
LINE
  5
15DB
100
AcDbEntity
  8
11000_LEFT
370
    25
390
0
  6
CONTINUOUS
 62
     7
100
AcDbLine
 10
334.449997
 20
226.075
 30
0.0
 11
339.449997
 21
226.075
 31
0.0
  0
LINE
  5
15DC
100
AcDbEntity
  8
11000_LEFT
370
    25
390
0
  6
CONTINUOUS
 62
     7
100
AcDbLine
 10
376.450005
 20
229.075
 30
0.0
 11
376.549996
 21
229.075
 31
0.0
  0
LINE
  5
15DD
100
AcDbEntity
  8
11000_LEFT
370
    25
390
0
  6
CONTINUOUS
 62
     7
100
AcDbLine
 10
376.125527
 20
229.275
 30
0.0
 11
376.450005
 21
229.275
 31
0.0
  0
LINE
  5
15DE
100
AcDbEntity
  8
11000_LEFT
370
    25
390
0
  6
CONTINUOUS
 62
     7
100
AcDbLine
 10
376.549996
 20
229.275
 30
0.0
 11
378.549996
 21
229.275
 31
0.0
  0
LINE
  5
15DF
100
AcDbEntity
  8
11000_LEFT
370
    25
390
0
  6
CONTINUOUS
 62
     7
100
AcDbLine
 10
342.652001
 20
231.475
 30
0.0
 11
345.450005
 21
231.475
 31
0.0
  0
LINE
  5
15E0
100
AcDbEntity
  8
11000_LEFT
370
    25
390
0
  6
CONTINUOUS
 62
     7
100
AcDbLine
 10
279.250001
 20
233.875
 30
0.0
 11
279.849999
 21
233.875
 31
0.0
  0
LINE
  5
15E1
100
AcDbEntity
  8
11000_LEFT
370
    25
390
0
  6
CONTINUOUS
 62
     7
100
AcDbLine
 10
340.154
 20
233.875
 30
0.0
 11
340.202042
 21
233.875
 31
0.0
  0
LINE
  5
15E2
100
AcDbEntity
  8
11000_LEFT
370
    25
390
0
  6
CONTINUOUS
 62
     7
100
AcDbLine
 10
340.154
 20
234.075
 30
0.0
 11
340.202042
 21
234.075
 31
0.0
  0
LINE
  5
15E3
100
AcDbEntity
  8
11000_LEFT
370
    25
390
0
  6
CONTINUOUS
 62
     7
100
AcDbLine
 10
279.250001
 20
234.075
 30
0.0
 11
279.849999
 21
234.075
 31
0.0
  0
LINE
  5
15E4
100
AcDbEntity
  8
11000_LEFT
370
    25
390
0
  6
CONTINUOUS
 62
     7
100
AcDbLine
 10
342.652001
 20
236.475
 30
0.0
 11
345.450005
 21
236.475
 31
0.0
  0
LINE
  5
15E5
100
AcDbEntity
  8
11000_LEFT
370
    25
390
0
  6
CONTINUOUS
 62
     7
100
AcDbLine
 10
323.449997
 20
236.875
 30
0.0
 11
338.449997
 21
236.875
 31
0.0
  0
LINE
  5
15E6
100
AcDbEntity
  8
11000_LEFT
370
    25
390
0
  6
CONTINUOUS
 62
     7
100
AcDbLine
 10
213.349999
 20
236.975
 30
0.0
 11
215.853466
 21
236.975
 31
0.0
  0
LINE
  5
15E7
100
AcDbEntity
  8
11000_LEFT
370
    25
390
0
  6
CONTINUOUS
 62
     7
100
AcDbLine
 10
217.299999
 20
238.675
 30
0.0
 11
218.349999
 21
238.675
 31
0.0
  0
LINE
  5
15E8
100
AcDbEntity
  8
11000_LEFT
370
    25
390
0
  6
CONTINUOUS
 62
     7
100
AcDbLine
 10
329.449997
 20
239.475001
 30
0.0
 11
338.449997
 21
239.475001
 31
0.0
  0
LINE
  5
15E9
100
AcDbEntity
  8
11000_LEFT
370
    25
390
0
  6
CONTINUOUS
 62
     7
100
AcDbLine
 10
346.650002
 20
239.775
 30
0.0
 11
352.650002
 21
239.775
 31
0.0
  0
LINE
  5
15EA
100
AcDbEntity
  8
11000_LEFT
370
    25
390
0
  6
CONTINUOUS
 62
     7
100
AcDbLine
 10
375.600014
 20
240.33882
 30
0.0
 11
375.723397
 21
240.33882
 31
0.0
  0
LINE
  5
15EB
100
AcDbEntity
  8
11000_LEFT
370
    25
390
0
  6
CONTINUOUS
 62
     7
100
AcDbLine
 10
375.600014
 20
240.421296
 30
0.0
 11
375.723397
 21
240.421296
 31
0.0
  0
LINE
  5
15EC
100
AcDbEntity
  8
11000_LEFT
370
    25
390
0
  6
CONTINUOUS
 62
     7
100
AcDbLine
 10
375.600014
 20
240.859553
 30
0.0
 11
375.723397
 21
240.859553
 31
0.0
  0
LINE
  5
15ED
100
AcDbEntity
  8
11000_LEFT
370
    25
390
0
  6
CONTINUOUS
 62
     7
100
AcDbLine
 10
375.600014
 20
240.915106
 30
0.0
 11
375.723397
 21
240.915106
 31
0.0
  0
LINE
  5
15EE
100
AcDbEntity
  8
11000_LEFT
370
    25
390
0
  6
CONTINUOUS
 62
     7
100
AcDbLine
 10
375.600014
 20
241.07251
 30
0.0
 11
375.723397
 21
241.07251
 31
0.0
  0
LINE
  5
15EF
100
AcDbEntity
  8
11000_LEFT
370
    25
390
0
  6
CONTINUOUS
 62
     7
100
AcDbLine
 10
375.600014
 20
241.300898
 30
0.0
 11
375.723397
 21
241.300898
 31
0.0
  0
LINE
  5
15F0
100
AcDbEntity
  8
11000_LEFT
370
    25
390
0
  6
CONTINUOUS
 62
     7
100
AcDbLine
 10
323.449997
 20
241.475001
 30
0.0
 11
329.449997
 21
241.475001
 31
0.0
  0
LINE
  5
15F1
100
AcDbEntity
  8
11000_LEFT
370
    25
390
0
  6
CONTINUOUS
 62
     7
100
AcDbLine
 10
375.600014
 20
241.641936
 30
0.0
 11
375.723397
 21
241.641936
 31
0.0
  0
LINE
  5
15F2
100
AcDbEntity
  8
11000_LEFT
370
    25
390
0
  6
CONTINUOUS
 62
     7
100
AcDbLine
 10
346.650002
 20
241.675
 30
0.0
 11
352.650002
 21
241.675
 31
0.0
  0
LINE
  5
15F3
100
AcDbEntity
  8
11000_LEFT
370
    25
390
0
  6
CONTINUOUS
 62
     7
100
AcDbLine
 10
358.349999
 20
241.775
 30
0.0
 11
364.150002
 21
241.775
 31
0.0
  0
LINE
  5
15F4
100
AcDbEntity
  8
11000_LEFT
370
    25
390
0
  6
CONTINUOUS
 62
     7
100
AcDbLine
 10
375.600014
 20
242.175871
 30
0.0
 11
375.723397
 21
242.175871
 31
0.0
  0
LINE
  5
15F5
100
AcDbEntity
  8
11000_LEFT
370
    25
390
0
  6
CONTINUOUS
 62
     7
100
AcDbLine
 10
213.349999
 20
242.375
 30
0.0
 11
214.849999
 21
242.375
 31
0.0
  0
LINE
  5
15F6
100
AcDbEntity
  8
11000_LEFT
370
    25
390
0
  6
CONTINUOUS
 62
     7
100
AcDbLine
 10
375.600014
 20
242.51228
 30
0.0
 11
375.723397
 21
242.51228
 31
0.0
  0
LINE
  5
15F7
100
AcDbEntity
  8
11000_LEFT
370
    25
390
0
  6
CONTINUOUS
 62
     7
100
AcDbLine
 10
375.600014
 20
242.560803
 30
0.0
 11
375.723397
 21
242.560803
 31
0.0
  0
LINE
  5
15F8
100
AcDbEntity
  8
11000_LEFT
370
    25
390
0
  6
CONTINUOUS
 62
     7
100
AcDbLine
 10
371.150002
 20
243.775
 30
0.0
 11
375.599999
 21
243.775
 31
0.0
  0
LINE
  5
15F9
100
AcDbEntity
  8
11000_LEFT
370
    25
390
0
  6
CONTINUOUS
 62
     7
100
AcDbLine
 10
358.349999
 20
244.275
 30
0.0
 11
364.150002
 21
244.275
 31
0.0
  0
LINE
  5
15FA
100
AcDbEntity
  8
11000_LEFT
370
    25
390
0
  6
CONTINUOUS
 62
     7
100
AcDbLine
 10
213.349999
 20
256.275
 30
0.0
 11
216.709182
 21
256.275
 31
0.0
  0
LINE
  5
15FB
100
AcDbEntity
  8
11000_LEFT
370
    25
390
0
  6
CONTINUOUS
 62
     7
100
AcDbLine
 10
298.150002
 20
258.025
 30
0.0
 11
301.150002
 21
258.025
 31
0.0
  0
LINE
  5
15FC
100
AcDbEntity
  8
11000_LEFT
370
    25
390
0
  6
CONTINUOUS
 62
     7
100
AcDbLine
 10
217.149999
 20
258.775
 30
0.0
 11
220.349999
 21
258.775
 31
0.0
  0
LINE
  5
15FD
100
AcDbEntity
  8
11000_LEFT
370
    25
390
0
  6
CONTINUOUS
 62
     7
100
AcDbLine
 10
298.150002
 20
262.525
 30
0.0
 11
301.150002
 21
262.525
 31
0.0
  0
LINE
  5
15FE
100
AcDbEntity
  8
11000_LEFT
370
    25
390
0
  6
CONTINUOUS
 62
     7
100
AcDbLine
 10
273.95089
 20
264.675002
 30
0.0
 11
274.05
 21
264.675002
 31
0.0
  0
LINE
  5
15FF
100
AcDbEntity
  8
11000_LEFT
370
    25
390
0
  6
CONTINUOUS
 62
     7
100
AcDbLine
 10
273.949997
 20
264.874998
 30
0.0
 11
274.050908
 21
264.874998
 31
0.0
  0
LINE
  5
1600
100
AcDbEntity
  8
11000_LEFT
370
    25
390
0
  6
CONTINUOUS
 62
     7
100
AcDbLine
 10
279.250001
 20
279.025
 30
0.0
 11
345.450005
 21
279.025
 31
0.0
  0
LINE
  5
1601
100
AcDbEntity
  8
11000_LEFT
370
    25
390
0
  6
CONTINUOUS
 62
     7
100
AcDbLine
 10
345.450005
 20
279.074999
 30
0.0
 11
368.210732
 21
279.074999
 31
0.0
  0
LINE
  5
1602
100
AcDbEntity
  8
11000_LEFT
370
    25
390
0
  6
CONTINUOUS
 62
     7
100
AcDbLine
 10
275.05
 20
279.074999
 30
0.0
 11
279.250001
 21
279.074999
 31
0.0
  0
LINE
  5
1603
100
AcDbEntity
  8
11000_LEFT
370
    25
390
0
  6
CONTINUOUS
 62
     7
100
AcDbLine
 10
254.849999
 20
286.871222
 30
0.0
 11
257.449997
 21
286.871222
 31
0.0
  0
LINE
  5
1604
100
AcDbEntity
  8
11000_LEFT
370
    25
390
0
  6
CONTINUOUS
 62
     7
100
AcDbLine
 10
249.649998
 20
286.871222
 30
0.0
 11
252.250001
 21
286.871222
 31
0.0
  0
LINE
  5
1605
100
AcDbEntity
  8
11000_LEFT
370
    25
390
0
  6
CONTINUOUS
 62
     7
100
AcDbLine
 10
244.449999
 20
286.871222
 30
0.0
 11
247.05
 21
286.871222
 31
0.0
  0
LINE
  5
1606
100
AcDbEntity
  8
11000_LEFT
370
    25
390
0
  6
CONTINUOUS
 62
     7
100
AcDbLine
 10
239.249999
 20
286.871222
 30
0.0
 11
241.849999
 21
286.871222
 31
0.0
  0
LINE
  5
1607
100
AcDbEntity
  8
11000_LEFT
370
    25
390
0
  6
CONTINUOUS
 62
     7
100
AcDbLine
 10
234.05
 20
286.871222
 30
0.0
 11
236.649998
 21
286.871222
 31
0.0
  0
LINE
  5
1608
100
AcDbEntity
  8
11000_LEFT
370
    25
390
0
  6
CONTINUOUS
 62
     7
100
AcDbLine
 10
275.149998
 20
296.124998
 30
0.0
 11
347.604577
 21
296.124998
 31
0.0
  0
LINE
  5
1609
100
AcDbEntity
  8
11000_LEFT
370
    25
390
0
  6
CONTINUOUS
 62
     7
100
AcDbLine
 10
221.349999
 20
296.275
 30
0.0
 11
275.05
 21
296.275
 31
0.0
  0
LINE
  5
160A
100
AcDbEntity
  8
11000_LEFT
370
    25
390
0
  6
CONTINUOUS
 62
     7
100
AcDbLine
 10
213.349999
 20
303.775
 30
0.0
 11
221.349999
 21
303.775
 31
0.0
  0
LINE
  5
160B
100
AcDbEntity
  8
11000_LEFT
370
    25
390
0
  6
CONTINUOUS
 62
     7
100
AcDbLine
 10
275.949994
 20
306.124998
 30
0.0
 11
361.64518
 21
306.124998
 31
0.0
  0
LINE
  5
160C
100
AcDbEntity
  8
11000_LEFT
370
    25
390
0
  6
CONTINUOUS
 62
     7
100
AcDbLine
 10
376.241265
 20
223.476924
 30
0.0
 11
379.450005
 21
223.929639
 31
0.0
  0
LINE
  5
160D
100
AcDbEntity
  8
11000_LEFT
370
    25
390
0
  6
CONTINUOUS
 62
     7
100
AcDbLine
 10
378.361474
 20
223.77606
 30
0.0
 11
381.099999
 21
224.162435
 31
0.0
  0
LINE
  5
160E
100
AcDbEntity
  8
11000_LEFT
370
    25
390
0
  6
CONTINUOUS
 62
     7
100
AcDbLine
 10
213.349999
 20
202.074999
 30
0.0
 11
217.049999
 21
203.074999
 31
0.0
  0
LINE
  5
160F
100
AcDbEntity
  8
11000_LEFT
370
    25
390
0
  6
CONTINUOUS
 62
     7
100
AcDbLine
 10
213.349999
 20
181.975001
 30
0.0
 11
216.449999
 21
182.975001
 31
0.0
  0
LINE
  5
1610
100
AcDbEntity
  8
11000_LEFT
370
    25
390
0
  6
CONTINUOUS
 62
     7
100
AcDbLine
 10
279.549996
 20
261.3109
 30
0.0
 11
282.549996
 21
263.042948
 31
0.0
  0
LINE
  5
1611
100
AcDbEntity
  8
11000_LEFT
370
    25
390
0
  6
CONTINUOUS
 62
     7
100
AcDbLine
 10
276.55
 20
266.507052
 30
0.0
 11
279.549996
 21
268.2391
 31
0.0
  0
LINE
  5
1612
100
AcDbEntity
  8
11000_LEFT
370
    25
390
0
  6
CONTINUOUS
 62
     7
100
AcDbLine
 10
215.853466
 20
236.975
 30
0.0
 11
217.04522
 21
237.975001
 31
0.0
  0
LINE
  5
1613
100
AcDbEntity
  8
11000_LEFT
370
    25
390
0
  6
CONTINUOUS
 62
     7
100
AcDbLine
 10
217.04522
 20
237.975001
 30
0.0
 11
217.299999
 21
238.675
 31
0.0
  0
LINE
  5
1614
100
AcDbEntity
  8
11000_LEFT
370
    25
390
0
  6
CONTINUOUS
 62
     7
100
AcDbLine
 10
362.430932
 20
137.074728
 30
0.0
 11
367.307778
 21
162.574725
 31
0.0
  0
LINE
  5
1615
100
AcDbEntity
  8
11000_LEFT
370
    25
390
0
  6
CONTINUOUS
 62
     7
100
AcDbLine
 10
216.709182
 20
256.275
 30
0.0
 11
217.149999
 21
258.775
 31
0.0
  0
LINE
  5
1616
100
AcDbEntity
  8
11000_LEFT
370
    25
390
0
  6
CONTINUOUS
 62
     7
100
AcDbLine
 10
348.001473
 20
146.775275
 30
0.0
 11
350.093728
 21
163.475001
 31
0.0
  0
LINE
  5
1617
100
AcDbEntity
  8
11000_LEFT
370
    25
390
0
  6
CONTINUOUS
 62
     7
100
AcDbLine
 10
213.349999
 20
256.275
 30
0.0
 11
213.349999
 21
303.775
 31
0.0
  0
LINE
  5
1618
100
AcDbEntity
  8
11000_LEFT
370
    25
390
0
  6
CONTINUOUS
 62
     7
100
AcDbLine
 10
213.349999
 20
236.975
 30
0.0
 11
213.349999
 21
242.375
 31
0.0
  0
LINE
  5
1619
100
AcDbEntity
  8
11000_LEFT
370
    25
390
0
  6
CONTINUOUS
 62
     7
100
AcDbLine
 10
213.349999
 20
200.775
 30
0.0
 11
213.349999
 21
202.074999
 31
0.0
  0
LINE
  5
161A
100
AcDbEntity
  8
11000_LEFT
370
    25
390
0
  6
CONTINUOUS
 62
     7
100
AcDbLine
 10
213.349999
 20
138.775
 30
0.0
 11
213.349999
 21
181.975001
 31
0.0
  0
LINE
  5
161B
100
AcDbEntity
  8
11000_LEFT
370
    25
390
0
  6
CONTINUOUS
 62
     7
100
AcDbLine
 10
218.349999
 20
203.074999
 30
0.0
 11
218.349999
 21
238.675
 31
0.0
  0
LINE
  5
161C
100
AcDbEntity
  8
11000_LEFT
370
    25
390
0
  6
CONTINUOUS
 62
     7
100
AcDbLine
 10
220.349999
 20
247.875
 30
0.0
 11
220.349999
 21
258.775
 31
0.0
  0
LINE
  5
161D
100
AcDbEntity
  8
11000_LEFT
370
    25
390
0
  6
CONTINUOUS
 62
     7
100
AcDbLine
 10
220.349999
 20
182.975001
 30
0.0
 11
220.349999
 21
196.775
 31
0.0
  0
LINE
  5
161E
100
AcDbEntity
  8
11000_LEFT
370
    25
390
0
  6
CONTINUOUS
 62
     7
100
AcDbLine
 10
221.349999
 20
138.775
 30
0.0
 11
221.349999
 21
146.275
 31
0.0
  0
LINE
  5
161F
100
AcDbEntity
  8
11000_LEFT
370
    25
390
0
  6
CONTINUOUS
 62
     7
100
AcDbLine
 10
221.349999
 20
296.275
 30
0.0
 11
221.349999
 21
303.775
 31
0.0
  0
LINE
  5
1620
100
AcDbEntity
  8
11000_LEFT
370
    25
390
0
  6
CONTINUOUS
 62
     7
100
AcDbLine
 10
234.05
 20
146.275
 30
0.0
 11
234.05
 21
155.678778
 31
0.0
  0
LINE
  5
1621
100
AcDbEntity
  8
11000_LEFT
370
    25
390
0
  6
CONTINUOUS
 62
     7
100
AcDbLine
 10
234.05
 20
286.871222
 30
0.0
 11
234.05
 21
296.275
 31
0.0
  0
LINE
  5
1622
100
AcDbEntity
  8
11000_LEFT
370
    25
390
0
  6
CONTINUOUS
 62
     7
100
AcDbLine
 10
236.649998
 20
146.275
 30
0.0
 11
236.649998
 21
155.678778
 31
0.0
  0
LINE
  5
1623
100
AcDbEntity
  8
11000_LEFT
370
    25
390
0
  6
CONTINUOUS
 62
     7
100
AcDbLine
 10
236.649998
 20
286.871222
 30
0.0
 11
236.649998
 21
296.275
 31
0.0
  0
LINE
  5
1624
100
AcDbEntity
  8
11000_LEFT
370
    25
390
0
  6
CONTINUOUS
 62
     7
100
AcDbLine
 10
239.249999
 20
146.275
 30
0.0
 11
239.249999
 21
155.678778
 31
0.0
  0
LINE
  5
1625
100
AcDbEntity
  8
11000_LEFT
370
    25
390
0
  6
CONTINUOUS
 62
     7
100
AcDbLine
 10
239.249999
 20
286.871222
 30
0.0
 11
239.249999
 21
296.275
 31
0.0
  0
LINE
  5
1626
100
AcDbEntity
  8
11000_LEFT
370
    25
390
0
  6
CONTINUOUS
 62
     7
100
AcDbLine
 10
241.849999
 20
146.275
 30
0.0
 11
241.849999
 21
155.678778
 31
0.0
  0
LINE
  5
1627
100
AcDbEntity
  8
11000_LEFT
370
    25
390
0
  6
CONTINUOUS
 62
     7
100
AcDbLine
 10
241.849999
 20
286.871222
 30
0.0
 11
241.849999
 21
296.275
 31
0.0
  0
LINE
  5
1628
100
AcDbEntity
  8
11000_LEFT
370
    25
390
0
  6
CONTINUOUS
 62
     7
100
AcDbLine
 10
244.449999
 20
146.275
 30
0.0
 11
244.449999
 21
155.678778
 31
0.0
  0
LINE
  5
1629
100
AcDbEntity
  8
11000_LEFT
370
    25
390
0
  6
CONTINUOUS
 62
     7
100
AcDbLine
 10
244.449999
 20
286.871222
 30
0.0
 11
244.449999
 21
296.275
 31
0.0
  0
LINE
  5
162A
100
AcDbEntity
  8
11000_LEFT
370
    25
390
0
  6
CONTINUOUS
 62
     7
100
AcDbLine
 10
247.05
 20
146.275
 30
0.0
 11
247.05
 21
155.678778
 31
0.0
  0
LINE
  5
162B
100
AcDbEntity
  8
11000_LEFT
370
    25
390
0
  6
CONTINUOUS
 62
     7
100
AcDbLine
 10
247.05
 20
286.871222
 30
0.0
 11
247.05
 21
296.275
 31
0.0
  0
LINE
  5
162C
100
AcDbEntity
  8
11000_LEFT
370
    25
390
0
  6
CONTINUOUS
 62
     7
100
AcDbLine
 10
249.649998
 20
146.275
 30
0.0
 11
249.649998
 21
155.678778
 31
0.0
  0
LINE
  5
162D
100
AcDbEntity
  8
11000_LEFT
370
    25
390
0
  6
CONTINUOUS
 62
     7
100
AcDbLine
 10
249.649998
 20
286.871222
 30
0.0
 11
249.649998
 21
296.275
 31
0.0
  0
LINE
  5
162E
100
AcDbEntity
  8
11000_LEFT
370
    25
390
0
  6
CONTINUOUS
 62
     7
100
AcDbLine
 10
252.250001
 20
146.275
 30
0.0
 11
252.250001
 21
155.678778
 31
0.0
  0
LINE
  5
162F
100
AcDbEntity
  8
11000_LEFT
370
    25
390
0
  6
CONTINUOUS
 62
     7
100
AcDbLine
 10
252.250001
 20
286.871222
 30
0.0
 11
252.250001
 21
296.275
 31
0.0
  0
LINE
  5
1630
100
AcDbEntity
  8
11000_LEFT
370
    25
390
0
  6
CONTINUOUS
 62
     7
100
AcDbLine
 10
254.849999
 20
146.275
 30
0.0
 11
254.849999
 21
155.678778
 31
0.0
  0
LINE
  5
1631
100
AcDbEntity
  8
11000_LEFT
370
    25
390
0
  6
CONTINUOUS
 62
     7
100
AcDbLine
 10
254.849999
 20
286.871222
 30
0.0
 11
254.849999
 21
296.275
 31
0.0
  0
LINE
  5
1632
100
AcDbEntity
  8
11000_LEFT
370
    25
390
0
  6
CONTINUOUS
 62
     7
100
AcDbLine
 10
257.449997
 20
146.275
 30
0.0
 11
257.449997
 21
155.678778
 31
0.0
  0
LINE
  5
1633
100
AcDbEntity
  8
11000_LEFT
370
    25
390
0
  6
CONTINUOUS
 62
     7
100
AcDbLine
 10
257.449997
 20
286.871222
 30
0.0
 11
257.449997
 21
296.275
 31
0.0
  0
LINE
  5
1634
100
AcDbEntity
  8
11000_LEFT
370
    25
390
0
  6
CONTINUOUS
 62
     7
100
AcDbLine
 10
275.05
 20
146.275
 30
0.0
 11
275.05
 21
163.475001
 31
0.0
  0
LINE
  5
1635
100
AcDbEntity
  8
11000_LEFT
370
    25
390
0
  6
CONTINUOUS
 62
     7
100
AcDbLine
 10
275.05
 20
279.074999
 30
0.0
 11
275.05
 21
296.275
 31
0.0
  0
LINE
  5
1636
100
AcDbEntity
  8
11000_LEFT
370
    25
390
0
  6
CONTINUOUS
 62
     7
100
AcDbLine
 10
275.149998
 20
137.224997
 30
0.0
 11
275.149998
 21
163.124998
 31
0.0
  0
LINE
  5
1637
100
AcDbEntity
  8
11000_LEFT
370
    25
390
0
  6
CONTINUOUS
 62
     7
100
AcDbLine
 10
275.149998
 20
296.124998
 30
0.0
 11
275.149998
 21
305.325003
 31
0.0
  0
LINE
  5
1638
100
AcDbEntity
  8
11000_LEFT
370
    25
390
0
  6
CONTINUOUS
 62
     7
100
AcDbLine
 10
275.149998
 20
279.425002
 30
0.0
 11
275.149998
 21
296.124998
 31
0.0
  0
LINE
  5
1639
100
AcDbEntity
  8
11000_LEFT
370
    25
390
0
  6
CONTINUOUS
 62
     7
100
AcDbLine
 10
276.55
 20
263.042948
 30
0.0
 11
276.55
 21
266.507052
 31
0.0
  0
LINE
  5
163A
100
AcDbEntity
  8
11000_LEFT
370
    25
390
0
  6
CONTINUOUS
 62
     7
100
AcDbLine
 10
279.250001
 20
163.475001
 30
0.0
 11
279.250001
 21
259.183043
 31
0.0
  0
LINE
  5
163B
100
AcDbEntity
  8
11000_LEFT
370
    25
390
0
  6
CONTINUOUS
 62
     7
100
AcDbLine
 10
279.250001
 20
270.366957
 30
0.0
 11
279.250001
 21
279.074999
 31
0.0
  0
LINE
  5
163C
100
AcDbEntity
  8
11000_LEFT
370
    25
390
0
  6
CONTINUOUS
 62
     7
100
AcDbLine
 10
279.849999
 20
270.374998
 30
0.0
 11
279.849999
 21
279.025
 31
0.0
  0
LINE
  5
163D
100
AcDbEntity
  8
11000_LEFT
370
    25
390
0
  6
CONTINUOUS
 62
     7
100
AcDbLine
 10
279.849999
 20
163.525
 30
0.0
 11
279.849999
 21
259.175002
 31
0.0
  0
LINE
  5
163E
100
AcDbEntity
  8
11000_LEFT
370
    25
390
0
  6
CONTINUOUS
 62
     7
100
AcDbLine
 10
282.549996
 20
263.042948
 30
0.0
 11
282.549996
 21
266.507052
 31
0.0
  0
LINE
  5
163F
100
AcDbEntity
  8
11000_LEFT
370
    25
390
0
  6
CONTINUOUS
 62
     7
100
AcDbLine
 10
298.150002
 20
178.525
 30
0.0
 11
298.150002
 21
184.525
 31
0.0
  0
LINE
  5
1640
100
AcDbEntity
  8
11000_LEFT
370
    25
390
0
  6
CONTINUOUS
 62
     7
100
AcDbLine
 10
298.150002
 20
258.025
 30
0.0
 11
298.150002
 21
262.525
 31
0.0
  0
LINE
  5
1641
100
AcDbEntity
  8
11000_LEFT
370
    25
390
0
  6
CONTINUOUS
 62
     7
100
AcDbLine
 10
301.150002
 20
178.525
 30
0.0
 11
301.150002
 21
184.525
 31
0.0
  0
LINE
  5
1642
100
AcDbEntity
  8
11000_LEFT
370
    25
390
0
  6
CONTINUOUS
 62
     7
100
AcDbLine
 10
301.150002
 20
258.025
 30
0.0
 11
301.150002
 21
262.525
 31
0.0
  0
LINE
  5
1643
100
AcDbEntity
  8
11000_LEFT
370
    25
390
0
  6
CONTINUOUS
 62
     7
100
AcDbLine
 10
323.449997
 20
236.875
 30
0.0
 11
323.449997
 21
241.475001
 31
0.0
  0
LINE
  5
1644
100
AcDbEntity
  8
11000_LEFT
370
    25
390
0
  6
CONTINUOUS
 62
     7
100
AcDbLine
 10
329.449997
 20
239.475001
 30
0.0
 11
329.449997
 21
241.475001
 31
0.0
  0
LINE
  5
1645
100
AcDbEntity
  8
11000_LEFT
370
    25
390
0
  6
CONTINUOUS
 62
     7
100
AcDbLine
 10
329.839997
 20
236.875
 30
0.0
 11
329.839997
 21
239.475001
 31
0.0
  0
LINE
  5
1646
100
AcDbEntity
  8
11000_LEFT
370
    25
390
0
  6
CONTINUOUS
 62
     7
100
AcDbLine
 10
329.860001
 20
236.875
 30
0.0
 11
329.860001
 21
239.475001
 31
0.0
  0
LINE
  5
1647
100
AcDbEntity
  8
11000_LEFT
370
    25
390
0
  6
CONTINUOUS
 62
     7
100
AcDbLine
 10
334.449997
 20
223.075
 30
0.0
 11
334.449997
 21
226.075
 31
0.0
  0
LINE
  5
1648
100
AcDbEntity
  8
11000_LEFT
370
    25
390
0
  6
CONTINUOUS
 62
     7
100
AcDbLine
 10
338.449997
 20
236.875
 30
0.0
 11
338.449997
 21
239.475001
 31
0.0
  0
LINE
  5
1649
100
AcDbEntity
  8
11000_LEFT
370
    25
390
0
  6
CONTINUOUS
 62
     7
100
AcDbLine
 10
339.250001
 20
216.985
 30
0.0
 11
339.250001
 21
220.985
 31
0.0
  0
LINE
  5
164A
100
AcDbEntity
  8
11000_LEFT
370
    25
390
0
  6
CONTINUOUS
 62
     7
100
AcDbLine
 10
339.449997
 20
223.075
 30
0.0
 11
339.449997
 21
226.075
 31
0.0
  0
LINE
  5
164B
100
AcDbEntity
  8
11000_LEFT
370
    25
390
0
  6
CONTINUOUS
 62
     7
100
AcDbLine
 10
345.450005
 20
163.475001
 30
0.0
 11
345.450005
 21
279.074999
 31
0.0
  0
LINE
  5
164C
100
AcDbEntity
  8
11000_LEFT
370
    25
390
0
  6
CONTINUOUS
 62
     7
100
AcDbLine
 10
346.650002
 20
200.875
 30
0.0
 11
346.650002
 21
202.775
 31
0.0
  0
LINE
  5
164D
100
AcDbEntity
  8
11000_LEFT
370
    25
390
0
  6
CONTINUOUS
 62
     7
100
AcDbLine
 10
346.650002
 20
239.775
 30
0.0
 11
346.650002
 21
241.675
 31
0.0
  0
LINE
  5
164E
100
AcDbEntity
  8
11000_LEFT
370
    25
390
0
  6
CONTINUOUS
 62
     7
100
AcDbLine
 10
347.650002
 20
216.975
 30
0.0
 11
347.650002
 21
220.975
 31
0.0
  0
LINE
  5
164F
100
AcDbEntity
  8
11000_LEFT
370
    25
390
0
  6
CONTINUOUS
 62
     7
100
AcDbLine
 10
352.650002
 20
200.875
 30
0.0
 11
352.650002
 21
202.775
 31
0.0
  0
LINE
  5
1650
100
AcDbEntity
  8
11000_LEFT
370
    25
390
0
  6
CONTINUOUS
 62
     7
100
AcDbLine
 10
352.650002
 20
239.775
 30
0.0
 11
352.650002
 21
241.675
 31
0.0
  0
LINE
  5
1651
100
AcDbEntity
  8
11000_LEFT
370
    25
390
0
  6
CONTINUOUS
 62
     7
100
AcDbLine
 10
358.349999
 20
241.775
 30
0.0
 11
358.349999
 21
244.275
 31
0.0
  0
LINE
  5
1652
100
AcDbEntity
  8
11000_LEFT
370
    25
390
0
  6
CONTINUOUS
 62
     7
100
AcDbLine
 10
360.049996
 20
224.975
 30
0.0
 11
360.049996
 21
227.975
 31
0.0
  0
LINE
  5
1653
100
AcDbEntity
  8
11000_LEFT
370
    25
390
0
  6
CONTINUOUS
 62
     7
100
AcDbLine
 10
361.099999
 20
224.975
 30
0.0
 11
361.099999
 21
227.975
 31
0.0
  0
LINE
  5
1654
100
AcDbEntity
  8
11000_LEFT
370
    25
390
0
  6
CONTINUOUS
 62
     7
100
AcDbLine
 10
364.150002
 20
241.775
 30
0.0
 11
364.150002
 21
244.275
 31
0.0
  0
LINE
  5
1655
100
AcDbEntity
  8
11000_LEFT
370
    25
390
0
  6
CONTINUOUS
 62
     7
100
AcDbLine
 10
367.200005
 20
224.975
 30
0.0
 11
367.200005
 21
227.975
 31
0.0
  0
LINE
  5
1656
100
AcDbEntity
  8
11000_LEFT
370
    25
390
0
  6
CONTINUOUS
 62
     7
100
AcDbLine
 10
368.249993
 20
224.975
 30
0.0
 11
368.249993
 21
227.975
 31
0.0
  0
LINE
  5
1657
100
AcDbEntity
  8
11000_LEFT
370
    25
390
0
  6
CONTINUOUS
 62
     7
100
AcDbLine
 10
369.950005
 20
163.475001
 30
0.0
 11
369.950005
 21
198.775
 31
0.0
  0
LINE
  5
1658
100
AcDbEntity
  8
11000_LEFT
370
    25
390
0
  6
CONTINUOUS
 62
     7
100
AcDbLine
 10
375.599999
 20
239.403057
 30
0.0
 11
375.599999
 21
243.775
 31
0.0
  0
LINE
  5
1659
100
AcDbEntity
  8
11000_LEFT
370
    25
390
0
  6
CONTINUOUS
 62
     7
100
AcDbLine
 10
375.723397
 20
240.33882
 30
0.0
 11
375.723397
 21
242.560803
 31
0.0
  0
LINE
  5
165A
100
AcDbEntity
  8
11000_LEFT
370
    25
390
0
  6
CONTINUOUS
 62
     7
100
AcDbLine
 10
376.371102
 20
212.075
 30
0.0
 11
376.371102
 21
214.875
 31
0.0
  0
LINE
  5
165B
100
AcDbEntity
  8
11000_LEFT
370
    25
390
0
  6
CONTINUOUS
 62
     7
100
AcDbLine
 10
376.450005
 20
225.866327
 30
0.0
 11
376.450005
 21
229.275
 31
0.0
  0
LINE
  5
165C
100
AcDbEntity
  8
11000_LEFT
370
    25
390
0
  6
CONTINUOUS
 62
     7
100
AcDbLine
 10
376.450005
 20
221.275
 30
0.0
 11
376.450005
 21
222.075
 31
0.0
  0
LINE
  5
165D
100
AcDbEntity
  8
11000_LEFT
370
    25
390
0
  6
CONTINUOUS
 62
     7
100
AcDbLine
 10
376.450005
 20
213.275
 30
0.0
 11
376.450005
 21
221.275
 31
0.0
  0
LINE
  5
165E
100
AcDbEntity
  8
11000_LEFT
370
    25
390
0
  6
CONTINUOUS
 62
     7
100
AcDbLine
 10
376.549996
 20
213.275
 30
0.0
 11
376.549996
 21
222.075002
 31
0.0
  0
LINE
  5
165F
100
AcDbEntity
  8
11000_LEFT
370
    25
390
0
  6
CONTINUOUS
 62
     7
100
AcDbLine
 10
376.549996
 20
225.862875
 30
0.0
 11
376.549996
 21
229.275
 31
0.0
  0
LINE
  5
1660
100
AcDbEntity
  8
11000_LEFT
370
    25
390
0
  6
CONTINUOUS
 62
     7
100
AcDbLine
 10
377.685921
 20
223.525002
 30
0.0
 11
377.685921
 21
223.680754
 31
0.0
  0
LINE
  5
1661
100
AcDbEntity
  8
11000_LEFT
370
    25
390
0
  6
CONTINUOUS
 62
     7
100
AcDbLine
 10
377.685921
 20
218.735456
 30
0.0
 11
377.685921
 21
222.075002
 31
0.0
  0
LINE
  5
1662
100
AcDbEntity
  8
11000_LEFT
370
    25
390
0
  6
CONTINUOUS
 62
     7
100
AcDbLine
 10
378.046395
 20
222.075
 30
0.0
 11
378.046395
 21
223.525
 31
0.0
  0
LINE
  5
1663
100
AcDbEntity
  8
11000_LEFT
370
    25
390
0
  6
CONTINUOUS
 62
     7
100
AcDbLine
 10
378.361474
 20
223.77606
 30
0.0
 11
378.361474
 21
225.799326
 31
0.0
  0
LINE
  5
1664
100
AcDbEntity
  8
11000_LEFT
370
    25
390
0
  6
CONTINUOUS
 62
     7
100
AcDbLine
 10
378.549996
 20
213.275
 30
0.0
 11
378.549996
 21
217.673686
 31
0.0
  0
LINE
  5
1665
100
AcDbEntity
  8
11000_LEFT
370
    25
390
0
  6
CONTINUOUS
 62
     7
100
AcDbLine
 10
378.549996
 20
225.792766
 30
0.0
 11
378.549996
 21
229.275
 31
0.0
  0
LINE
  5
1666
100
AcDbEntity
  8
11000_LEFT
370
    25
390
0
  6
CONTINUOUS
 62
     7
100
AcDbLine
 10
379.353859
 20
219.117738
 30
0.0
 11
379.353859
 21
223.432281
 31
0.0
  0
LINE
  5
1667
100
AcDbEntity
  8
11000_LEFT
370
    25
390
0
  6
CONTINUOUS
 62
     7
100
AcDbLine
 10
381.099999
 20
224.162435
 30
0.0
 11
381.099999
 21
225.703329
 31
0.0
  0
LINE
  5
1668
100
AcDbEntity
  8
11000_LEFT
370
    25
390
0
  6
CONTINUOUS
 62
     7
100
AcDbLine
 10
389.150002
 20
217.030229
 30
0.0
 11
389.150002
 21
225.51976
 31
0.0
  0
ARC
  5
1669
100
AcDbEntity
  8
11000_LEFT
370
    25
390
0
  6
CONTINUOUS
 62
     7
100
AcDbCircle
 10
71.236412
 20
236.574934
 30
0.0
 40
300.0
100
AcDbArc
 50
1.375243
 51
8.144313
  0
ARC
  5
166A
100
AcDbEntity
  8
11000_LEFT
370
    25
390
0
  6
CONTINUOUS
 62
     7
100
AcDbCircle
 10
126.249999
 20
221.387023
 30
0.0
 40
250.0
100
AcDbArc
 50
354.810614
 51
4.132553
  0
ARC
  5
166B
100
AcDbEntity
  8
11000_LEFT
370
    25
390
0
  6
CONTINUOUS
 62
     7
100
AcDbCircle
 10
214.849999
 20
247.875
 30
0.0
 40
5.5
100
AcDbArc
 50
270.0
 51
0.0
  0
ARC
  5
166C
100
AcDbEntity
  8
11000_LEFT
370
    25
390
0
  6
CONTINUOUS
 62
     7
100
AcDbCircle
 10
216.349999
 20
196.775
 30
0.0
 40
4.0
100
AcDbArc
 50
0.0
 51
90.0
  0
ARC
  5
166D
100
AcDbEntity
  8
11000_LEFT
370
    25
390
0
  6
CONTINUOUS
 62
     7
100
AcDbCircle
 10
275.549971
 20
163.125028
 30
0.0
 40
0.399972
100
AcDbArc
 50
118.95619
 51
180.004235
  0
ARC
  5
166E
100
AcDbEntity
  8
11000_LEFT
370
    25
390
0
  6
CONTINUOUS
 62
     7
100
AcDbCircle
 10
275.549971
 20
279.424972
 30
0.0
 40
0.399972
100
AcDbArc
 50
179.995765
 51
241.04381
  0
ARC
  5
166F
100
AcDbEntity
  8
11000_LEFT
370
    25
390
0
  6
CONTINUOUS
 62
     7
100
AcDbCircle
 10
275.94999
 20
137.224991
 30
0.0
 40
0.799991
100
AcDbArc
 50
179.999607
 51
270.000229
  0
ARC
  5
1670
100
AcDbEntity
  8
11000_LEFT
370
    25
390
0
  6
CONTINUOUS
 62
     7
100
AcDbCircle
 10
275.94999
 20
305.325009
 30
0.0
 40
0.799991
100
AcDbArc
 50
89.999771
 51
180.000393
  0
CIRCLE
  5
1671
100
AcDbEntity
  8
11000_LEFT
370
    25
390
0
  6
CONTINUOUS
 62
     7
100
AcDbCircle
 10
279.549999
 20
264.775
 30
0.0
 40
5.5
  0
ARC
  5
1672
100
AcDbEntity
  8
11000_LEFT
370
    25
390
0
  6
CONTINUOUS
 62
     7
100
AcDbCircle
 10
279.549999
 20
264.775
 30
0.0
 40
5.6
100
AcDbArc
 50
93.070872
 51
266.929128
  0
ARC
  5
1673
100
AcDbEntity
  8
11000_LEFT
370
    25
390
0
  6
CONTINUOUS
 62
     7
100
AcDbCircle
 10
279.849999
 20
264.775
 30
0.0
 40
5.6
100
AcDbArc
 50
270.0
 51
90.0
  0
CIRCLE
  5
1674
100
AcDbEntity
  8
11000_LEFT
370
    25
390
0
  6
CONTINUOUS
 62
     7
100
AcDbCircle
 10
324.349999
 20
249.275
 30
0.0
 40
2.0
  0
ARC
  5
1675
100
AcDbEntity
  8
11000_LEFT
370
    25
390
0
  6
CONTINUOUS
 62
     7
100
AcDbCircle
 10
337.199999
 20
237.475
 30
0.0
 40
1.0
100
AcDbArc
 50
323.130172
 51
216.869985
  0
CIRCLE
  5
1676
100
AcDbEntity
  8
11000_LEFT
370
    25
390
0
  6
CONTINUOUS
 62
     7
100
AcDbCircle
 10
342.649999
 20
233.975
 30
0.0
 40
2.45
  0
ARC
  5
1677
100
AcDbEntity
  8
11000_LEFT
370
    25
390
0
  6
CONTINUOUS
 62
     7
100
AcDbCircle
 10
342.651999
 20
233.975
 30
0.0
 40
2.5
100
AcDbArc
 50
89.999955
 51
270.000045
  0
ARC
  5
1678
100
AcDbEntity
  8
11000_LEFT
370
    25
390
0
  6
CONTINUOUS
 62
     7
100
AcDbCircle
 10
347.604579
 20
146.825
 30
0.0
 40
0.4
100
AcDbArc
 50
269.999677
 51
352.858844
  0
ARC
  5
1679
100
AcDbEntity
  8
11000_LEFT
370
    25
390
0
  6
CONTINUOUS
 62
     7
100
AcDbCircle
 10
347.604579
 20
295.725
 30
0.0
 40
0.4
100
AcDbArc
 50
7.141156
 51
90.000323
  0
ARC
  5
167A
100
AcDbEntity
  8
11000_LEFT
370
    25
390
0
  6
CONTINUOUS
 62
     7
100
AcDbCircle
 10
361.645177
 20
137.225
 30
0.0
 40
0.8
100
AcDbArc
 50
270.000236
 51
349.173202
  0
ARC
  5
167B
100
AcDbEntity
  8
11000_LEFT
370
    25
390
0
  6
CONTINUOUS
 62
     7
100
AcDbCircle
 10
361.645177
 20
305.325
 30
0.0
 40
0.8
100
AcDbArc
 50
10.826798
 51
89.999764
  0
ARC
  5
167C
100
AcDbEntity
  8
11000_LEFT
370
    25
390
0
  6
CONTINUOUS
 62
     7
100
AcDbCircle
 10
361.799998
 20
150.66979
 30
0.0
 40
74.849971
100
AcDbArc
 50
76.436633
 51
77.455994
  0
ARC
  5
167D
100
AcDbEntity
  8
11000_LEFT
370
    25
390
0
  6
CONTINUOUS
 62
     7
100
AcDbCircle
 10
361.800444
 20
291.875423
 30
0.0
 40
74.845195
100
AcDbArc
 50
282.253915
 51
283.563897
  0
ARC
  5
167E
100
AcDbEntity
  8
11000_LEFT
370
    25
390
0
  6
CONTINUOUS
 62
     7
100
AcDbCircle
 10
364.149999
 20
224.975
 30
0.0
 40
3.05
100
AcDbArc
 50
180.0
 51
0.0
  0
ARC
  5
167F
100
AcDbEntity
  8
11000_LEFT
370
    25
390
0
  6
CONTINUOUS
 62
     7
100
AcDbCircle
 10
364.149999
 20
224.975
 30
0.0
 40
4.1
100
AcDbArc
 50
180.0
 51
0.0
  0
ARC
  5
1680
100
AcDbEntity
  8
11000_LEFT
370
    25
390
0
  6
CONTINUOUS
 62
     7
100
AcDbCircle
 10
364.149999
 20
227.975
 30
0.0
 40
3.05
100
AcDbArc
 50
0.0
 51
180.0
  0
ARC
  5
1681
100
AcDbEntity
  8
11000_LEFT
370
    25
390
0
  6
CONTINUOUS
 62
     7
100
AcDbCircle
 10
364.149999
 20
227.975
 30
0.0
 40
4.1
100
AcDbArc
 50
0.0
 51
180.0
  0
ARC
  5
1682
100
AcDbEntity
  8
11000_LEFT
370
    25
390
0
  6
CONTINUOUS
 62
     7
100
AcDbCircle
 10
366.522013
 20
162.725
 30
0.0
 40
0.8
100
AcDbArc
 50
349.173075
 51
69.635433
  0
ARC
  5
1683
100
AcDbEntity
  8
11000_LEFT
370
    25
390
0
  6
CONTINUOUS
 62
     7
100
AcDbCircle
 10
366.522013
 20
279.825
 30
0.0
 40
0.8
100
AcDbArc
 50
290.364567
 51
10.826925
  0
ARC
  5
1684
100
AcDbEntity
  8
11000_LEFT
370
    25
390
0
  6
CONTINUOUS
 62
     7
100
AcDbCircle
 10
367.912588
 20
278.475031
 30
0.0
 40
0.6
100
AcDbArc
 50
89.427069
 51
89.999723
  0
ARC
  5
1685
100
AcDbEntity
  8
11000_LEFT
370
    25
390
0
  6
CONTINUOUS
 62
     7
100
AcDbCircle
 10
367.912588
 20
278.475031
 30
0.0
 40
0.6
100
AcDbArc
 50
7.18305
 51
58.831685
  0
ARC
  5
1686
100
AcDbEntity
  8
11000_LEFT
370
    25
390
0
  6
CONTINUOUS
 62
     7
100
AcDbCircle
 10
369.248444
 20
269.475031
 30
0.0
 40
0.4
100
AcDbArc
 50
302.594936
 51
7.182978
  0
LINE
  5
1687
100
AcDbEntity
  8
11100_LEFT_DIM
370
    13
390
0
  6
CONTINUOUS
 62
     7
100
AcDbLine
 10
213.349999
 20
303.775
 30
0.0
 11
213.349999
 21
324.125
 31
0.0
  0
LINE
  5
1688
100
AcDbEntity
  8
11100_LEFT_DIM
370
    13
390
0
  6
CONTINUOUS
 62
     7
100
AcDbLine
 10
389.149999
 20
324.125
 30
0.0
 11
389.149999
 21
225.5198
 31
0.0
  0
LINE
  5
1689
100
AcDbEntity
  8
11100_LEFT_DIM
370
    13
390
0
  6
CONTINUOUS
 62
     7
100
AcDbLine
 10
213.349999
 20
323.125
 30
0.0
 11
389.149999
 21
323.125
 31
0.0
  0
TEXT
  5
168A
100
AcDbEntity
  8
11100_LEFT_DIM
370
    13
390
0
  6
CONTINUOUS
 62
     7
100
AcDbText
 10
298.916666
 20
324.125
 30
0.0
 40
2.0
  1
176
 72
     1
 11
301.249999
 21
324.125
 31
0.0
100
AcDbText
  0
LINE
  5
168B
100
AcDbEntity
  8
11100_LEFT_DIM
370
    13
390
0
  6
CONTINUOUS
 62
     7
100
AcDbLine
 10
218.349999
 20
221.275
 30
0.0
 11
218.349999
 21
317.125
 31
0.0
  0
LINE
  5
168C
100
AcDbEntity
  8
11100_LEFT_DIM
370
    13
390
0
  6
CONTINUOUS
 62
     7
100
AcDbLine
 10
389.149999
 20
317.125
 30
0.0
 11
389.149999
 21
225.5198
 31
0.0
  0
LINE
  5
168D
100
AcDbEntity
  8
11100_LEFT_DIM
370
    13
390
0
  6
CONTINUOUS
 62
     7
100
AcDbLine
 10
218.349999
 20
316.125
 30
0.0
 11
389.149999
 21
316.125
 31
0.0
  0
TEXT
  5
168E
100
AcDbEntity
  8
11100_LEFT_DIM
370
    13
390
0
  6
CONTINUOUS
 62
     7
100
AcDbText
 10
301.749999
 20
317.125
 30
0.0
 40
2.0
  1
171
 72
     1
 11
303.749999
 21
317.125
 31
0.0
100
AcDbText
  0
LINE
  5
168F
100
AcDbEntity
  8
11100_LEFT_DIM
370
    13
390
0
  6
CONTINUOUS
 62
     7
100
AcDbLine
 10
218.349999
 20
221.275
 30
0.0
 11
202.349999
 21
221.275
 31
0.0
  0
LINE
  5
1690
100
AcDbEntity
  8
11100_LEFT_DIM
370
    13
390
0
  6
CONTINUOUS
 62
     7
100
AcDbLine
 10
202.349999
 20
306.125
 30
0.0
 11
275.949999
 21
306.125
 31
0.0
  0
LINE
  5
1691
100
AcDbEntity
  8
11100_LEFT_DIM
370
    13
390
0
  6
CONTINUOUS
 62
     7
100
AcDbLine
 10
203.349999
 20
221.275
 30
0.0
 11
203.349999
 21
306.125
 31
0.0
  0
TEXT
  5
1692
100
AcDbEntity
  8
11100_LEFT_DIM
370
    13
390
0
  6
CONTINUOUS
 62
     7
100
AcDbText
 10
202.349999
 20
262.033333
 30
0.0
 40
2.0
  1
85
 50
90.0
 72
     1
 11
202.349999
 21
263.7
 31
0.0
100
AcDbText
  0
SOLID
  5
1693
100
AcDbEntity
  8
11100_LEFT_DIM
370
    13
390
0
  6
CONTINUOUS
 62
     7
100
AcDbTrace
 10
217.349999
 20
323.65161
 30
0.0
 11
213.349999
 21
323.125
 31
0.0
 12
217.349999
 22
322.59839
 32
0.0
 13
213.349999
 23
323.125
 33
0.0
  0
SOLID
  5
1694
100
AcDbEntity
  8
11100_LEFT_DIM
370
    13
390
0
  6
CONTINUOUS
 62
     7
100
AcDbTrace
 10
385.149999
 20
322.59839
 30
0.0
 11
389.149999
 21
323.125
 31
0.0
 12
385.149999
 22
323.65161
 32
0.0
 13
389.149999
 23
323.125
 33
0.0
  0
SOLID
  5
1695
100
AcDbEntity
  8
11100_LEFT_DIM
370
    13
390
0
  6
CONTINUOUS
 62
     7
100
AcDbTrace
 10
222.349999
 20
316.65161
 30
0.0
 11
218.349999
 21
316.125
 31
0.0
 12
222.349999
 22
315.59839
 32
0.0
 13
218.349999
 23
316.125
 33
0.0
  0
SOLID
  5
1696
100
AcDbEntity
  8
11100_LEFT_DIM
370
    13
390
0
  6
CONTINUOUS
 62
     7
100
AcDbTrace
 10
385.149999
 20
315.59839
 30
0.0
 11
389.149999
 21
316.125
 31
0.0
 12
385.149999
 22
316.65161
 32
0.0
 13
389.149999
 23
316.125
 33
0.0
  0
SOLID
  5
1697
100
AcDbEntity
  8
11100_LEFT_DIM
370
    13
390
0
  6
CONTINUOUS
 62
     7
100
AcDbTrace
 10
202.823389
 20
225.275
 30
0.0
 11
203.349999
 21
221.275
 31
0.0
 12
203.876609
 22
225.275
 32
0.0
 13
203.349999
 23
221.275
 33
0.0
  0
SOLID
  5
1698
100
AcDbEntity
  8
11100_LEFT_DIM
370
    13
390
0
  6
CONTINUOUS
 62
     7
100
AcDbTrace
 10
203.876609
 20
302.125
 30
0.0
 11
203.349999
 21
306.125
 31
0.0
 12
202.823389
 22
302.125
 32
0.0
 13
203.349999
 23
306.125
 33
0.0
  0
LINE
  5
1699
100
AcDbEntity
  8
30000_DRILLING
370
    13
390
0
  6
CENTER
 62
     7
100
AcDbLine
 10
514.650002
 20
221.275
 30
0.0
 11
439.650002
 21
221.275
 31
0.0
  0
CIRCLE
  5
169A
100
AcDbEntity
  8
30000_DRILLING
370
    25
390
0
  6
CONTINUOUS
 62
     7
100
AcDbCircle
 10
462.150002
 20
143.775
 30
0.0
 40
2.5
  0
LINE
  5
169B
100
AcDbEntity
  8
30000_DRILLING
370
    13
390
0
  6
CENTER
 62
     7
100
AcDbLine
 10
477.150002
 20
136.275
 30
0.0
 11
477.150002
 21
306.275
 31
0.0
  0
CIRCLE
  5
169C
100
AcDbEntity
  8
30000_DRILLING
370
    25
390
0
  6
CONTINUOUS
 62
     7
100
AcDbCircle
 10
492.150002
 20
298.775
 30
0.0
 40
2.5
  0
LINE
  5
169D
100
AcDbEntity
  8
30000_DRILLING
370
    13
390
0
  6
DASHED
 62
     7
100
AcDbLine
 10
512.150002
 20
303.775
 30
0.0
 11
512.150002
 21
138.775
 31
0.0
  0
LINE
  5
169E
100
AcDbEntity
  8
30000_DRILLING
370
    13
390
0
  6
DASHED
 62
     7
100
AcDbLine
 10
512.150002
 20
138.775
 30
0.0
 11
442.150002
 21
138.775
 31
0.0
  0
LINE
  5
169F
100
AcDbEntity
  8
30000_DRILLING
370
    13
390
0
  6
DASHED
 62
     7
100
AcDbLine
 10
442.150002
 20
138.775
 30
0.0
 11
442.150002
 21
303.775
 31
0.0
  0
LINE
  5
16A0
100
AcDbEntity
  8
30000_DRILLING
370
    13
390
0
  6
DASHED
 62
     7
100
AcDbLine
 10
442.150002
 20
303.775
 30
0.0
 11
512.150002
 21
303.775
 31
0.0
  0
LINE
  5
16A1
100
AcDbEntity
  8
30000_DRILLING
370
    13
390
0
  6
CONTINUOUS
 62
     7
100
AcDbLine
 10
442.150002
 20
138.775
 30
0.0
 11
431.150002
 21
138.775
 31
0.0
  0
LINE
  5
16A2
100
AcDbEntity
  8
30000_DRILLING
370
    13
390
0
  6
CONTINUOUS
 62
     7
100
AcDbLine
 10
431.150002
 20
143.775
 30
0.0
 11
462.150002
 21
143.775
 31
0.0
  0
LINE
  5
16A3
100
AcDbEntity
  8
30000_DRILLING
370
    13
390
0
  6
CONTINUOUS
 62
     7
100
AcDbLine
 10
432.150002
 20
149.775
 30
0.0
 11
432.150002
 21
132.775
 31
0.0
  0
TEXT
  5
16A4
100
AcDbEntity
  8
30000_DRILLING
370
    13
390
0
  6
CONTINUOUS
 62
     7
100
AcDbText
 10
431.150002
 20
140.608333
 30
0.0
 40
2.0
  1
5
 50
90.0
 72
     1
 11
431.150002
 21
141.275
 31
0.0
100
AcDbText
  0
LINE
  5
16A5
100
AcDbEntity
  8
30000_DRILLING
370
    13
390
0
  6
CONTINUOUS
 62
     7
100
AcDbLine
 10
462.150002
 20
143.775
 30
0.0
 11
431.150002
 21
143.775
 31
0.0
  0
LINE
  5
16A6
100
AcDbEntity
  8
30000_DRILLING
370
    13
390
0
  6
CONTINUOUS
 62
     7
100
AcDbLine
 10
431.150002
 20
298.775
 30
0.0
 11
492.150002
 21
298.775
 31
0.0
  0
LINE
  5
16A7
100
AcDbEntity
  8
30000_DRILLING
370
    13
390
0
  6
CONTINUOUS
 62
     7
100
AcDbLine
 10
432.150002
 20
143.775
 30
0.0
 11
432.150002
 21
298.775
 31
0.0
  0
TEXT
  5
16A8
100
AcDbEntity
  8
30000_DRILLING
370
    13
390
0
  6
CONTINUOUS
 62
     7
100
AcDbText
 10
431.150002
 20
218.941667
 30
0.0
 40
2.0
  1
155
 50
90.0
 72
     1
 11
431.150002
 21
221.275
 31
0.0
100
AcDbText
  0
LINE
  5
16A9
100
AcDbEntity
  8
30000_DRILLING
370
    13
390
0
  6
CONTINUOUS
 62
     7
100
AcDbLine
 10
442.150002
 20
138.775
 30
0.0
 11
442.150002
 21
127.775
 31
0.0
  0
LINE
  5
16AA
100
AcDbEntity
  8
30000_DRILLING
370
    13
390
0
  6
CONTINUOUS
 62
     7
100
AcDbLine
 10
462.150002
 20
127.775
 30
0.0
 11
462.150002
 21
143.775
 31
0.0
  0
LINE
  5
16AB
100
AcDbEntity
  8
30000_DRILLING
370
    13
390
0
  6
CONTINUOUS
 62
     7
100
AcDbLine
 10
442.150002
 20
128.775
 30
0.0
 11
462.150002
 21
128.775
 31
0.0
  0
TEXT
  5
16AC
100
AcDbEntity
  8
30000_DRILLING
370
    13
390
0
  6
CONTINUOUS
 62
     7
100
AcDbText
 10
450.650002
 20
129.775
 30
0.0
 40
2.0
  1
20
 72
     1
 11
452.150002
 21
129.775
 31
0.0
100
AcDbText
  0
LINE
  5
16AD
100
AcDbEntity
  8
30000_DRILLING
370
    13
390
0
  6
CONTINUOUS
 62
     7
100
AcDbLine
 10
462.150002
 20
143.775
 30
0.0
 11
462.150002
 21
314.775
 31
0.0
  0
LINE
  5
16AE
100
AcDbEntity
  8
30000_DRILLING
370
    13
390
0
  6
CONTINUOUS
 62
     7
100
AcDbLine
 10
492.150002
 20
314.775
 30
0.0
 11
492.150002
 21
298.775
 31
0.0
  0
LINE
  5
16AF
100
AcDbEntity
  8
30000_DRILLING
370
    13
390
0
  6
CONTINUOUS
 62
     7
100
AcDbLine
 10
462.150002
 20
313.775
 30
0.0
 11
492.150002
 21
313.775
 31
0.0
  0
TEXT
  5
16B0
100
AcDbEntity
  8
30000_DRILLING
370
    13
390
0
  6
CONTINUOUS
 62
     7
100
AcDbText
 10
475.650002
 20
314.775
 30
0.0
 40
2.0
  1
30
 72
     1
 11
477.150002
 21
314.775
 31
0.0
100
AcDbText
  0
LINE
  5
16B1
100
AcDbEntity
  8
30000_DRILLING
370
    13
390
0
  6
CONTINUOUS
 62
     7
100
AcDbLine
 10
462.150002
 20
143.775
 30
0.0
 11
472.150002
 21
128.775
 31
0.0
  0
TEXT
  5
16B2
100
AcDbEntity
  8
30000_DRILLING
370
    13
390
0
  6
CONTINUOUS
 62
     7
100
AcDbText
 10
471.483335
 20
125.275
 30
0.0
 40
2.0
  1
5
 72
     1
 11
472.150002
 21
125.275
 31
0.0
100
AcDbText
  0
CIRCLE
  5
16B3
100
AcDbEntity
  8
30000_DRILLING
370
    13
390
0
  6
CONTINUOUS
 62
     7
100
AcDbCircle
 10
470.356252
 20
126.15
 30
0.0
 40
0.875
  0
LINE
  5
16B4
100
AcDbEntity
  8
30000_DRILLING
370
    13
390
0
  6
CONTINUOUS
 62
     7
100
AcDbLine
 10
469.481252
 20
125.275
 30
0.0
 11
471.231252
 21
127.025
 31
0.0
  0
SOLID
  5
16B5
100
AcDbEntity
  8
30000_DRILLING
370
    13
390
0
  6
CONTINUOUS
 62
     7
100
AcDbTrace
 10
432.676612
 20
134.775
 30
0.0
 11
432.150002
 21
138.775
 31
0.0
 12
431.623392
 22
134.775
 32
0.0
 13
432.150002
 23
138.775
 33
0.0
  0
SOLID
  5
16B6
100
AcDbEntity
  8
30000_DRILLING
370
    13
390
0
  6
CONTINUOUS
 62
     7
100
AcDbTrace
 10
431.623392
 20
147.775
 30
0.0
 11
432.150002
 21
143.775
 31
0.0
 12
432.676612
 22
147.775
 32
0.0
 13
432.150002
 23
143.775
 33
0.0
  0
LINE
  5
16B7
100
AcDbEntity
  8
30000_DRILLING
370
    13
390
0
  6
CONTINUOUS
 62
     7
100
AcDbLine
 10
432.676612
 20
147.775
 30
0.0
 11
431.623392
 21
147.775
 31
0.0
  0
LINE
  5
16B8
100
AcDbEntity
  8
30000_DRILLING
370
    13
390
0
  6
CONTINUOUS
 62
     7
100
AcDbLine
 10
431.623392
 20
147.775
 30
0.0
 11
432.150002
 21
143.775
 31
0.0
  0
LINE
  5
16B9
100
AcDbEntity
  8
30000_DRILLING
370
    13
390
0
  6
CONTINUOUS
 62
     7
100
AcDbLine
 10
432.676612
 20
147.775
 30
0.0
 11
432.150002
 21
143.775
 31
0.0
  0
SOLID
  5
16BA
100
AcDbEntity
  8
30000_DRILLING
370
    13
390
0
  6
CONTINUOUS
 62
     7
100
AcDbTrace
 10
432.676612
 20
294.775
 30
0.0
 11
432.150002
 21
298.775
 31
0.0
 12
431.623392
 22
294.775
 32
0.0
 13
432.150002
 23
298.775
 33
0.0
  0
SOLID
  5
16BB
100
AcDbEntity
  8
30000_DRILLING
370
    13
390
0
  6
CONTINUOUS
 62
     7
100
AcDbTrace
 10
446.150002
 20
129.30161
 30
0.0
 11
442.150002
 21
128.775
 31
0.0
 12
446.150002
 22
128.24839
 32
0.0
 13
442.150002
 23
128.775
 33
0.0
  0
SOLID
  5
16BC
100
AcDbEntity
  8
30000_DRILLING
370
    13
390
0
  6
CONTINUOUS
 62
     7
100
AcDbTrace
 10
458.150002
 20
128.24839
 30
0.0
 11
462.150002
 21
128.775
 31
0.0
 12
458.150002
 22
129.30161
 32
0.0
 13
462.150002
 23
128.775
 33
0.0
  0
SOLID
  5
16BD
100
AcDbEntity
  8
30000_DRILLING
370
    13
390
0
  6
CONTINUOUS
 62
     7
100
AcDbTrace
 10
466.150002
 20
314.30161
 30
0.0
 11
462.150002
 21
313.775
 31
0.0
 12
466.150002
 22
313.24839
 32
0.0
 13
462.150002
 23
313.775
 33
0.0
  0
SOLID
  5
16BE
100
AcDbEntity
  8
30000_DRILLING
370
    13
390
0
  6
CONTINUOUS
 62
     7
100
AcDbTrace
 10
488.150002
 20
313.24839
 30
0.0
 11
492.150002
 21
313.775
 31
0.0
 12
488.150002
 22
314.30161
 32
0.0
 13
492.150002
 23
313.775
 33
0.0
  0
LINE
  5
16BF
100
AcDbEntity
  8
91000_TIP
370
    13
  6
CONTINUOUS
 62
     7
100
AcDbLine
 10
420.37951
 20
21.210069
 30
0.0
 11
430.37951
 21
23.710069
 31
0.0
  0
LINE
  5
16C0
100
AcDbEntity
  8
91000_TIP
370
    13
  6
CONTINUOUS
 62
     7
100
AcDbLine
 10
419.099999
 20
18.710069
 30
0.0
 11
442.701989
 21
18.710069
 31
0.0
  0
LINE
  5
16C1
100
AcDbEntity
  8
91000_TIP
370
    13
  6
CONTINUOUS
 62
     7
100
AcDbLine
 10
420.37951
 20
16.210069
 30
0.0
 11
430.37951
 21
13.710069
 31
0.0
  0
LINE
  5
16C2
100
AcDbEntity
  8
91000_TIP
370
    13
  6
CONTINUOUS
 62
     7
100
AcDbLine
 10
420.37951
 20
21.210069
 30
0.0
 11
420.37951
 21
16.210069
 31
0.0
  0
LINE
  5
16C3
100
AcDbEntity
  8
91000_TIP
370
    13
  6
CONTINUOUS
 62
     7
100
AcDbLine
 10
430.37951
 20
23.710069
 30
0.0
 11
430.37951
 21
13.710069
 31
0.0
  0
LINE
  5
16C4
100
AcDbEntity
  8
91000_TIP
370
    13
  6
CONTINUOUS
 62
     7
100
AcDbLine
 10
436.87951
 20
12.988588
 30
0.0
 11
436.87951
 21
24.271974
 31
0.0
  0
CIRCLE
  5
16C5
100
AcDbEntity
  8
91000_TIP
370
    13
  6
CONTINUOUS
 62
     7
100
AcDbCircle
 10
436.87951
 20
18.710069
 30
0.0
 40
5.0
  0
CIRCLE
  5
16C6
100
AcDbEntity
  8
91000_TIP
370
    13
  6
CONTINUOUS
 62
     7
100
AcDbCircle
 10
436.87951
 20
18.710069
 30
0.0
 40
2.5
  0
TEXT
  5
16C8
100
AcDbEntity
  8
90000_FRAME
370
    13
  6
CONTINUOUS
 62
     7
100
AcDbText
 10
449.55959
 20
29.777682
 30
0.0
 40
2.2
  1
All dimensions are in millimeters (mm)
 41
0.961374
  7
TFONT1
 72
     5
 11
516.5353
 21
29.777682
 31
0.0
100
AcDbText
  0
TEXT
  5
16C9
100
AcDbEntity
  8
90000_FRAME
370
    13
  6
CONTINUOUS
 62
     7
100
AcDbText
 10
449.55959
 20
32.906705
 30
0.0
 40
2.2
  1
Alle Bemassungswerte sind in Millimeter (mm) angegeben.
 41
0.825144
  7
TFONT1
 72
     5
 11
537.905025
 21
32.906705
 31
0.0
100
AcDbText
  0
TEXT
  5
16CA
100
AcDbEntity
  8
90000_FRAME
370
    13
  6
CONTINUOUS
 62
     7
100
AcDbText
 10
500.448132
 20
22.70312
 30
0.0
 40
3.0
  1
3RV2742-5..10
 50
359.807356
 41
1.07141
  7
TFONT1
 72
     5
 11
537.411565
 21
22.578839
 31
0.0
100
AcDbText
  0
TEXT
  5
16CB
100
AcDbEntity
  8
90000_FRAME
370
    13
  6
CONTINUOUS
 62
     7
100
AcDbText
 10
542.160049
 20
11.899978
 30
0.0
 40
2.2
  1
Massstab/Scale: 1:1
 41
0.736364
  7
TFONT1
 72
     5
 11
568.890049
 21
11.899978
 31
0.0
100
AcDbText
  0
TEXT
  5
16CC
100
AcDbEntity
  8
90000_FRAME
370
    13
  6
CONTINUOUS
 62
     7
100
AcDbText
 10
500.295977
 20
11.899978
 30
0.0
 40
2.2
  1
Format/Size: DIN A2
 41
0.803258
  7
TFONT1
 72
     5
 11
530.337832
 21
11.899978
 31
0.0
100
AcDbText
  0
LINE
  5
16CD
100
AcDbEntity
  8
90000_FRAME
370
    13
  6
CONTINUOUS
 62
     7
100
AcDbLine
 10
584.000049
 20
9.999978
 30
0.0
 11
584.000049
 21
27.999978
 31
0.0
  0
LINE
  5
16CE
100
AcDbEntity
  8
90000_FRAME
370
    13
  6
CONTINUOUS
 62
     7
100
AcDbLine
 10
541.500049
 20
9.999978
 30
0.0
 11
541.500049
 21
15.999978
 31
0.0
  0
LINE
  5
16CF
100
AcDbEntity
  8
90000_FRAME
370
    13
  6
CONTINUOUS
 62
     7
100
AcDbLine
 10
499.000049
 20
9.999978
 30
0.0
 11
499.000049
 21
27.999978
 31
0.0
  0
LINE
  5
16D0
100
AcDbEntity
  8
90000_FRAME
370
    13
  6
CONTINUOUS
 62
     7
100
AcDbLine
 10
449.000049
 20
27.999978
 30
0.0
 11
584.000049
 21
27.999978
 31
0.0
  0
LINE
  5
16D1
100
AcDbEntity
  8
90000_FRAME
370
    13
  6
CONTINUOUS
 62
     7
100
AcDbLine
 10
499.000049
 20
15.999978
 30
0.0
 11
584.000049
 21
15.999978
 31
0.0
  0
LINE
  5
16D2
100
AcDbEntity
  8
90000_FRAME
370
    13
  6
CONTINUOUS
 62
     7
100
AcDbLine
 10
449.000049
 20
9.999978
 30
0.0
 11
449.000049
 21
27.999978
 31
0.0
  0
LINE
  5
16D3
100
AcDbEntity
  8
90000_FRAME
370
    13
  6
CONTINUOUS
 62
     7
100
AcDbLine
 10
449.000049
 20
9.999978
 30
0.0
 11
584.000049
 21
9.999978
 31
0.0
  0
LINE
  5
16D4
100
AcDbEntity
  8
90000_FRAME
370
    13
  6
CONTINUOUS
 62
     7
100
AcDbLine
 10
463.18625
 20
21.414526
 30
0.0
 11
463.18625
 21
16.661257
 31
0.0
  0
LINE
  5
16D5
100
AcDbEntity
  8
90000_FRAME
370
    13
  6
CONTINUOUS
 62
     7
100
AcDbLine
 10
464.61223
 20
21.414526
 30
0.0
 11
464.61223
 21
16.661257
 31
0.0
  0
LINE
  5
16D6
100
AcDbEntity
  8
90000_FRAME
370
    13
  6
CONTINUOUS
 62
     7
100
AcDbLine
 10
463.18625
 20
16.661257
 30
0.0
 11
464.61223
 21
16.661257
 31
0.0
  0
LINE
  5
16D7
100
AcDbEntity
  8
90000_FRAME
370
    13
  6
CONTINUOUS
 62
     7
100
AcDbLine
 10
463.18625
 20
21.414526
 30
0.0
 11
464.61223
 21
21.414526
 31
0.0
  0
LINE
  5
16D8
100
AcDbEntity
  8
90000_FRAME
370
    13
  6
CONTINUOUS
 62
     7
100
AcDbLine
 10
465.705482
 20
21.414526
 30
0.0
 11
465.705482
 21
16.661257
 31
0.0
  0
LINE
  5
16D9
100
AcDbEntity
  8
90000_FRAME
370
    13
  6
CONTINUOUS
 62
     7
100
AcDbLine
 10
465.705482
 20
16.661257
 30
0.0
 11
469.270434
 21
16.661257
 31
0.0
  0
LINE
  5
16DA
100
AcDbEntity
  8
90000_FRAME
370
    13
  6
CONTINUOUS
 62
     7
100
AcDbLine
 10
469.270434
 20
17.564378
 30
0.0
 11
467.08393
 21
17.564378
 31
0.0
  0
LINE
  5
16DB
100
AcDbEntity
  8
90000_FRAME
370
    13
  6
CONTINUOUS
 62
     7
100
AcDbLine
 10
469.270434
 20
17.564378
 30
0.0
 11
469.270434
 21
16.661257
 31
0.0
  0
LINE
  5
16DC
100
AcDbEntity
  8
90000_FRAME
370
    13
  6
CONTINUOUS
 62
     7
100
AcDbLine
 10
469.222901
 20
21.414526
 30
0.0
 11
465.705482
 21
21.414526
 31
0.0
  0
LINE
  5
16DD
100
AcDbEntity
  8
90000_FRAME
370
    13
  6
CONTINUOUS
 62
     7
100
AcDbLine
 10
469.222901
 20
20.535171
 30
0.0
 11
467.08393
 21
20.535171
 31
0.0
  0
LINE
  5
16DE
100
AcDbEntity
  8
90000_FRAME
370
    13
  6
CONTINUOUS
 62
     7
100
AcDbLine
 10
469.222901
 20
21.414526
 30
0.0
 11
469.222901
 21
20.535171
 31
0.0
  0
LINE
  5
16DF
100
AcDbEntity
  8
90000_FRAME
370
    13
  6
CONTINUOUS
 62
     7
100
AcDbLine
 10
468.937705
 20
18.681396
 30
0.0
 11
467.08393
 21
18.681396
 31
0.0
  0
LINE
  5
16E0
100
AcDbEntity
  8
90000_FRAME
370
    13
  6
CONTINUOUS
 62
     7
100
AcDbLine
 10
468.937705
 20
19.465686
 30
0.0
 11
468.937705
 21
18.681396
 31
0.0
  0
LINE
  5
16E1
100
AcDbEntity
  8
90000_FRAME
370
    13
  6
CONTINUOUS
 62
     7
100
AcDbLine
 10
468.937705
 20
19.465686
 30
0.0
 11
467.08393
 21
19.465686
 31
0.0
  0
LINE
  5
16E2
100
AcDbEntity
  8
90000_FRAME
370
    13
  6
CONTINUOUS
 62
     7
100
AcDbLine
 10
467.08393
 20
20.535171
 30
0.0
 11
467.08393
 21
19.465686
 31
0.0
  0
LINE
  5
16E3
100
AcDbEntity
  8
90000_FRAME
370
    13
  6
CONTINUOUS
 62
     7
100
AcDbLine
 10
467.08393
 20
18.681396
 30
0.0
 11
467.08393
 21
17.564378
 31
0.0
  0
LINE
  5
16E4
100
AcDbEntity
  8
90000_FRAME
370
    13
  6
CONTINUOUS
 62
     7
100
AcDbLine
 10
470.07849
 20
16.661257
 30
0.0
 11
470.07849
 21
21.414526
 31
0.0
  0
LINE
  5
16E5
100
AcDbEntity
  8
90000_FRAME
370
    13
  6
CONTINUOUS
 62
     7
100
AcDbLine
 10
470.07849
 20
16.661257
 30
0.0
 11
471.029144
 21
16.661257
 31
0.0
  0
LINE
  5
16E6
100
AcDbEntity
  8
90000_FRAME
370
    13
  6
CONTINUOUS
 62
     7
100
AcDbLine
 10
475.925011
 20
21.414526
 30
0.0
 11
475.925011
 21
16.661257
 31
0.0
  0
LINE
  5
16E7
100
AcDbEntity
  8
90000_FRAME
370
    13
  6
CONTINUOUS
 62
     7
100
AcDbLine
 10
475.925011
 20
16.661257
 30
0.0
 11
474.546563
 21
16.661257
 31
0.0
  0
LINE
  5
16E8
100
AcDbEntity
  8
90000_FRAME
370
    13
  6
CONTINUOUS
 62
     7
100
AcDbLine
 10
472.360059
 20
16.613724
 30
0.0
 11
473.215647
 21
16.613724
 31
0.0
  0
LINE
  5
16E9
100
AcDbEntity
  8
90000_FRAME
370
    13
  6
CONTINUOUS
 62
     7
100
AcDbLine
 10
472.360059
 20
16.613724
 30
0.0
 11
471.029144
 21
19.703349
 31
0.0
  0
LINE
  5
16EA
100
AcDbEntity
  8
90000_FRAME
370
    13
  6
CONTINUOUS
 62
     7
100
AcDbLine
 10
471.029144
 20
16.661257
 30
0.0
 11
471.029144
 21
19.703349
 31
0.0
  0
LINE
  5
16EB
100
AcDbEntity
  8
90000_FRAME
370
    13
  6
CONTINUOUS
 62
     7
100
AcDbLine
 10
474.546563
 20
19.750882
 30
0.0
 11
473.215647
 21
16.613724
 31
0.0
  0
LINE
  5
16EC
100
AcDbEntity
  8
90000_FRAME
370
    13
  6
CONTINUOUS
 62
     7
100
AcDbLine
 10
471.789667
 20
21.414526
 30
0.0
 11
470.07849
 21
21.414526
 31
0.0
  0
LINE
  5
16ED
100
AcDbEntity
  8
90000_FRAME
370
    13
  6
CONTINUOUS
 62
     7
100
AcDbLine
 10
475.925011
 20
21.414526
 30
0.0
 11
474.213834
 21
21.414526
 31
0.0
  0
LINE
  5
16EE
100
AcDbEntity
  8
90000_FRAME
370
    13
  6
CONTINUOUS
 62
     7
100
AcDbLine
 10
471.789667
 20
21.414526
 30
0.0
 11
473.025517
 21
18.515032
 31
0.0
  0
LINE
  5
16EF
100
AcDbEntity
  8
90000_FRAME
370
    13
  6
CONTINUOUS
 62
     7
100
AcDbLine
 10
474.213834
 20
21.414526
 30
0.0
 11
473.025517
 21
18.515032
 31
0.0
  0
LINE
  5
16F0
100
AcDbEntity
  8
90000_FRAME
370
    13
  6
CONTINUOUS
 62
     7
100
AcDbLine
 10
474.546563
 20
19.750882
 30
0.0
 11
474.546563
 21
16.661257
 31
0.0
  0
LINE
  5
16F1
100
AcDbEntity
  8
90000_FRAME
370
    13
  6
CONTINUOUS
 62
     7
100
AcDbLine
 10
477.018263
 20
21.414526
 30
0.0
 11
477.018263
 21
16.661257
 31
0.0
  0
LINE
  5
16F2
100
AcDbEntity
  8
90000_FRAME
370
    13
  6
CONTINUOUS
 62
     7
100
AcDbLine
 10
477.018263
 20
16.661257
 30
0.0
 11
480.583214
 21
16.661257
 31
0.0
  0
LINE
  5
16F3
100
AcDbEntity
  8
90000_FRAME
370
    13
  6
CONTINUOUS
 62
     7
100
AcDbLine
 10
480.583214
 20
17.564378
 30
0.0
 11
478.396711
 21
17.564378
 31
0.0
  0
LINE
  5
16F4
100
AcDbEntity
  8
90000_FRAME
370
    13
  6
CONTINUOUS
 62
     7
100
AcDbLine
 10
480.583214
 20
17.564378
 30
0.0
 11
480.583214
 21
16.661257
 31
0.0
  0
LINE
  5
16F5
100
AcDbEntity
  8
90000_FRAME
370
    13
  6
CONTINUOUS
 62
     7
100
AcDbLine
 10
480.535682
 20
21.414526
 30
0.0
 11
477.018263
 21
21.414526
 31
0.0
  0
LINE
  5
16F6
100
AcDbEntity
  8
90000_FRAME
370
    13
  6
CONTINUOUS
 62
     7
100
AcDbLine
 10
480.535682
 20
20.535171
 30
0.0
 11
478.396711
 21
20.535171
 31
0.0
  0
LINE
  5
16F7
100
AcDbEntity
  8
90000_FRAME
370
    13
  6
CONTINUOUS
 62
     7
100
AcDbLine
 10
480.535682
 20
21.414526
 30
0.0
 11
480.535682
 21
20.535171
 31
0.0
  0
LINE
  5
16F8
100
AcDbEntity
  8
90000_FRAME
370
    13
  6
CONTINUOUS
 62
     7
100
AcDbLine
 10
480.250486
 20
18.681396
 30
0.0
 11
478.396711
 21
18.681396
 31
0.0
  0
LINE
  5
16F9
100
AcDbEntity
  8
90000_FRAME
370
    13
  6
CONTINUOUS
 62
     7
100
AcDbLine
 10
480.250486
 20
19.465686
 30
0.0
 11
480.250486
 21
18.681396
 31
0.0
  0
LINE
  5
16FA
100
AcDbEntity
  8
90000_FRAME
370
    13
  6
CONTINUOUS
 62
     7
100
AcDbLine
 10
480.250486
 20
19.465686
 30
0.0
 11
478.396711
 21
19.465686
 31
0.0
  0
LINE
  5
16FB
100
AcDbEntity
  8
90000_FRAME
370
    13
  6
CONTINUOUS
 62
     7
100
AcDbLine
 10
478.396711
 20
20.535171
 30
0.0
 11
478.396711
 21
19.465686
 31
0.0
  0
LINE
  5
16FC
100
AcDbEntity
  8
90000_FRAME
370
    13
  6
CONTINUOUS
 62
     7
100
AcDbLine
 10
478.396711
 20
18.681396
 30
0.0
 11
478.396711
 21
17.564378
 31
0.0
  0
LINE
  5
16FD
100
AcDbEntity
  8
90000_FRAME
370
    13
  6
CONTINUOUS
 62
     7
100
AcDbLine
 10
481.367504
 20
16.661257
 30
0.0
 11
481.367504
 21
21.414526
 31
0.0
  0
LINE
  5
16FE
100
AcDbEntity
  8
90000_FRAME
370
    13
  6
CONTINUOUS
 62
     7
100
AcDbLine
 10
485.550381
 20
21.414526
 30
0.0
 11
485.550381
 21
16.661257
 31
0.0
  0
LINE
  5
16FF
100
AcDbEntity
  8
90000_FRAME
370
    13
  6
CONTINUOUS
 62
     7
100
AcDbLine
 10
481.367504
 20
16.661257
 30
0.0
 11
482.318158
 21
16.661257
 31
0.0
  0
LINE
  5
1700
100
AcDbEntity
  8
90000_FRAME
370
    13
  6
CONTINUOUS
 62
     7
100
AcDbLine
 10
485.550381
 20
21.414526
 30
0.0
 11
484.599727
 21
21.414526
 31
0.0
  0
LINE
  5
1701
100
AcDbEntity
  8
90000_FRAME
370
    13
  6
CONTINUOUS
 62
     7
100
AcDbLine
 10
482.912316
 20
21.414526
 30
0.0
 11
481.367504
 21
21.414526
 31
0.0
  0
LINE
  5
1702
100
AcDbEntity
  8
90000_FRAME
370
    13
  6
CONTINUOUS
 62
     7
100
AcDbLine
 10
485.550381
 20
16.661257
 30
0.0
 11
484.029335
 21
16.661257
 31
0.0
  0
LINE
  5
1703
100
AcDbEntity
  8
90000_FRAME
370
    13
  6
CONTINUOUS
 62
     7
100
AcDbLine
 10
484.029335
 20
16.661257
 30
0.0
 11
482.318158
 21
19.703349
 31
0.0
  0
LINE
  5
1704
100
AcDbEntity
  8
90000_FRAME
370
    13
  6
CONTINUOUS
 62
     7
100
AcDbLine
 10
482.912316
 20
21.414526
 30
0.0
 11
484.599727
 21
18.467499
 31
0.0
  0
LINE
  5
1705
100
AcDbEntity
  8
90000_FRAME
370
    13
  6
CONTINUOUS
 62
     7
100
AcDbLine
 10
484.599727
 20
21.414526
 30
0.0
 11
484.599727
 21
18.467499
 31
0.0
  0
LINE
  5
1706
100
AcDbEntity
  8
90000_FRAME
370
    13
  6
CONTINUOUS
 62
     7
100
AcDbLine
 10
482.318158
 20
16.661257
 30
0.0
 11
482.318158
 21
19.703349
 31
0.0
  0
LINE
  5
1707
100
AcDbEntity
  8
90000_FRAME
370
    13
  6
CONTINUOUS
 62
     7
100
AcDbLine
 10
486.358436
 20
16.756322
 30
0.0
 11
486.358436
 21
17.706976
 31
0.0
  0
LINE
  5
1708
100
AcDbEntity
  8
90000_FRAME
370
    13
  6
CONTINUOUS
 62
     7
100
AcDbLine
 10
489.685725
 20
20.41634
 30
0.0
 11
489.685725
 21
21.366994
 31
0.0
  0
ARC
  5
1709
100
AcDbEntity
  8
90000_FRAME
370
    13
  6
CONTINUOUS
 62
     7
100
AcDbCircle
 10
488.063078
 20
18.618416
 30
0.0
 40
1.111619
100
AcDbArc
 50
277.709996
 51
295.688493
  0
ARC
  5
170A
100
AcDbEntity
  8
90000_FRAME
370
    13
  6
CONTINUOUS
 62
     7
100
AcDbCircle
 10
488.347388
 20
17.89359
 30
0.0
 40
0.340169
100
AcDbArc
 50
305.503221
 51
72.46529
  0
ARC
  5
170B
100
AcDbEntity
  8
90000_FRAME
370
    13
  6
CONTINUOUS
 62
     7
100
AcDbCircle
 10
487.781394
 20
21.295297
 30
0.0
 40
4.756795
100
AcDbArc
 50
252.59392
 51
280.98166
  0
ARC
  5
170C
100
AcDbEntity
  8
90000_FRAME
370
    13
  6
CONTINUOUS
 62
     7
100
AcDbCircle
 10
488.236229
 20
18.677283
 30
0.0
 40
2.100727
100
AcDbArc
 50
282.405836
 51
311.864443
  0
ARC
  5
170D
100
AcDbEntity
  8
90000_FRAME
370
    13
  6
CONTINUOUS
 62
     7
100
AcDbCircle
 10
487.962665
 20
20.285625
 30
0.0
 40
0.302963
100
AcDbArc
 50
154.440035
 51
221.82017
  0
ARC
  5
170E
100
AcDbEntity
  8
90000_FRAME
370
    13
  6
CONTINUOUS
 62
     7
100
AcDbCircle
 10
488.041886
 20
20.206404
 30
0.0
 40
0.410309
100
AcDbArc
 50
102.828783
 51
149.225964
  0
ARC
  5
170F
100
AcDbEntity
  8
90000_FRAME
370
    13
  6
CONTINUOUS
 62
     7
100
AcDbCircle
 10
488.458913
 20
18.464068
 30
0.0
 40
2.201837
100
AcDbArc
 50
84.040006
 51
103.342766
  0
ARC
  5
1710
100
AcDbEntity
  8
90000_FRAME
370
    13
  6
CONTINUOUS
 62
     7
100
AcDbCircle
 10
488.117949
 20
16.046704
 30
0.0
 40
4.642374
100
AcDbArc
 50
70.262586
 51
82.952419
  0
ARC
  5
1711
100
AcDbEntity
  8
90000_FRAME
370
    13
  6
CONTINUOUS
 62
     7
100
AcDbCircle
 10
487.603931
 20
20.718327
 30
0.0
 40
3.258756
100
AcDbArc
 50
247.530021
 51
280.757952
  0
ARC
  5
1712
100
AcDbEntity
  8
90000_FRAME
370
    13
  6
CONTINUOUS
 62
     7
100
AcDbCircle
 10
481.218964
 20
2.466807
 30
0.0
 40
17.331608
100
AcDbArc
 50
65.341467
 51
67.399777
  0
ARC
  5
1713
100
AcDbEntity
  8
90000_FRAME
370
    13
  6
CONTINUOUS
 62
     7
100
AcDbCircle
 10
492.014827
 20
28.259234
 30
0.0
 40
10.629164
100
AcDbArc
 50
242.86201
 51
247.104203
  0
ARC
  5
1714
100
AcDbEntity
  8
90000_FRAME
370
    13
  6
CONTINUOUS
 62
     7
100
AcDbCircle
 10
488.159925
 20
20.725302
 30
0.0
 40
2.166292
100
AcDbArc
 50
227.311928
 51
242.704032
  0
ARC
  5
1715
100
AcDbEntity
  8
90000_FRAME
370
    13
  6
CONTINUOUS
 62
     7
100
AcDbCircle
 10
487.555895
 20
20.019625
 30
0.0
 40
1.238522
100
AcDbArc
 50
194.795219
 51
225.717655
  0
ARC
  5
1716
100
AcDbEntity
  8
90000_FRAME
370
    13
  6
CONTINUOUS
 62
     7
100
AcDbCircle
 10
487.618053
 20
20.059845
 30
0.0
 40
1.309092
100
AcDbArc
 50
164.197486
 51
195.802514
  0
ARC
  5
1717
100
AcDbEntity
  8
90000_FRAME
370
    13
  6
CONTINUOUS
 62
     7
100
AcDbCircle
 10
488.175076
 20
19.171577
 30
0.0
 40
2.366925
100
AcDbArc
 50
86.221802
 51
120.42726
  0
ARC
  5
1718
100
AcDbEntity
  8
90000_FRAME
370
    13
  6
CONTINUOUS
 62
     7
100
AcDbCircle
 10
487.90622
 20
12.47541
 30
0.0
 40
9.067905
100
AcDbArc
 50
78.682705
 51
87.31476
  0
ARC
  5
1719
100
AcDbEntity
  8
90000_FRAME
370
    13
  6
CONTINUOUS
 62
     7
100
AcDbCircle
 10
487.45015
 20
20.167352
 30
0.0
 40
1.119747
100
AcDbArc
 50
142.813918
 51
167.152295
  0
ARC
  5
171A
100
AcDbEntity
  8
90000_FRAME
370
    13
  6
CONTINUOUS
 62
     7
100
AcDbCircle
 10
487.79546
 20
19.860771
 30
0.0
 40
1.580547
100
AcDbArc
 50
121.214095
 51
141.525477
  0
ARC
  5
171B
100
AcDbEntity
  8
90000_FRAME
370
    13
  6
CONTINUOUS
 62
     7
100
AcDbCircle
 10
488.372634
 20
20.671828
 30
0.0
 40
0.866128
100
AcDbArc
 50
222.776039
 51
239.036243
  0
ARC
  5
171C
100
AcDbEntity
  8
90000_FRAME
370
    13
  6
CONTINUOUS
 62
     7
100
AcDbCircle
 10
485.865925
 20
13.341556
 30
0.0
 40
6.858774
100
AcDbArc
 50
59.902027
 51
68.203648
  0
ARC
  5
171D
100
AcDbEntity
  8
90000_FRAME
370
    13
  6
CONTINUOUS
 62
     7
100
AcDbCircle
 10
489.274419
 20
22.267442
 30
0.0
 40
2.698741
100
AcDbArc
 50
240.0482
 51
251.377967
  0
ARC
  5
171E
100
AcDbEntity
  8
90000_FRAME
370
    13
  6
CONTINUOUS
 62
     7
100
AcDbCircle
 10
488.608962
 20
18.110544
 30
0.0
 40
1.433447
100
AcDbArc
 50
315.890455
 51
333.522926
  0
ARC
  5
171F
100
AcDbEntity
  8
90000_FRAME
370
    13
  6
CONTINUOUS
 62
     7
100
AcDbCircle
 10
488.6136
 20
18.057136
 30
0.0
 40
1.406229
100
AcDbArc
 50
335.386797
 51
24.391512
  0
ARC
  5
1720
100
AcDbEntity
  8
90000_FRAME
370
    13
  6
CONTINUOUS
 62
     7
100
AcDbCircle
 10
488.541395
 20
17.97928
 30
0.0
 40
1.504703
100
AcDbArc
 50
25.956292
 51
59.483483
  0
LINE
  5
1721
100
AcDbEntity
  8
90000_FRAME
370
    13
  6
CONTINUOUS
 62
     7
100
AcDbLine
 10
458.765709
 20
16.756322
 30
0.0
 11
458.765709
 21
17.706976
 31
0.0
  0
LINE
  5
1722
100
AcDbEntity
  8
90000_FRAME
370
    13
  6
CONTINUOUS
 62
     7
100
AcDbLine
 10
462.092998
 20
20.41634
 30
0.0
 11
462.092998
 21
21.366994
 31
0.0
  0
ARC
  5
1723
100
AcDbEntity
  8
90000_FRAME
370
    13
  6
CONTINUOUS
 62
     7
100
AcDbCircle
 10
460.470351
 20
18.618416
 30
0.0
 40
1.111619
100
AcDbArc
 50
277.709996
 51
295.688493
  0
ARC
  5
1724
100
AcDbEntity
  8
90000_FRAME
370
    13
  6
CONTINUOUS
 62
     7
100
AcDbCircle
 10
460.75466
 20
17.89359
 30
0.0
 40
0.340169
100
AcDbArc
 50
305.503221
 51
72.46529
  0
ARC
  5
1725
100
AcDbEntity
  8
90000_FRAME
370
    13
  6
CONTINUOUS
 62
     7
100
AcDbCircle
 10
460.188667
 20
21.295297
 30
0.0
 40
4.756795
100
AcDbArc
 50
252.59392
 51
280.98166
  0
ARC
  5
1726
100
AcDbEntity
  8
90000_FRAME
370
    13
  6
CONTINUOUS
 62
     7
100
AcDbCircle
 10
460.643502
 20
18.677283
 30
0.0
 40
2.100727
100
AcDbArc
 50
282.405836
 51
311.864443
  0
ARC
  5
1727
100
AcDbEntity
  8
90000_FRAME
370
    13
  6
CONTINUOUS
 62
     7
100
AcDbCircle
 10
460.369938
 20
20.285625
 30
0.0
 40
0.302963
100
AcDbArc
 50
154.440035
 51
221.82017
  0
ARC
  5
1728
100
AcDbEntity
  8
90000_FRAME
370
    13
  6
CONTINUOUS
 62
     7
100
AcDbCircle
 10
460.449159
 20
20.206404
 30
0.0
 40
0.410309
100
AcDbArc
 50
102.828783
 51
149.225964
  0
ARC
  5
1729
100
AcDbEntity
  8
90000_FRAME
370
    13
  6
CONTINUOUS
 62
     7
100
AcDbCircle
 10
460.866186
 20
18.464068
 30
0.0
 40
2.201837
100
AcDbArc
 50
84.040006
 51
103.342766
  0
ARC
  5
172A
100
AcDbEntity
  8
90000_FRAME
370
    13
  6
CONTINUOUS
 62
     7
100
AcDbCircle
 10
460.525222
 20
16.046704
 30
0.0
 40
4.642374
100
AcDbArc
 50
70.262586
 51
82.952419
  0
ARC
  5
172B
100
AcDbEntity
  8
90000_FRAME
370
    13
  6
CONTINUOUS
 62
     7
100
AcDbCircle
 10
460.011204
 20
20.718327
 30
0.0
 40
3.258756
100
AcDbArc
 50
247.530021
 51
280.757952
  0
ARC
  5
172C
100
AcDbEntity
  8
90000_FRAME
370
    13
  6
CONTINUOUS
 62
     7
100
AcDbCircle
 10
453.626237
 20
2.466807
 30
0.0
 40
17.331608
100
AcDbArc
 50
65.341467
 51
67.399777
  0
ARC
  5
172D
100
AcDbEntity
  8
90000_FRAME
370
    13
  6
CONTINUOUS
 62
     7
100
AcDbCircle
 10
464.4221
 20
28.259234
 30
0.0
 40
10.629164
100
AcDbArc
 50
242.86201
 51
247.104203
  0
ARC
  5
172E
100
AcDbEntity
  8
90000_FRAME
370
    13
  6
CONTINUOUS
 62
     7
100
AcDbCircle
 10
460.567198
 20
20.725302
 30
0.0
 40
2.166292
100
AcDbArc
 50
227.311928
 51
242.704032
  0
ARC
  5
172F
100
AcDbEntity
  8
90000_FRAME
370
    13
  6
CONTINUOUS
 62
     7
100
AcDbCircle
 10
459.963168
 20
20.019625
 30
0.0
 40
1.238522
100
AcDbArc
 50
194.795219
 51
225.717655
  0
ARC
  5
1730
100
AcDbEntity
  8
90000_FRAME
370
    13
  6
CONTINUOUS
 62
     7
100
AcDbCircle
 10
460.582349
 20
19.171577
 30
0.0
 40
2.366925
100
AcDbArc
 50
86.221802
 51
120.42726
  0
ARC
  5
1731
100
AcDbEntity
  8
90000_FRAME
370
    13
  6
CONTINUOUS
 62
     7
100
AcDbCircle
 10
460.313493
 20
12.47541
 30
0.0
 40
9.067905
100
AcDbArc
 50
78.682705
 51
87.31476
  0
ARC
  5
1732
100
AcDbEntity
  8
90000_FRAME
370
    13
  6
CONTINUOUS
 62
     7
100
AcDbCircle
 10
460.202733
 20
19.860771
 30
0.0
 40
1.580547
100
AcDbArc
 50
121.214095
 51
141.525477
  0
ARC
  5
1733
100
AcDbEntity
  8
90000_FRAME
370
    13
  6
CONTINUOUS
 62
     7
100
AcDbCircle
 10
460.779907
 20
20.671828
 30
0.0
 40
0.866128
100
AcDbArc
 50
222.776039
 51
239.036243
  0
ARC
  5
1734
100
AcDbEntity
  8
90000_FRAME
370
    13
  6
CONTINUOUS
 62
     7
100
AcDbCircle
 10
458.273198
 20
13.341556
 30
0.0
 40
6.858774
100
AcDbArc
 50
59.902027
 51
68.203648
  0
ARC
  5
1735
100
AcDbEntity
  8
90000_FRAME
370
    13
  6
CONTINUOUS
 62
     7
100
AcDbCircle
 10
461.681692
 20
22.267442
 30
0.0
 40
2.698741
100
AcDbArc
 50
240.0482
 51
251.377967
  0
ARC
  5
1736
100
AcDbEntity
  8
90000_FRAME
370
    13
  6
CONTINUOUS
 62
     7
100
AcDbCircle
 10
461.016235
 20
18.110544
 30
0.0
 40
1.433447
100
AcDbArc
 50
315.890455
 51
333.522926
  0
ARC
  5
1737
100
AcDbEntity
  8
90000_FRAME
370
    13
  6
CONTINUOUS
 62
     7
100
AcDbCircle
 10
461.020873
 20
18.057136
 30
0.0
 40
1.406229
100
AcDbArc
 50
335.386797
 51
24.391512
  0
ARC
  5
1738
100
AcDbEntity
  8
90000_FRAME
370
    13
  6
CONTINUOUS
 62
     7
100
AcDbCircle
 10
460.948668
 20
17.97928
 30
0.0
 40
1.504703
100
AcDbArc
 50
25.956292
 51
59.483483
  0
LINE
  5
1739
100
AcDbEntity
  8
90000_FRAME
370
    13
  6
CONTINUOUS
 62
     7
100
AcDbLine
 10
458.957538
 20
20.833721
 30
0.0
 11
459.231604
 21
21.107794
 31
0.0
  0
ARC
  5
173A
100
AcDbEntity
  8
90000_FRAME
370
    13
  6
CONTINUOUS
 62
     7
100
AcDbCircle
 10
460.025326
 20
20.059845
 30
0.0
 40
1.309092
100
AcDbArc
 50
164.197486
 51
195.802514
  0
ARC
  5
173B
100
AcDbEntity
  8
90000_FRAME
370
    13
  6
CONTINUOUS
 62
     7
100
AcDbCircle
 10
459.857423
 20
20.167352
 30
0.0
 40
1.119747
100
AcDbArc
 50
142.813918
 51
167.152295
  0
LINE
  5
173C
100
AcDbEntity
  8
90000_FRAME
370
    13
  6
CONTINUOUS
 62
     7
100
AcDbLine
 10
589.000049
 20
4.999978
 30
0.0
 11
589.000049
 21
414.999978
 31
0.0
  0
LINE
  5
173D
100
AcDbEntity
  8
90000_FRAME
370
    13
  6
CONTINUOUS
 62
     7
100
AcDbLine
 10
594.000049
 20
-0.000022
 30
0.0
 11
594.000049
 21
419.999978
 31
0.0
  0
LINE
  5
173E
100
AcDbEntity
  8
90000_FRAME
370
    13
  6
CONTINUOUS
 62
     7
100
AcDbLine
 10
5.000049
 20
4.999978
 30
0.0
 11
5.000049
 21
414.999978
 31
0.0
  0
LINE
  5
173F
100
AcDbEntity
  8
90000_FRAME
370
    13
  6
CONTINUOUS
 62
     7
100
AcDbLine
 10
0.000049
 20
-0.000022
 30
0.0
 11
0.000049
 21
419.999978
 31
0.0
  0
LINE
  5
1740
100
AcDbEntity
  8
90000_FRAME
370
    13
  6
CONTINUOUS
 62
     7
100
AcDbLine
 10
589.000049
 20
414.999978
 30
0.0
 11
5.000049
 21
414.999978
 31
0.0
  0
LINE
  5
1741
100
AcDbEntity
  8
90000_FRAME
370
    13
  6
CONTINUOUS
 62
     7
100
AcDbLine
 10
594.000049
 20
419.999978
 30
0.0
 11
0.000049
 21
419.999978
 31
0.0
  0
LINE
  5
1742
100
AcDbEntity
  8
90000_FRAME
370
    13
  6
CONTINUOUS
 62
     7
100
AcDbLine
 10
589.000049
 20
4.999978
 30
0.0
 11
5.000049
 21
4.999978
 31
0.0
  0
LINE
  5
1743
100
AcDbEntity
  8
90000_FRAME
370
    13
  6
CONTINUOUS
 62
     7
100
AcDbLine
 10
594.000049
 20
-0.000022
 30
0.0
 11
0.000049
 21
-0.000022
 31
0.0
  0
ENDSEC
  0
SECTION
  2
OBJECTS
  0
DICTIONARY
  5
10CF
100
AcDbDictionary
280
     0
281
     1
  3
ACAD_GROUP
350
10D0
  3
ACAD_MLINESTYLE
350
10D1
  0
DICTIONARY
  5
10D0
102
{ACAD_REACTORS
330
10CF
102
}
100
AcDbDictionary
280
     0
281
     1
  0
DICTIONARY
  5
10D1
102
{ACAD_REACTORS
330
10CF
102
}
100
AcDbDictionary
280
     0
281
     1
  3
Standard
350
10D2
  0
MLINESTYLE
  5
10D2
102
{ACAD_REACTORS
330
10D1
102
}
100
AcDbMlineStyle
  2
Standard
 70
     0
  3

 62
     0
 51
90.0
 52
90.0
 71
     2
 49
0.5
 62
   256
  6
ByLayer
 49
-0.5
 62
   256
  6
ByLayer
  0
ENDSEC
  0
EOF
