  0
SECTION
  2
HEADER
  9
$ACADVER
  1
AC1015
  9
$ACADMAINTVER
 70
     6
  9
$DWGCODEPAGE
  3
ANSI_1252
  9
$INSBASE
 10
0.0
 20
0.0
 30
0.0
  9
$EXTMIN
 10
69.395417
 20
287.976483
 30
-1.0
  9
$EXTMAX
 10
1026.514554
 20
492.804657
 30
0.7
  9
$LIMMIN
 10
0.0
 20
0.0
  9
$LIMMAX
 10
12.0
 20
9.0
  9
$ORTHOMODE
 70
     0
  9
$REGENMODE
 70
     1
  9
$FILLMODE
 70
     1
  9
$QTEXTMODE
 70
     0
  9
$MIRRTEXT
 70
     0
  9
$LTSCALE
 40
20.0
  9
$ATTMODE
 70
     1
  9
$TEXTSIZE
 40
0.2
  9
$TRACEWID
 40
0.05
  9
$TEXTSTYLE
  7
STANDARD
  9
$CLAYER
  8
0
  9
$CELTYPE
  6
ByLayer
  9
$CECOLOR
 62
   256
  9
$CELTSCALE
 40
1.0
  9
$DISPSILH
 70
     0
  9
$DIMSCALE
 40
1.0
  9
$DIMASZ
 40
0.18
  9
$DIMEXO
 40
0.0625
  9
$DIMDLI
 40
0.38
  9
$DIMRND
 40
0.0
  9
$DIMDLE
 40
0.0
  9
$DIMEXE
 40
0.18
  9
$DIMTP
 40
0.0
  9
$DIMTM
 40
0.0
  9
$DIMTXT
 40
0.18
  9
$DIMCEN
 40
0.09
  9
$DIMTSZ
 40
0.0
  9
$DIMTOL
 70
     0
  9
$DIMLIM
 70
     0
  9
$DIMTIH
 70
     1
  9
$DIMTOH
 70
     1
  9
$DIMSE1
 70
     0
  9
$DIMSE2
 70
     0
  9
$DIMTAD
 70
     0
  9
$DIMZIN
 70
     0
  9
$DIMBLK
  1

  9
$DIMASO
 70
     1
  9
$DIMSHO
 70
     1
  9
$DIMPOST
  1

  9
$DIMAPOST
  1

  9
$DIMALT
 70
     0
  9
$DIMALTD
 70
     2
  9
$DIMALTF
 40
25.4
  9
$DIMLFAC
 40
1.0
  9
$DIMTOFL
 70
     0
  9
$DIMTVP
 40
0.0
  9
$DIMTIX
 70
     0
  9
$DIMSOXD
 70
     0
  9
$DIMSAH
 70
     0
  9
$DIMBLK1
  1

  9
$DIMBLK2
  1

  9
$DIMSTYLE
  2
STANDARD
  9
$DIMCLRD
 70
     0
  9
$DIMCLRE
 70
     0
  9
$DIMCLRT
 70
     0
  9
$DIMTFAC
 40
1.0
  9
$DIMGAP
 40
0.09
  9
$DIMJUST
 70
     0
  9
$DIMSD1
 70
     0
  9
$DIMSD2
 70
     0
  9
$DIMTOLJ
 70
     1
  9
$DIMTZIN
 70
     0
  9
$DIMALTZ
 70
     0
  9
$DIMALTTZ
 70
     0
  9
$DIMUPT
 70
     0
  9
$DIMDEC
 70
     4
  9
$DIMTDEC
 70
     4
  9
$DIMALTU
 70
     2
  9
$DIMALTTD
 70
     2
  9
$DIMTXSTY
  7
STANDARD
  9
$DIMAUNIT
 70
     0
  9
$DIMADEC
 70
     0
  9
$DIMALTRND
 40
0.0
  9
$DIMAZIN
 70
     0
  9
$DIMDSEP
 70
     0
  9
$DIMATFIT
 70
     3
  9
$DIMFRAC
 70
     0
  9
$DIMLDRBLK
  1

  9
$DIMLUNIT
 70
     2
  9
$DIMLWD
 70
     0
  9
$DIMLWE
 70
     0
  9
$DIMTMOVE
 70
     0
  9
$LUNITS
 70
     2
  9
$LUPREC
 70
     4
  9
$SKETCHINC
 40
0.1
  9
$FILLETRAD
 40
0.0
  9
$AUNITS
 70
     0
  9
$AUPREC
 70
     0
  9
$MENU
  1
.
  9
$ELEVATION
 40
0.0
  9
$PELEVATION
 40
0.0
  9
$THICKNESS
 40
0.0
  9
$LIMCHECK
 70
     0
  9
$CHAMFERA
 40
0.0
  9
$CHAMFERB
 40
0.0
  9
$CHAMFERC
 40
0.0
  9
$CHAMFERD
 40
0.0
  9
$SKPOLY
 70
     0
  9
$TDCREATE
 40
2453353.758792454
  9
$TDUCREATE
 40
0.000000000
  9
$TDUPDATE
 40
0.000000000
  9
$TDUUPDATE
 40
2447892.958333334
  9
$TDINDWG
 40
78332576.0667047050
  9
$TDUSRTIMER
 40
0.0000000000
  9
$USRTIMER
 70
     1
  9
$ANGBASE
 50
0.0
  9
$ANGDIR
 70
     0
  9
$PDMODE
 70
     0
  9
$PDSIZE
 40
0.0
  9
$PLINEWID
 40
0.0
  9
$SPLFRAME
 70
     0
  9
$SPLINETYPE
 70
     6
  9
$SPLINESEGS
 70
     8
  9
$HANDSEED
  5
13CE
  9
$SURFTAB1
 70
     6
  9
$SURFTAB2
 70
     6
  9
$SURFTYPE
 70
     6
  9
$SURFU
 70
     6
  9
$SURFV
 70
     6
  9
$UCSBASE
  2

  9
$UCSNAME
  2

  9
$UCSORG
 10
0.0
 20
0.0
 30
0.0
  9
$UCSXDIR
 10
1.0
 20
0.0
 30
0.0
  9
$UCSYDIR
 10
0.0
 20
1.0
 30
0.0
  9
$UCSORTHOREF
  2

  9
$UCSORTHOVIEW
 70
     0
  9
$UCSORGTOP
 10
0.0
 20
0.0
 30
0.0
  9
$UCSORGBOTTOM
 10
0.0
 20
0.0
 30
0.0
  9
$UCSORGLEFT
 10
0.0
 20
0.0
 30
0.0
  9
$UCSORGRIGHT
 10
0.0
 20
0.0
 30
0.0
  9
$UCSORGFRONT
 10
0.0
 20
0.0
 30
0.0
  9
$UCSORGBACK
 10
0.0
 20
0.0
 30
0.0
  9
$PUCSBASE
  2

  9
$PUCSNAME
  2

  9
$PUCSORG
 10
0.0
 20
0.0
 30
0.0
  9
$PUCSXDIR
 10
1.0
 20
0.0
 30
0.0
  9
$PUCSYDIR
 10
0.0
 20
1.0
 30
0.0
  9
$PUCSORTHOREF
  2

  9
$PUCSORTHOVIEW
 70
     0
  9
$PUCSORGTOP
 10
0.0
 20
0.0
 30
0.0
  9
$PUCSORGBOTTOM
 10
0.0
 20
0.0
 30
0.0
  9
$PUCSORGLEFT
 10
0.0
 20
0.0
 30
0.0
  9
$PUCSORGRIGHT
 10
0.0
 20
0.0
 30
0.0
  9
$PUCSORGFRONT
 10
0.0
 20
0.0
 30
0.0
  9
$PUCSORGBACK
 10
0.0
 20
0.0
 30
0.0
  9
$USERI1
 70
     0
  9
$USERI2
 70
     0
  9
$USERI3
 70
     0
  9
$USERI4
 70
     0
  9
$USERI5
 70
     0
  9
$USERR1
 40
0.0
  9
$USERR2
 40
0.0
  9
$USERR3
 40
0.0
  9
$USERR4
 40
0.0
  9
$USERR5
 40
0.0
  9
$WORLDVIEW
 70
     1
  9
$SHADEDGE
 70
     3
  9
$SHADEDIF
 70
    70
  9
$TILEMODE
 70
     1
  9
$MAXACTVP
 70
    64
  9
$PINSBASE
 10
0.0
 20
0.0
 30
0.0
  9
$PLIMCHECK
 70
     0
  9
$PEXTMIN
 10
0.0
 20
0.0
 30
0.0
  9
$PEXTMAX
 10
0.0
 20
0.0
 30
0.0
  9
$PLIMMIN
 10
0.0
 20
0.0
  9
$PLIMMAX
 10
0.0
 20
0.0
  9
$UNITMODE
 70
     0
  9
$VISRETAIN
 70
     1
  9
$PLINEGEN
 70
     0
  9
$PSLTSCALE
 70
     1
  9
$TREEDEPTH
 70
  3020
  9
$CMLSTYLE
  2
Standard
  9
$CMLJUST
 70
     0
  9
$CMLSCALE
 40
1.0
  9
$PROXYGRAPHICS
 70
     0
  9
$MEASUREMENT
 70
     0
  9
$CELWEIGHT
370
     0
  9
$ENDCAPS
280
     0
  9
$JOINSTYLE
280
     0
  9
$LWDISPLAY
290
     0
  9
$INSUNITS
 70
     0
  9
$HYPERLINKBASE
  1

  9
$STYLESHEET
  1

  9
$XEDIT
290
     1
  9
$CEPSNTYPE
380
     0
  9
$PSTYLEMODE
290
     1
  9
$FINGERPRINTGUID
  2

  9
$VERSIONGUID
  2

  9
$EXTNAMES
290
     1
  9
$PSVPSCALE
 40
0.0
  0
ENDSEC
  0
SECTION
  2
CLASSES
  0
CLASS
  1
LWPOLYLINE
  2
AcDbPolyline
  3
AutoCAD 2000
 90
        0
280
     0
281
     1
  0
CLASS
  1
IMAGE
  2
AcDbRasterImage
  3
ISM
 90
      127
280
     0
281
     1
  0
CLASS
  1
OLE2FRAME
  2
AcDbOle2Frame
  3
AutoCAD 2000
 90
        0
280
     0
281
     1
  0
CLASS
  1
HATCH
  2
AcDbHatch
  3
AutoCAD 2000
 90
        0
280
     0
281
     1
  0
CLASS
  1
DICTIONARYVAR
  2
AcDbDictionaryVar
  3
AutoCAD 2000
 90
        0
280
     0
281
     0
  0
CLASS
  1
RASTERVARIABLES
  2
AcDbRasterVariables
  3
ISM
 90
        0
280
     0
281
     0
  0
CLASS
  1
IMAGEDEF
  2
AcDbRasterImageDef
  3
ISM
 90
        0
280
     0
281
     0
  0
CLASS
  1
IMAGEDEF_REACTOR
  2
AcDbRasterImageDefReactor
  3
ISM
 90
        1
280
     0
281
     0
  0
CLASS
  1
IDBUFFER
  2
AcDbIdBuffer
  3
AutoCAD 2000
 90
        0
280
     0
281
     0
  0
CLASS
  1
SPATIAL_FILTER
  2
AcDbSpatialFilter
  3
AutoCAD 2000
 90
        0
280
     0
281
     0
  0
CLASS
  1
XRECORD
  2
AcDbXrecord
  3
AutoCAD 2000
 90
        0
280
     0
281
     0
  0
CLASS
  1
SORTENTSTABLE
  2
AcDbSortentsTable
  3
AutoCAD 2000
 90
        0
280
     0
281
     0
  0
CLASS
  1
LAYER_INDEX
  2
AcDbLayerIndex
  3
AutoCAD 2000
 90
        0
280
     0
281
     0
  0
CLASS
  1
SPATIAL_INDEX
  2
AcDbSpatialIndex
  3
AutoCAD 2000
 90
        0
280
     0
281
     0
  0
CLASS
  1
OBJECT_PTR
  2
CAseDLPNTableRecord
  3
"ASE-LPNTableRecord"
 90
        1
280
     0
281
     0
  0
CLASS
  1
LAYOUT
  2
AcDbLayout
  3
AutoCAD 2000
 90
        0
280
     0
281
     0
  0
CLASS
  1
PLOTSETTINGS
  2
AcDbPlotSettings
  3
AutoCAD 2000
 90
        0
280
     0
281
     0
  0
CLASS
  1
ACDBDICTIONARYWDFLT
  2
AcDbDictionaryWithDefault
  3
AutoCAD 2000
 90
        0
280
     0
281
     0
  0
CLASS
  1
ACDBPLACEHOLDER
  2
AcDbPlaceHolder
  3
AutoCAD 2000
 90
        0
280
     0
281
     0
  0
CLASS
  1
VBA_PROJECT
  2
AcDbVbaProject
  3
acadvba
 90
        0
280
     0
281
     0
  0
CLASS
  1
WIPEOUT
  2
AcDbWipeout
  3
WipeOut|AutoCAD Express Tool|expresstools@autodesk.com
 90
      127
280
     0
281
     1
  0
CLASS
  1
WIPEOUTVARIABLES
  2
AcDbWipeoutVariables
  3
WipeOut|AutoCAD Express Tool|expresstools@autodesk.com
 90
        0
280
     0
281
     0
  0
CLASS
  1
RTEXT
  2
RText
  3
RText|AutoCAD Express Tool|expresstools@autodesk.com
 90
        0
280
     0
281
     1
  0
CLASS
  1
ARCALIGNEDTEXT
  2
AcDbArcAlignedText
  3
ATEXT|AutoCAD Express Tool|expresstools@autodesk.com
 90
        0
280
     0
281
     1
  0
ENDSEC
  0
SECTION
  2
TABLES
  0
TABLE
  2
VPORT
  5
1094
100
AcDbSymbolTable
 70
     1
  0
VPORT
  5
10BB
100
AcDbSymbolTableRecord
100
AcDbViewportTableRecord
  2
*ACTIVE
 70
     0
 10
0.0
 20
0.0
 11
1.0
 21
1.0
 12
450.328833
 22
266.374849
 13
0.0
 23
0.0
 14
0.5
 24
0.5
 15
0.5
 25
0.5
 16
0.0
 26
0.0
 36
1.0
 17
0.0
 27
0.0
 37
0.0
 40
620.078606
 41
1.701534
 42
50.0
 43
0.0
 44
0.0
 50
0.0
 51
0.0
 71
    16
 72
  1000
 73
     1
 74
     3
 75
     0
 76
     0
 77
     0
 78
     0
281
     0
 65
     0
110
0.0
120
0.0
130
0.0
111
1.0
121
0.0
131
0.0
112
0.0
122
1.0
132
0.0
345
0
346
0
 79
     0
146
0.0
  0
ENDTAB
  0
TABLE
  2
LTYPE
  5
1091
100
AcDbSymbolTable
 70
     6
  0
LTYPE
  5
109A
100
AcDbSymbolTableRecord
100
AcDbLinetypeTableRecord
  2
ByBlock
 70
    64
  3

 72
    65
 73
     0
 40
0.0
  0
LTYPE
  5
109B
100
AcDbSymbolTableRecord
100
AcDbLinetypeTableRecord
  2
ByLayer
 70
    64
  3

 72
    65
 73
     0
 40
0.0
  0
LTYPE
  5
109C
100
AcDbSymbolTableRecord
100
AcDbLinetypeTableRecord
  2
CONTINUOUS
 70
     0
  3
Solid line
 72
    65
 73
     0
 40
0.0
  0
LTYPE
  5
109D
100
AcDbSymbolTableRecord
100
AcDbLinetypeTableRecord
  2
CENTER
 70
     0
  3
____ _ ____ _ ____ _ ____ _ ____ _ ____ _ ____
 72
    65
 73
     4
 40
0.6
 49
0.375
 74
     0
 49
-0.075
 74
     0
 49
0.075
 74
     0
 49
-0.075
 74
     0
  0
LTYPE
  5
109E
100
AcDbSymbolTableRecord
100
AcDbLinetypeTableRecord
  2
ACAD_ISO02W100
 70
     0
  3
ISO Strichlinie __ __ __ __ __ __ __ __ __ __ _
 72
    65
 73
     2
 40
15.0
 49
12.0
 74
     0
 49
-3.0
 74
     0
  0
LTYPE
  5
109F
100
AcDbSymbolTableRecord
100
AcDbLinetypeTableRecord
  2
DASHED
 70
     0
  3
_ _ _ _ _ _ _ _ _ _ _ _ _ _ _ _ _ _ _ _ _ _ _ _
 72
    65
 73
     2
 40
0.375
 49
0.25
 74
     0
 49
-0.125
 74
     0
  0
ENDTAB
  0
TABLE
  2
LAYER
  5
108F
100
AcDbSymbolTable
 70
     8
  0
LAYER
  5
10A0
100
AcDbSymbolTableRecord
100
AcDbLayerTableRecord
  2
0
 70
     0
 62
     7
  6
CONTINUOUS
290
     1
370
    -3
390
0
  0
LAYER
  5
10A1
100
AcDbSymbolTableRecord
100
AcDbLayerTableRecord
  2
90000_FRAME
 70
     0
 62
     7
  6
CONTINUOUS
290
     1
370
    -3
390
0
  0
LAYER
  5
10A2
100
AcDbSymbolTableRecord
100
AcDbLayerTableRecord
  2
91000_TIP
 70
     0
 62
     7
  6
CONTINUOUS
290
     1
370
    -3
390
0
  0
LAYER
  5
10A3
100
AcDbSymbolTableRecord
100
AcDbLayerTableRecord
  2
10000_FRONT
 70
     0
 62
     7
  6
CONTINUOUS
290
     1
370
    -3
390
0
  0
LAYER
  5
10A4
100
AcDbSymbolTableRecord
100
AcDbLayerTableRecord
  2
11000_LEFT
 70
     0
 62
     7
  6
CONTINUOUS
290
     1
370
    -3
390
0
  0
LAYER
  5
10A7
100
AcDbSymbolTableRecord
100
AcDbLayerTableRecord
  2
DEFPOINTS
 70
     0
 62
     7
  6
CONTINUOUS
290
     0
370
    -3
390
0
  0
LAYER
  5
10A8
100
AcDbSymbolTableRecord
100
AcDbLayerTableRecord
  2
10100_FRONT_DIM
 70
     0
 62
     7
  6
CONTINUOUS
290
     1
370
    -3
390
0
  0
LAYER
  5
10A9
100
AcDbSymbolTableRecord
100
AcDbLayerTableRecord
  2
11100_LEFT_DIM
 70
     0
 62
     7
  6
CONTINUOUS
290
     1
370
    -3
390
0
  0
ENDTAB
  0
TABLE
  2
STYLE
  5
1090
100
AcDbSymbolTable
 70
     1
  0
STYLE
  5
10C0
100
AcDbSymbolTableRecord
100
AcDbTextStyleTableRecord
  2
STANDARD
 70
     0
 40
0.0
 41
1.0
 50
0.0
 71
     0
 42
0.2
  3
txt.shx
  4

  0
ENDTAB
  0
TABLE
  2
VIEW
  5
1092
100
AcDbSymbolTable
 70
     0
  0
ENDTAB
  0
TABLE
  2
UCS
  5
1093
100
AcDbSymbolTable
 70
     0
  0
ENDTAB
  0
TABLE
  2
APPID
  5
1095
100
AcDbSymbolTable
 70
     4
  0
APPID
  5
10BC
100
AcDbSymbolTableRecord
100
AcDbRegAppTableRecord
  2
ACAD
 70
     0
  0
APPID
  5
10BD
100
AcDbSymbolTableRecord
100
AcDbRegAppTableRecord
  2
AUSTER_ANSICHT
 70
     0
  0
APPID
  5
10BE
100
AcDbSymbolTableRecord
100
AcDbRegAppTableRecord
  2
AUSTER_FOLIE
 70
     0
  0
APPID
  5
10BF
100
AcDbSymbolTableRecord
100
AcDbRegAppTableRecord
  2
ACAECLAYERSTANDARD
 70
     0
  0
ENDTAB
  0
TABLE
  2
DIMSTYLE
  5
1096
100
AcDbSymbolTable
 70
     3
100
AcDbDimStyleTable
 71
     0
  0
DIMSTYLE
105
10CA
100
AcDbSymbolTableRecord
100
AcDbDimStyleTableRecord
  2
STANDARD
 70
     0
  3

  4

 40
1.0
 41
0.18
 42
0.0625
 43
0.38
 44
0.18
 45
0.0
 46
0.0
 47
0.0
 48
0.0
 71
     0
 72
     0
 73
     1
 74
     1
 75
     0
 76
     0
 77
     0
 78
     0
 79
     0
140
0.18
141
0.09
142
0.0
143
25.4
144
1.0
145
0.0
146
1.0
147
0.09
148
0.0
170
     0
171
     2
172
     0
173
     0
174
     0
175
     0
176
     0
177
     0
178
     0
179
     0
271
     4
272
     4
273
     2
274
     2
275
     0
276
     0
277
     2
278
    46
279
     0
280
     0
281
     0
282
     0
283
     1
284
     0
285
     0
286
     0
288
     0
289
     3
340
10C0
341
0
342
0
343
0
344
0
371
    -2
372
    -2
  0
DIMSTYLE
105
10CB
100
AcDbSymbolTableRecord
100
AcDbDimStyleTableRecord
  2
DSTYLE1
 70
     0
  3

  4

 40
1.0
 41
3.0
 42
0.0
 43
0.38
 44
1.0
 45
0.0
 46
0.0
 47
0.0
 48
0.0
 71
     0
 72
     0
 73
     0
 74
     0
 75
     0
 76
     0
 77
     1
 78
     3
 79
     0
140
2.5
141
0.09
142
0.0
143
0.03937
144
1.0
145
0.0
146
1.0
147
1.0
148
0.0
170
     0
171
     2
172
     0
173
     0
174
     0
175
     0
176
     0
177
     0
178
     0
179
     0
271
     4
272
     4
273
     2
274
     2
275
     0
276
     0
277
     2
278
    46
279
     0
280
     0
281
     0
282
     0
283
     1
284
     0
285
     0
286
     0
288
     0
289
     3
340
10C0
341
0
342
0
343
0
344
0
371
    -2
372
    -2
  0
DIMSTYLE
105
10CC
100
AcDbSymbolTableRecord
100
AcDbDimStyleTableRecord
  2
H035
 70
     0
  3

  4

 40
0.0
 41
3.5
 42
0.0
 43
3.75
 44
2.0
 45
0.0
 46
0.0
 47
0.0
 48
0.0
 71
     0
 72
     0
 73
     0
 74
     0
 75
     0
 76
     0
 77
     1
 78
     8
 79
     0
140
3.5
141
2.5
142
0.0
143
0.039
144
1.0
145
0.0
146
1.0
147
0.5
148
0.0
170
     0
171
     4
172
     1
173
     0
174
     0
175
     0
176
   256
177
     7
178
     7
179
     0
271
     4
272
     4
273
     2
274
     2
275
     0
276
     0
277
     2
278
    46
279
     0
280
     0
281
     0
282
     0
283
     1
284
     0
285
     0
286
     0
288
     0
289
     3
340
10C0
341
0
342
0
343
0
344
0
371
    -2
372
    -2
  0
ENDTAB
  0
TABLE
  2
BLOCK_RECORD
  5
10C5
100
AcDbSymbolTable
 70
     2
  0
BLOCK_RECORD
  5
10C3
100
AcDbSymbolTableRecord
100
AcDbBlockTableRecord
  2
*Model_Space
340
0
  0
BLOCK_RECORD
  5
10C4
100
AcDbSymbolTableRecord
100
AcDbBlockTableRecord
  2
*Paper_Space
340
0
  0
BLOCK_RECORD
  5
10C1
100
AcDbSymbolTableRecord
100
AcDbBlockTableRecord
  2
$MODEL_SPACE
340
0
  0
BLOCK_RECORD
  5
10C2
100
AcDbSymbolTableRecord
100
AcDbBlockTableRecord
  2
$PAPER_SPACE
340
0
  0
ENDTAB
  0
ENDSEC
  0
SECTION
  2
BLOCKS
  0
BLOCK
  5
10C6
100
AcDbEntity
  8
0
390
0
100
AcDbBlockBegin
  2
*Model_Space
 70
     0
 10
0.0
 20
0.0
 30
0.0
  3
*Model_Space
  1

  0
ENDBLK
  5
10C7
100
AcDbEntity
  8
0
390
0
100
AcDbBlockEnd
  0
BLOCK
  5
10C8
100
AcDbEntity
 67
     1
  8
0
390
0
100
AcDbBlockBegin
  2
*Paper_Space
 70
     0
 10
0.0
 20
0.0
 30
0.0
  3
*Paper_Space
  1

  0
ENDBLK
  5
10C9
100
AcDbEntity
 67
     1
  8
0
390
0
100
AcDbBlockEnd
  0
BLOCK
  5
10CD
100
AcDbEntity
  8
0
100
AcDbBlockBegin
  2
$MODEL_SPACE
 70
     0
 10
0.0
 20
0.0
 30
0.0
  3
$MODEL_SPACE
  1

  0
ENDBLK
  5
21
100
AcDbEntity
  8
0
100
AcDbBlockEnd
  0
BLOCK
  5
10CE
100
AcDbEntity
  8
0
100
AcDbBlockBegin
  2
$PAPER_SPACE
 70
     0
 10
0.0
 20
0.0
 30
0.0
  3
$PAPER_SPACE
  1

  0
ENDBLK
  5
76
100
AcDbEntity
  8
0
100
AcDbBlockEnd
  0
ENDSEC
  0
SECTION
  2
ENTITIES
  0
LINE
  5
10D4
100
AcDbEntity
  8
10000_FRONT
370
    25
390
0
  6
CONTINUOUS
 62
     7
100
AcDbLine
 10
225.199997
 20
604.999995
 30
0.0
 11
221.700134
 21
616.199561
 31
0.0
  0
LINE
  5
10D5
100
AcDbEntity
  8
10000_FRONT
370
    25
390
0
  6
CONTINUOUS
 62
     7
100
AcDbLine
 10
158.218256
 20
638.488778
 30
0.0
 11
158.214424
 21
638.499995
 31
0.0
  0
LINE
  5
10D6
100
AcDbEntity
  8
10000_FRONT
370
    25
390
0
  6
CONTINUOUS
 62
     7
100
AcDbLine
 10
210.18557
 20
656.499995
 30
0.0
 11
210.181736
 21
656.511215
 31
0.0
  0
LINE
  5
10D7
100
AcDbEntity
  8
10000_FRONT
370
    25
390
0
  6
CONTINUOUS
 62
     7
100
AcDbLine
 10
210.181736
 20
656.511215
 30
0.0
 11
210.170012
 21
656.545166
 31
0.0
  0
LINE
  5
10D8
100
AcDbEntity
  8
10000_FRONT
370
    25
390
0
  6
CONTINUOUS
 62
     7
100
AcDbLine
 10
158.229981
 20
638.45483
 30
0.0
 11
158.218256
 21
638.488778
 31
0.0
  0
LINE
  5
10D9
100
AcDbEntity
  8
10000_FRONT
370
    25
390
0
  6
CONTINUOUS
 62
     7
100
AcDbLine
 10
158.249933
 20
638.397714
 30
0.0
 11
158.229981
 21
638.45483
 31
0.0
  0
LINE
  5
10DA
100
AcDbEntity
  8
10000_FRONT
370
    25
390
0
  6
CONTINUOUS
 62
     7
100
AcDbLine
 10
210.170012
 20
656.545166
 30
0.0
 11
210.150057
 21
656.602284
 31
0.0
  0
LINE
  5
10DB
100
AcDbEntity
  8
10000_FRONT
370
    25
390
0
  6
CONTINUOUS
 62
     7
100
AcDbLine
 10
210.150057
 20
656.602284
 30
0.0
 11
210.121536
 21
656.683007
 31
0.0
  0
LINE
  5
10DC
100
AcDbEntity
  8
10000_FRONT
370
    25
390
0
  6
CONTINUOUS
 62
     7
100
AcDbLine
 10
158.278454
 20
638.316993
 30
0.0
 11
158.249933
 21
638.397714
 31
0.0
  0
LINE
  5
10DD
100
AcDbEntity
  8
10000_FRONT
370
    25
390
0
  6
CONTINUOUS
 62
     7
100
AcDbLine
 10
210.121536
 20
656.683007
 30
0.0
 11
210.084112
 21
656.787771
 31
0.0
  0
LINE
  5
10DE
100
AcDbEntity
  8
10000_FRONT
370
    25
390
0
  6
CONTINUOUS
 62
     7
100
AcDbLine
 10
158.315878
 20
638.212232
 30
0.0
 11
158.278454
 21
638.316993
 31
0.0
  0
LINE
  5
10DF
100
AcDbEntity
  8
10000_FRONT
370
    25
390
0
  6
CONTINUOUS
 62
     7
100
AcDbLine
 10
210.084112
 20
656.787771
 30
0.0
 11
210.037432
 21
656.916938
 31
0.0
  0
LINE
  5
10E0
100
AcDbEntity
  8
10000_FRONT
370
    25
390
0
  6
CONTINUOUS
 62
     7
100
AcDbLine
 10
158.362557
 20
638.08307
 30
0.0
 11
158.315878
 21
638.212232
 31
0.0
  0
LINE
  5
10E1
100
AcDbEntity
  8
10000_FRONT
370
    25
390
0
  6
CONTINUOUS
 62
     7
100
AcDbLine
 10
158.418901
 20
637.929693
 30
0.0
 11
158.362557
 21
638.08307
 31
0.0
  0
LINE
  5
10E2
100
AcDbEntity
  8
10000_FRONT
370
    25
390
0
  6
CONTINUOUS
 62
     7
100
AcDbLine
 10
210.037432
 20
656.916938
 30
0.0
 11
209.981085
 21
657.070316
 31
0.0
  0
LINE
  5
10E3
100
AcDbEntity
  8
10000_FRONT
370
    25
390
0
  6
CONTINUOUS
 62
     7
100
AcDbLine
 10
158.485336
 20
637.752536
 30
0.0
 11
158.418901
 21
637.929693
 31
0.0
  0
LINE
  5
10E4
100
AcDbEntity
  8
10000_FRONT
370
    25
390
0
  6
CONTINUOUS
 62
     7
100
AcDbLine
 10
209.981085
 20
657.070316
 30
0.0
 11
209.914648
 21
657.247475
 31
0.0
  0
LINE
  5
10E5
100
AcDbEntity
  8
10000_FRONT
370
    25
390
0
  6
CONTINUOUS
 62
     7
100
AcDbLine
 10
209.914648
 20
657.247475
 30
0.0
 11
209.837698
 21
657.447984
 31
0.0
  0
LINE
  5
10E6
100
AcDbEntity
  8
10000_FRONT
370
    25
390
0
  6
CONTINUOUS
 62
     7
100
AcDbLine
 10
158.562286
 20
637.552029
 30
0.0
 11
158.485336
 21
637.752536
 31
0.0
  0
LINE
  5
10E7
100
AcDbEntity
  8
10000_FRONT
370
    25
390
0
  6
CONTINUOUS
 62
     7
100
AcDbLine
 10
209.837698
 20
657.447984
 30
0.0
 11
209.749809
 21
657.671407
 31
0.0
  0
LINE
  5
10E8
100
AcDbEntity
  8
10000_FRONT
370
    25
390
0
  6
CONTINUOUS
 62
     7
100
AcDbLine
 10
158.650175
 20
637.328608
 30
0.0
 11
158.562286
 21
637.552029
 31
0.0
  0
LINE
  5
10E9
100
AcDbEntity
  8
10000_FRONT
370
    25
390
0
  6
CONTINUOUS
 62
     7
100
AcDbLine
 10
158.749451
 20
637.082702
 30
0.0
 11
158.650175
 21
637.328608
 31
0.0
  0
LINE
  5
10EA
100
AcDbEntity
  8
10000_FRONT
370
    25
390
0
  6
CONTINUOUS
 62
     7
100
AcDbLine
 10
209.749809
 20
657.671407
 30
0.0
 11
209.650532
 21
657.917315
 31
0.0
  0
LINE
  5
10EB
100
AcDbEntity
  8
10000_FRONT
370
    25
390
0
  6
CONTINUOUS
 62
     7
100
AcDbLine
 10
158.86063
 20
636.815076
 30
0.0
 11
158.749451
 21
637.082702
 31
0.0
  0
LINE
  5
10EC
100
AcDbEntity
  8
10000_FRONT
370
    25
390
0
  6
CONTINUOUS
 62
     7
100
AcDbLine
 10
209.650532
 20
657.917315
 30
0.0
 11
209.539351
 21
658.184944
 31
0.0
  0
LINE
  5
10ED
100
AcDbEntity
  8
10000_FRONT
370
    25
390
0
  6
CONTINUOUS
 62
     7
100
AcDbLine
 10
209.539351
 20
658.184944
 30
0.0
 11
209.415913
 21
658.473092
 31
0.0
  0
LINE
  5
10EE
100
AcDbEntity
  8
10000_FRONT
370
    25
390
0
  6
CONTINUOUS
 62
     7
100
AcDbLine
 10
158.984068
 20
636.52693
 30
0.0
 11
158.86063
 21
636.815076
 31
0.0
  0
LINE
  5
10EF
100
AcDbEntity
  8
10000_FRONT
370
    25
390
0
  6
CONTINUOUS
 62
     7
100
AcDbLine
 10
159.120106
 20
636.219486
 30
0.0
 11
158.984068
 21
636.52693
 31
0.0
  0
LINE
  5
10F0
100
AcDbEntity
  8
10000_FRONT
370
    25
390
0
  6
CONTINUOUS
 62
     7
100
AcDbLine
 10
209.415913
 20
658.473092
 30
0.0
 11
209.279873
 21
658.780536
 31
0.0
  0
LINE
  5
10F1
100
AcDbEntity
  8
10000_FRONT
370
    25
390
0
  6
CONTINUOUS
 62
     7
100
AcDbLine
 10
159.269085
 20
635.893969
 30
0.0
 11
159.120106
 21
636.219486
 31
0.0
  0
LINE
  5
10F2
100
AcDbEntity
  8
10000_FRONT
370
    25
390
0
  6
CONTINUOUS
 62
     7
100
AcDbLine
 10
209.279873
 20
658.780536
 30
0.0
 11
209.130892
 21
659.106054
 31
0.0
  0
LINE
  5
10F3
100
AcDbEntity
  8
10000_FRONT
370
    25
390
0
  6
CONTINUOUS
 62
     7
100
AcDbLine
 10
209.130892
 20
659.106054
 30
0.0
 11
208.968638
 21
659.448398
 31
0.0
  0
LINE
  5
10F4
100
AcDbEntity
  8
10000_FRONT
370
    25
390
0
  6
CONTINUOUS
 62
     7
100
AcDbLine
 10
159.431339
 20
635.551626
 30
0.0
 11
159.269085
 21
635.893969
 31
0.0
  0
LINE
  5
10F5
100
AcDbEntity
  8
10000_FRONT
370
    25
390
0
  6
CONTINUOUS
 62
     7
100
AcDbLine
 10
159.607029
 20
635.194077
 30
0.0
 11
159.431339
 21
635.551626
 31
0.0
  0
LINE
  5
10F6
100
AcDbEntity
  8
10000_FRONT
370
    25
390
0
  6
CONTINUOUS
 62
     7
100
AcDbLine
 10
208.968638
 20
659.448398
 30
0.0
 11
208.792946
 21
659.805948
 31
0.0
  0
LINE
  5
10F7
100
AcDbEntity
  8
10000_FRONT
370
    25
390
0
  6
CONTINUOUS
 62
     7
100
AcDbLine
 10
208.792946
 20
659.805948
 30
0.0
 11
208.603806
 21
660.176908
 31
0.0
  0
LINE
  5
10F8
100
AcDbEntity
  8
10000_FRONT
370
    25
390
0
  6
CONTINUOUS
 62
     7
100
AcDbLine
 10
159.796171
 20
634.823117
 30
0.0
 11
159.607029
 21
635.194077
 31
0.0
  0
LINE
  5
10F9
100
AcDbEntity
  8
10000_FRONT
370
    25
390
0
  6
CONTINUOUS
 62
     7
100
AcDbLine
 10
159.998751
 20
634.440546
 30
0.0
 11
159.796171
 21
634.823117
 31
0.0
  0
LINE
  5
10FA
100
AcDbEntity
  8
10000_FRONT
370
    25
390
0
  6
CONTINUOUS
 62
     7
100
AcDbLine
 10
208.603806
 20
660.176908
 30
0.0
 11
208.401224
 21
660.55948
 31
0.0
  0
LINE
  5
10FB
100
AcDbEntity
  8
10000_FRONT
370
    25
390
0
  6
CONTINUOUS
 62
     7
100
AcDbLine
 10
208.401224
 20
660.55948
 30
0.0
 11
208.18544
 21
660.951688
 31
0.0
  0
LINE
  5
10FC
100
AcDbEntity
  8
10000_FRONT
370
    25
390
0
  6
CONTINUOUS
 62
     7
100
AcDbLine
 10
160.214535
 20
634.048339
 30
0.0
 11
159.998751
 21
634.440546
 31
0.0
  0
LINE
  5
10FD
100
AcDbEntity
  8
10000_FRONT
370
    25
390
0
  6
CONTINUOUS
 62
     7
100
AcDbLine
 10
160.443327
 20
633.648258
 30
0.0
 11
160.214535
 21
634.048339
 31
0.0
  0
LINE
  5
10FE
100
AcDbEntity
  8
10000_FRONT
370
    25
390
0
  6
CONTINUOUS
 62
     7
100
AcDbLine
 10
208.18544
 20
660.951688
 30
0.0
 11
207.956646
 21
661.351767
 31
0.0
  0
LINE
  5
10FF
100
AcDbEntity
  8
10000_FRONT
370
    25
390
0
  6
CONTINUOUS
 62
     7
100
AcDbLine
 10
160.691061
 20
633.231885
 30
0.0
 11
160.443327
 21
633.648258
 31
0.0
  0
LINE
  5
1100
100
AcDbEntity
  8
10000_FRONT
370
    25
390
0
  6
CONTINUOUS
 62
     7
100
AcDbLine
 10
207.956646
 20
661.351767
 30
0.0
 11
207.70891
 21
661.768142
 31
0.0
  0
LINE
  5
1101
100
AcDbEntity
  8
10000_FRONT
370
    25
390
0
  6
CONTINUOUS
 62
     7
100
AcDbLine
 10
160.960882
 20
632.796501
 30
0.0
 11
160.691061
 21
633.231885
 31
0.0
  0
LINE
  5
1102
100
AcDbEntity
  8
10000_FRONT
370
    25
390
0
  6
CONTINUOUS
 62
     7
100
AcDbLine
 10
207.70891
 20
661.768142
 30
0.0
 11
207.439087
 21
662.203527
 31
0.0
  0
LINE
  5
1103
100
AcDbEntity
  8
10000_FRONT
370
    25
390
0
  6
CONTINUOUS
 62
     7
100
AcDbLine
 10
207.439087
 20
662.203527
 30
0.0
 11
207.147102
 21
662.655205
 31
0.0
  0
LINE
  5
1104
100
AcDbEntity
  8
10000_FRONT
370
    25
390
0
  6
CONTINUOUS
 62
     7
100
AcDbLine
 10
161.252867
 20
632.344824
 30
0.0
 11
160.960882
 21
632.796501
 31
0.0
  0
LINE
  5
1105
100
AcDbEntity
  8
10000_FRONT
370
    25
390
0
  6
CONTINUOUS
 62
     7
100
AcDbLine
 10
161.566948
 20
631.879731
 30
0.0
 11
161.252867
 21
632.344824
 31
0.0
  0
LINE
  5
1106
100
AcDbEntity
  8
10000_FRONT
370
    25
390
0
  6
CONTINUOUS
 62
     7
100
AcDbLine
 10
207.147102
 20
662.655205
 30
0.0
 11
206.833019
 21
663.120296
 31
0.0
  0
LINE
  5
1107
100
AcDbEntity
  8
10000_FRONT
370
    25
390
0
  6
CONTINUOUS
 62
     7
100
AcDbLine
 10
206.833019
 20
663.120296
 30
0.0
 11
206.497593
 21
663.595475
 31
0.0
  0
LINE
  5
1108
100
AcDbEntity
  8
10000_FRONT
370
    25
390
0
  6
CONTINUOUS
 62
     7
100
AcDbLine
 10
161.902374
 20
631.404553
 30
0.0
 11
161.566948
 21
631.879731
 31
0.0
  0
LINE
  5
1109
100
AcDbEntity
  8
10000_FRONT
370
    25
390
0
  6
CONTINUOUS
 62
     7
100
AcDbLine
 10
162.258192
 20
630.922686
 30
0.0
 11
161.902374
 21
631.404553
 31
0.0
  0
LINE
  5
110A
100
AcDbEntity
  8
10000_FRONT
370
    25
390
0
  6
CONTINUOUS
 62
     7
100
AcDbLine
 10
206.497593
 20
663.595475
 30
0.0
 11
206.141773
 21
664.07734
 31
0.0
  0
LINE
  5
110B
100
AcDbEntity
  8
10000_FRONT
370
    25
390
0
  6
CONTINUOUS
 62
     7
100
AcDbLine
 10
162.633406
 20
630.437491
 30
0.0
 11
162.258192
 21
630.922686
 31
0.0
  0
LINE
  5
110C
100
AcDbEntity
  8
10000_FRONT
370
    25
390
0
  6
CONTINUOUS
 62
     7
100
AcDbLine
 10
206.141773
 20
664.07734
 30
0.0
 11
205.766558
 21
664.562535
 31
0.0
  0
LINE
  5
110D
100
AcDbEntity
  8
10000_FRONT
370
    25
390
0
  6
CONTINUOUS
 62
     7
100
AcDbLine
 10
205.766558
 20
664.562535
 30
0.0
 11
205.37369
 21
665.04765
 31
0.0
  0
LINE
  5
110E
100
AcDbEntity
  8
10000_FRONT
370
    25
390
0
  6
CONTINUOUS
 62
     7
100
AcDbLine
 10
163.026276
 20
629.952376
 30
0.0
 11
162.633406
 21
630.437491
 31
0.0
  0
LINE
  5
110F
100
AcDbEntity
  8
10000_FRONT
370
    25
390
0
  6
CONTINUOUS
 62
     7
100
AcDbLine
 10
163.434631
 20
629.470877
 30
0.0
 11
163.026276
 21
629.952376
 31
0.0
  0
LINE
  5
1110
100
AcDbEntity
  8
10000_FRONT
370
    25
390
0
  6
CONTINUOUS
 62
     7
100
AcDbLine
 10
205.37369
 20
665.04765
 30
0.0
 11
204.965332
 21
665.529147
 31
0.0
  0
LINE
  5
1111
100
AcDbEntity
  8
10000_FRONT
370
    25
390
0
  6
CONTINUOUS
 62
     7
100
AcDbLine
 10
163.85623
 20
628.996527
 30
0.0
 11
163.434631
 21
629.470877
 31
0.0
  0
LINE
  5
1112
100
AcDbEntity
  8
10000_FRONT
370
    25
390
0
  6
CONTINUOUS
 62
     7
100
AcDbLine
 10
204.965332
 20
665.529147
 30
0.0
 11
204.543734
 21
666.003495
 31
0.0
  0
LINE
  5
1113
100
AcDbEntity
  8
10000_FRONT
370
    25
390
0
  6
CONTINUOUS
 62
     7
100
AcDbLine
 10
204.543734
 20
666.003495
 30
0.0
 11
204.111891
 21
666.46736
 31
0.0
  0
LINE
  5
1114
100
AcDbEntity
  8
10000_FRONT
370
    25
390
0
  6
CONTINUOUS
 62
     7
100
AcDbLine
 10
164.288075
 20
628.532662
 30
0.0
 11
163.85623
 21
628.996527
 31
0.0
  0
LINE
  5
1115
100
AcDbEntity
  8
10000_FRONT
370
    25
390
0
  6
CONTINUOUS
 62
     7
100
AcDbLine
 10
164.726746
 20
628.082446
 30
0.0
 11
164.288075
 21
628.532662
 31
0.0
  0
LINE
  5
1116
100
AcDbEntity
  8
10000_FRONT
370
    25
390
0
  6
CONTINUOUS
 62
     7
100
AcDbLine
 10
204.111891
 20
666.46736
 30
0.0
 11
203.67322
 21
666.917573
 31
0.0
  0
LINE
  5
1117
100
AcDbEntity
  8
10000_FRONT
370
    25
390
0
  6
CONTINUOUS
 62
     7
100
AcDbLine
 10
165.171217
 20
627.646657
 30
0.0
 11
164.726746
 21
628.082446
 31
0.0
  0
LINE
  5
1118
100
AcDbEntity
  8
10000_FRONT
370
    25
390
0
  6
CONTINUOUS
 62
     7
100
AcDbLine
 10
203.67322
 20
666.917573
 30
0.0
 11
203.228748
 21
667.353362
 31
0.0
  0
LINE
  5
1119
100
AcDbEntity
  8
10000_FRONT
370
    25
390
0
  6
CONTINUOUS
 62
     7
100
AcDbLine
 10
165.630451
 20
627.216498
 30
0.0
 11
165.171217
 21
627.646657
 31
0.0
  0
LINE
  5
111A
100
AcDbEntity
  8
10000_FRONT
370
    25
390
0
  6
CONTINUOUS
 62
     7
100
AcDbLine
 10
203.228748
 20
667.353362
 30
0.0
 11
202.769512
 21
667.783519
 31
0.0
  0
LINE
  5
111B
100
AcDbEntity
  8
10000_FRONT
370
    25
390
0
  6
CONTINUOUS
 62
     7
100
AcDbLine
 10
202.769512
 20
667.783519
 30
0.0
 11
202.294546
 21
668.208344
 31
0.0
  0
LINE
  5
111C
100
AcDbEntity
  8
10000_FRONT
370
    25
390
0
  6
CONTINUOUS
 62
     7
100
AcDbLine
 10
166.105419
 20
626.791672
 30
0.0
 11
165.630451
 21
627.216498
 31
0.0
  0
LINE
  5
111D
100
AcDbEntity
  8
10000_FRONT
370
    25
390
0
  6
CONTINUOUS
 62
     7
100
AcDbLine
 10
166.595789
 20
626.373196
 30
0.0
 11
166.105419
 21
626.791672
 31
0.0
  0
LINE
  5
111E
100
AcDbEntity
  8
10000_FRONT
370
    25
390
0
  6
CONTINUOUS
 62
     7
100
AcDbLine
 10
202.294546
 20
668.208344
 30
0.0
 11
201.804176
 21
668.626817
 31
0.0
  0
LINE
  5
111F
100
AcDbEntity
  8
10000_FRONT
370
    25
390
0
  6
CONTINUOUS
 62
     7
100
AcDbLine
 10
167.101219
 20
625.962092
 30
0.0
 11
166.595789
 21
626.373196
 31
0.0
  0
LINE
  5
1120
100
AcDbEntity
  8
10000_FRONT
370
    25
390
0
  6
CONTINUOUS
 62
     7
100
AcDbLine
 10
201.804176
 20
668.626817
 30
0.0
 11
201.298746
 21
669.037921
 31
0.0
  0
LINE
  5
1121
100
AcDbEntity
  8
10000_FRONT
370
    25
390
0
  6
CONTINUOUS
 62
     7
100
AcDbLine
 10
167.621277
 20
625.559298
 30
0.0
 11
167.101219
 21
625.962092
 31
0.0
  0
LINE
  5
1122
100
AcDbEntity
  8
10000_FRONT
370
    25
390
0
  6
CONTINUOUS
 62
     7
100
AcDbLine
 10
201.298746
 20
669.037921
 30
0.0
 11
200.778688
 21
669.440713
 31
0.0
  0
LINE
  5
1123
100
AcDbEntity
  8
10000_FRONT
370
    25
390
0
  6
CONTINUOUS
 62
     7
100
AcDbLine
 10
200.778688
 20
669.440713
 30
0.0
 11
200.244509
 21
669.834319
 31
0.0
  0
LINE
  5
1124
100
AcDbEntity
  8
10000_FRONT
370
    25
390
0
  6
CONTINUOUS
 62
     7
100
AcDbLine
 10
168.155457
 20
625.165692
 30
0.0
 11
167.621277
 21
625.559298
 31
0.0
  0
LINE
  5
1125
100
AcDbEntity
  8
10000_FRONT
370
    25
390
0
  6
CONTINUOUS
 62
     7
100
AcDbLine
 10
168.703252
 20
624.782145
 30
0.0
 11
168.155457
 21
625.165692
 31
0.0
  0
LINE
  5
1126
100
AcDbEntity
  8
10000_FRONT
370
    25
390
0
  6
CONTINUOUS
 62
     7
100
AcDbLine
 10
200.244509
 20
669.834319
 30
0.0
 11
199.696713
 21
670.217864
 31
0.0
  0
LINE
  5
1127
100
AcDbEntity
  8
10000_FRONT
370
    25
390
0
  6
CONTINUOUS
 62
     7
100
AcDbLine
 10
169.264159
 20
624.409518
 30
0.0
 11
168.703252
 21
624.782145
 31
0.0
  0
LINE
  5
1128
100
AcDbEntity
  8
10000_FRONT
370
    25
390
0
  6
CONTINUOUS
 62
     7
100
AcDbLine
 10
199.696713
 20
670.217864
 30
0.0
 11
199.135807
 21
670.590489
 31
0.0
  0
LINE
  5
1129
100
AcDbEntity
  8
10000_FRONT
370
    25
390
0
  6
CONTINUOUS
 62
     7
100
AcDbLine
 10
169.837618
 20
624.048552
 30
0.0
 11
169.264159
 21
624.409518
 31
0.0
  0
LINE
  5
112A
100
AcDbEntity
  8
10000_FRONT
370
    25
390
0
  6
CONTINUOUS
 62
     7
100
AcDbLine
 10
199.135807
 20
670.590489
 30
0.0
 11
198.562348
 21
670.951455
 31
0.0
  0
LINE
  5
112B
100
AcDbEntity
  8
10000_FRONT
370
    25
390
0
  6
CONTINUOUS
 62
     7
100
AcDbLine
 10
170.422996
 20
623.699939
 30
0.0
 11
169.837618
 21
624.048552
 31
0.0
  0
LINE
  5
112C
100
AcDbEntity
  8
10000_FRONT
370
    25
390
0
  6
CONTINUOUS
 62
     7
100
AcDbLine
 10
198.562348
 20
670.951455
 30
0.0
 11
197.976972
 21
671.300067
 31
0.0
  0
LINE
  5
112D
100
AcDbEntity
  8
10000_FRONT
370
    25
390
0
  6
CONTINUOUS
 62
     7
100
AcDbLine
 10
171.019654
 20
623.364369
 30
0.0
 11
170.422996
 21
623.699939
 31
0.0
  0
LINE
  5
112E
100
AcDbEntity
  8
10000_FRONT
370
    25
390
0
  6
CONTINUOUS
 62
     7
100
AcDbLine
 10
197.976972
 20
671.300067
 30
0.0
 11
197.380314
 21
671.635634
 31
0.0
  0
LINE
  5
112F
100
AcDbEntity
  8
10000_FRONT
370
    25
390
0
  6
CONTINUOUS
 62
     7
100
AcDbLine
 10
171.626949
 20
623.042527
 30
0.0
 11
171.019654
 21
623.364369
 31
0.0
  0
LINE
  5
1130
100
AcDbEntity
  8
10000_FRONT
370
    25
390
0
  6
CONTINUOUS
 62
     7
100
AcDbLine
 10
197.380314
 20
671.635634
 30
0.0
 11
196.77302
 21
671.957476
 31
0.0
  0
LINE
  5
1131
100
AcDbEntity
  8
10000_FRONT
370
    25
390
0
  6
CONTINUOUS
 62
     7
100
AcDbLine
 10
172.244172
 20
622.734971
 30
0.0
 11
171.626949
 21
623.042527
 31
0.0
  0
LINE
  5
1132
100
AcDbEntity
  8
10000_FRONT
370
    25
390
0
  6
CONTINUOUS
 62
     7
100
AcDbLine
 10
196.77302
 20
671.957476
 30
0.0
 11
196.155797
 21
672.265031
 31
0.0
  0
LINE
  5
1133
100
AcDbEntity
  8
10000_FRONT
370
    25
390
0
  6
CONTINUOUS
 62
     7
100
AcDbLine
 10
172.870583
 20
622.442202
 30
0.0
 11
172.244172
 21
622.734971
 31
0.0
  0
LINE
  5
1134
100
AcDbEntity
  8
10000_FRONT
370
    25
390
0
  6
CONTINUOUS
 62
     7
100
AcDbLine
 10
196.155797
 20
672.265031
 30
0.0
 11
195.529388
 21
672.557797
 31
0.0
  0
LINE
  5
1135
100
AcDbEntity
  8
10000_FRONT
370
    25
390
0
  6
CONTINUOUS
 62
     7
100
AcDbLine
 10
173.505438
 20
622.164717
 30
0.0
 11
172.870583
 21
622.442202
 31
0.0
  0
LINE
  5
1136
100
AcDbEntity
  8
10000_FRONT
370
    25
390
0
  6
CONTINUOUS
 62
     7
100
AcDbLine
 10
195.529388
 20
672.557797
 30
0.0
 11
194.894533
 21
672.835282
 31
0.0
  0
LINE
  5
1137
100
AcDbEntity
  8
10000_FRONT
370
    25
390
0
  6
CONTINUOUS
 62
     7
100
AcDbLine
 10
174.148095
 20
621.902953
 30
0.0
 11
173.505438
 21
622.164717
 31
0.0
  0
LINE
  5
1138
100
AcDbEntity
  8
10000_FRONT
370
    25
390
0
  6
CONTINUOUS
 62
     7
100
AcDbLine
 10
194.894533
 20
672.835282
 30
0.0
 11
194.251877
 21
673.097045
 31
0.0
  0
LINE
  5
1139
100
AcDbEntity
  8
10000_FRONT
370
    25
390
0
  6
CONTINUOUS
 62
     7
100
AcDbLine
 10
174.798001
 20
621.657187
 30
0.0
 11
174.148095
 21
621.902953
 31
0.0
  0
LINE
  5
113A
100
AcDbEntity
  8
10000_FRONT
370
    25
390
0
  6
CONTINUOUS
 62
     7
100
AcDbLine
 10
194.251877
 20
673.097045
 30
0.0
 11
193.601972
 21
673.34281
 31
0.0
  0
LINE
  5
113B
100
AcDbEntity
  8
10000_FRONT
370
    25
390
0
  6
CONTINUOUS
 62
     7
100
AcDbLine
 10
175.454375
 20
621.427733
 30
0.0
 11
174.798001
 21
621.657187
 31
0.0
  0
LINE
  5
113C
100
AcDbEntity
  8
10000_FRONT
370
    25
390
0
  6
CONTINUOUS
 62
     7
100
AcDbLine
 10
193.601972
 20
673.34281
 30
0.0
 11
192.945599
 21
673.572264
 31
0.0
  0
LINE
  5
113D
100
AcDbEntity
  8
10000_FRONT
370
    25
390
0
  6
CONTINUOUS
 62
     7
100
AcDbLine
 10
176.11643
 20
621.214906
 30
0.0
 11
175.454375
 21
621.427733
 31
0.0
  0
LINE
  5
113E
100
AcDbEntity
  8
10000_FRONT
370
    25
390
0
  6
CONTINUOUS
 62
     7
100
AcDbLine
 10
192.945599
 20
673.572264
 30
0.0
 11
192.283546
 21
673.78509
 31
0.0
  0
LINE
  5
113F
100
AcDbEntity
  8
10000_FRONT
370
    25
390
0
  6
CONTINUOUS
 62
     7
100
AcDbLine
 10
176.783371
 20
621.019006
 30
0.0
 11
176.11643
 21
621.214906
 31
0.0
  0
LINE
  5
1140
100
AcDbEntity
  8
10000_FRONT
370
    25
390
0
  6
CONTINUOUS
 62
     7
100
AcDbLine
 10
192.283546
 20
673.78509
 30
0.0
 11
191.616606
 21
673.98099
 31
0.0
  0
LINE
  5
1141
100
AcDbEntity
  8
10000_FRONT
370
    25
390
0
  6
CONTINUOUS
 62
     7
100
AcDbLine
 10
177.454369
 20
620.840199
 30
0.0
 11
176.783371
 21
621.019006
 31
0.0
  0
LINE
  5
1142
100
AcDbEntity
  8
10000_FRONT
370
    25
390
0
  6
CONTINUOUS
 62
     7
100
AcDbLine
 10
191.616606
 20
673.98099
 30
0.0
 11
190.945609
 21
674.159795
 31
0.0
  0
LINE
  5
1143
100
AcDbEntity
  8
10000_FRONT
370
    25
390
0
  6
CONTINUOUS
 62
     7
100
AcDbLine
 10
178.12858
 20
620.678609
 30
0.0
 11
177.454369
 21
620.840199
 31
0.0
  0
LINE
  5
1144
100
AcDbEntity
  8
10000_FRONT
370
    25
390
0
  6
CONTINUOUS
 62
     7
100
AcDbLine
 10
190.945609
 20
674.159795
 30
0.0
 11
190.271399
 21
674.321383
 31
0.0
  0
LINE
  5
1145
100
AcDbEntity
  8
10000_FRONT
370
    25
390
0
  6
CONTINUOUS
 62
     7
100
AcDbLine
 10
178.805163
 20
620.534354
 30
0.0
 11
178.12858
 21
620.678609
 31
0.0
  0
LINE
  5
1146
100
AcDbEntity
  8
10000_FRONT
370
    25
390
0
  6
CONTINUOUS
 62
     7
100
AcDbLine
 10
190.271399
 20
674.321383
 30
0.0
 11
189.594817
 21
674.465638
 31
0.0
  0
LINE
  5
1147
100
AcDbEntity
  8
10000_FRONT
370
    25
390
0
  6
CONTINUOUS
 62
     7
100
AcDbLine
 10
179.483285
 20
620.407529
 30
0.0
 11
178.805163
 21
620.534354
 31
0.0
  0
LINE
  5
1148
100
AcDbEntity
  8
10000_FRONT
370
    25
390
0
  6
CONTINUOUS
 62
     7
100
AcDbLine
 10
189.594817
 20
674.465638
 30
0.0
 11
188.916697
 21
674.592463
 31
0.0
  0
LINE
  5
1149
100
AcDbEntity
  8
10000_FRONT
370
    25
390
0
  6
CONTINUOUS
 62
     7
100
AcDbLine
 10
180.162094
 20
620.298093
 30
0.0
 11
179.483285
 21
620.407529
 31
0.0
  0
LINE
  5
114A
100
AcDbEntity
  8
10000_FRONT
370
    25
390
0
  6
CONTINUOUS
 62
     7
100
AcDbLine
 10
188.916697
 20
674.592463
 30
0.0
 11
188.237888
 21
674.701899
 31
0.0
  0
LINE
  5
114B
100
AcDbEntity
  8
10000_FRONT
370
    25
390
0
  6
CONTINUOUS
 62
     7
100
AcDbLine
 10
180.840712
 20
620.205966
 30
0.0
 11
180.162094
 21
620.298093
 31
0.0
  0
LINE
  5
114C
100
AcDbEntity
  8
10000_FRONT
370
    25
390
0
  6
CONTINUOUS
 62
     7
100
AcDbLine
 10
188.237888
 20
674.701899
 30
0.0
 11
187.559272
 21
674.794026
 31
0.0
  0
LINE
  5
114D
100
AcDbEntity
  8
10000_FRONT
370
    25
390
0
  6
CONTINUOUS
 62
     7
100
AcDbLine
 10
181.51826
 20
620.131066
 30
0.0
 11
180.840712
 21
620.205966
 31
0.0
  0
LINE
  5
114E
100
AcDbEntity
  8
10000_FRONT
370
    25
390
0
  6
CONTINUOUS
 62
     7
100
AcDbLine
 10
187.559272
 20
674.794026
 30
0.0
 11
186.881726
 21
674.868926
 31
0.0
  0
LINE
  5
114F
100
AcDbEntity
  8
10000_FRONT
370
    25
390
0
  6
CONTINUOUS
 62
     7
100
AcDbLine
 10
182.193854
 20
620.073285
 30
0.0
 11
181.51826
 21
620.131066
 31
0.0
  0
LINE
  5
1150
100
AcDbEntity
  8
10000_FRONT
370
    25
390
0
  6
CONTINUOUS
 62
     7
100
AcDbLine
 10
186.881726
 20
674.868926
 30
0.0
 11
186.206133
 21
674.926705
 31
0.0
  0
LINE
  5
1151
100
AcDbEntity
  8
10000_FRONT
370
    25
390
0
  6
CONTINUOUS
 62
     7
100
AcDbLine
 10
182.8666
 20
620.032374
 30
0.0
 11
182.193854
 21
620.073285
 31
0.0
  0
LINE
  5
1152
100
AcDbEntity
  8
10000_FRONT
370
    25
390
0
  6
CONTINUOUS
 62
     7
100
AcDbLine
 10
186.206133
 20
674.926705
 30
0.0
 11
185.533388
 21
674.967616
 31
0.0
  0
LINE
  5
1153
100
AcDbEntity
  8
10000_FRONT
370
    25
390
0
  6
CONTINUOUS
 62
     7
100
AcDbLine
 10
183.5356
 20
620.008042
 30
0.0
 11
182.8666
 21
620.032374
 31
0.0
  0
LINE
  5
1154
100
AcDbEntity
  8
10000_FRONT
370
    25
390
0
  6
CONTINUOUS
 62
     7
100
AcDbLine
 10
185.533388
 20
674.967616
 30
0.0
 11
184.864389
 21
674.991948
 31
0.0
  0
LINE
  5
1155
100
AcDbEntity
  8
10000_FRONT
370
    25
390
0
  6
CONTINUOUS
 62
     7
100
AcDbLine
 10
184.199955
 20
619.999995
 30
0.0
 11
183.5356
 21
620.008042
 31
0.0
  0
LINE
  5
1156
100
AcDbEntity
  8
10000_FRONT
370
    25
390
0
  6
CONTINUOUS
 62
     7
100
AcDbLine
 10
184.864389
 20
674.991948
 30
0.0
 11
184.200036
 21
674.999995
 31
0.0
  0
LINE
  5
1157
100
AcDbEntity
  8
10000_FRONT
370
    25
390
0
  6
CONTINUOUS
 62
     7
100
AcDbLine
 10
145.199997
 20
562.499995
 30
0.0
 11
152.199997
 21
562.499995
 31
0.0
  0
LINE
  5
1158
100
AcDbEntity
  8
10000_FRONT
370
    25
390
0
  6
CONTINUOUS
 62
     7
100
AcDbLine
 10
158.199997
 20
562.499995
 30
0.0
 11
211.199997
 21
562.499995
 31
0.0
  0
LINE
  5
1159
100
AcDbEntity
  8
10000_FRONT
370
    25
390
0
  6
CONTINUOUS
 62
     7
100
AcDbLine
 10
217.199997
 20
562.499995
 30
0.0
 11
229.199997
 21
562.499995
 31
0.0
  0
LINE
  5
115A
100
AcDbEntity
  8
10000_FRONT
370
    25
390
0
  6
CONTINUOUS
 62
     7
100
AcDbLine
 10
229.199997
 20
562.499995
 30
0.0
 11
231.199997
 21
562.499995
 31
0.0
  0
LINE
  5
115B
100
AcDbEntity
  8
10000_FRONT
370
    25
390
0
  6
CONTINUOUS
 62
     7
100
AcDbLine
 10
229.199997
 20
584.999995
 30
0.0
 11
231.199997
 21
584.999995
 31
0.0
  0
LINE
  5
115C
100
AcDbEntity
  8
10000_FRONT
370
    25
390
0
  6
CONTINUOUS
 62
     7
100
AcDbLine
 10
151.199997
 20
604.999995
 30
0.0
 11
203.199997
 21
604.999995
 31
0.0
  0
LINE
  5
115D
100
AcDbEntity
  8
10000_FRONT
370
    25
390
0
  6
CONTINUOUS
 62
     7
100
AcDbLine
 10
225.199997
 20
604.999995
 30
0.0
 11
229.199997
 21
604.999995
 31
0.0
  0
LINE
  5
115E
100
AcDbEntity
  8
10000_FRONT
370
    25
390
0
  6
CONTINUOUS
 62
     7
100
AcDbLine
 10
146.699997
 20
609.999995
 30
0.0
 11
221.699997
 21
609.999995
 31
0.0
  0
LINE
  5
115F
100
AcDbEntity
  8
10000_FRONT
370
    25
390
0
  6
CONTINUOUS
 62
     7
100
AcDbLine
 10
229.199997
 20
621.499995
 30
0.0
 11
231.199997
 21
621.499995
 31
0.0
  0
LINE
  5
1160
100
AcDbEntity
  8
10000_FRONT
370
    25
390
0
  6
CONTINUOUS
 62
     7
100
AcDbLine
 10
229.199997
 20
624.999995
 30
0.0
 11
231.199997
 21
624.999995
 31
0.0
  0
LINE
  5
1161
100
AcDbEntity
  8
10000_FRONT
370
    25
390
0
  6
CONTINUOUS
 62
     7
100
AcDbLine
 10
146.199997
 20
626.999995
 30
0.0
 11
146.700134
 21
626.999995
 31
0.0
  0
LINE
  5
1162
100
AcDbEntity
  8
10000_FRONT
370
    25
390
0
  6
CONTINUOUS
 62
     7
100
AcDbLine
 10
221.700131
 20
629.899995
 30
0.0
 11
223.858849
 21
629.899995
 31
0.0
  0
LINE
  5
1163
100
AcDbEntity
  8
10000_FRONT
370
    25
390
0
  6
CONTINUOUS
 62
     7
100
AcDbLine
 10
221.700131
 20
631.099995
 30
0.0
 11
223.858849
 21
631.099995
 31
0.0
  0
LINE
  5
1164
100
AcDbEntity
  8
10000_FRONT
370
    25
390
0
  6
CONTINUOUS
 62
     7
100
AcDbLine
 10
158.214424
 20
638.499995
 30
0.0
 11
220.088715
 21
638.499995
 31
0.0
  0
LINE
  5
1165
100
AcDbEntity
  8
10000_FRONT
370
    25
390
0
  6
CONTINUOUS
 62
     7
100
AcDbLine
 10
158.214424
 20
656.499995
 30
0.0
 11
220.088715
 21
656.499995
 31
0.0
  0
LINE
  5
1166
100
AcDbEntity
  8
10000_FRONT
370
    25
390
0
  6
CONTINUOUS
 62
     7
100
AcDbLine
 10
221.700131
 20
663.899995
 30
0.0
 11
223.858849
 21
663.899995
 31
0.0
  0
LINE
  5
1167
100
AcDbEntity
  8
10000_FRONT
370
    25
390
0
  6
CONTINUOUS
 62
     7
100
AcDbLine
 10
221.700131
 20
665.099995
 30
0.0
 11
223.858849
 21
665.099995
 31
0.0
  0
LINE
  5
1168
100
AcDbEntity
  8
10000_FRONT
370
    25
390
0
  6
CONTINUOUS
 62
     7
100
AcDbLine
 10
146.199997
 20
666.999995
 30
0.0
 11
146.700134
 21
666.999995
 31
0.0
  0
LINE
  5
1169
100
AcDbEntity
  8
10000_FRONT
370
    25
390
0
  6
CONTINUOUS
 62
     7
100
AcDbLine
 10
229.199997
 20
670.999995
 30
0.0
 11
231.199997
 21
670.999995
 31
0.0
  0
LINE
  5
116A
100
AcDbEntity
  8
10000_FRONT
370
    25
390
0
  6
CONTINUOUS
 62
     7
100
AcDbLine
 10
229.199997
 20
673.499995
 30
0.0
 11
231.199997
 21
673.499995
 31
0.0
  0
LINE
  5
116B
100
AcDbEntity
  8
10000_FRONT
370
    25
390
0
  6
CONTINUOUS
 62
     7
100
AcDbLine
 10
146.699997
 20
684.999995
 30
0.0
 11
221.699997
 21
684.999995
 31
0.0
  0
LINE
  5
116C
100
AcDbEntity
  8
10000_FRONT
370
    25
390
0
  6
CONTINUOUS
 62
     7
100
AcDbLine
 10
225.199997
 20
689.999995
 30
0.0
 11
229.199997
 21
689.999995
 31
0.0
  0
LINE
  5
116D
100
AcDbEntity
  8
10000_FRONT
370
    25
390
0
  6
CONTINUOUS
 62
     7
100
AcDbLine
 10
229.199997
 20
709.999995
 30
0.0
 11
231.199997
 21
709.999995
 31
0.0
  0
LINE
  5
116E
100
AcDbEntity
  8
10000_FRONT
370
    25
390
0
  6
CONTINUOUS
 62
     7
100
AcDbLine
 10
145.199997
 20
732.499995
 30
0.0
 11
152.199997
 21
732.499995
 31
0.0
  0
LINE
  5
116F
100
AcDbEntity
  8
10000_FRONT
370
    25
390
0
  6
CONTINUOUS
 62
     7
100
AcDbLine
 10
158.199997
 20
732.499995
 30
0.0
 11
211.199997
 21
732.499995
 31
0.0
  0
LINE
  5
1170
100
AcDbEntity
  8
10000_FRONT
370
    25
390
0
  6
CONTINUOUS
 62
     7
100
AcDbLine
 10
217.199997
 20
732.499995
 30
0.0
 11
229.199997
 21
732.499995
 31
0.0
  0
LINE
  5
1171
100
AcDbEntity
  8
10000_FRONT
370
    25
390
0
  6
CONTINUOUS
 62
     7
100
AcDbLine
 10
229.199997
 20
732.499995
 30
0.0
 11
231.199997
 21
732.499995
 31
0.0
  0
LINE
  5
1172
100
AcDbEntity
  8
10000_FRONT
370
    25
390
0
  6
CONTINUOUS
 62
     7
100
AcDbLine
 10
184.199955
 20
619.999995
 30
0.0
 11
184.864309
 21
620.00804
 31
0.0
  0
LINE
  5
1173
100
AcDbEntity
  8
10000_FRONT
370
    25
390
0
  6
CONTINUOUS
 62
     7
100
AcDbLine
 10
183.535683
 20
674.99195
 30
0.0
 11
184.200036
 21
674.999995
 31
0.0
  0
LINE
  5
1174
100
AcDbEntity
  8
10000_FRONT
370
    25
390
0
  6
CONTINUOUS
 62
     7
100
AcDbLine
 10
184.864309
 20
620.00804
 30
0.0
 11
185.533308
 21
620.03237
 31
0.0
  0
LINE
  5
1175
100
AcDbEntity
  8
10000_FRONT
370
    25
390
0
  6
CONTINUOUS
 62
     7
100
AcDbLine
 10
182.866685
 20
674.96762
 30
0.0
 11
183.535683
 21
674.99195
 31
0.0
  0
LINE
  5
1176
100
AcDbEntity
  8
10000_FRONT
370
    25
390
0
  6
CONTINUOUS
 62
     7
100
AcDbLine
 10
185.533308
 20
620.03237
 30
0.0
 11
186.206054
 21
620.073279
 31
0.0
  0
LINE
  5
1177
100
AcDbEntity
  8
10000_FRONT
370
    25
390
0
  6
CONTINUOUS
 62
     7
100
AcDbLine
 10
182.19394
 20
674.926711
 30
0.0
 11
182.866685
 21
674.96762
 31
0.0
  0
LINE
  5
1178
100
AcDbEntity
  8
10000_FRONT
370
    25
390
0
  6
CONTINUOUS
 62
     7
100
AcDbLine
 10
186.206054
 20
620.073279
 30
0.0
 11
186.881648
 21
620.131057
 31
0.0
  0
LINE
  5
1179
100
AcDbEntity
  8
10000_FRONT
370
    25
390
0
  6
CONTINUOUS
 62
     7
100
AcDbLine
 10
181.518348
 20
674.868933
 30
0.0
 11
182.19394
 21
674.926711
 31
0.0
  0
LINE
  5
117A
100
AcDbEntity
  8
10000_FRONT
370
    25
390
0
  6
CONTINUOUS
 62
     7
100
AcDbLine
 10
186.881648
 20
620.131057
 30
0.0
 11
187.559195
 21
620.205954
 31
0.0
  0
LINE
  5
117B
100
AcDbEntity
  8
10000_FRONT
370
    25
390
0
  6
CONTINUOUS
 62
     7
100
AcDbLine
 10
180.840802
 20
674.794036
 30
0.0
 11
181.518348
 21
674.868933
 31
0.0
  0
LINE
  5
117C
100
AcDbEntity
  8
10000_FRONT
370
    25
390
0
  6
CONTINUOUS
 62
     7
100
AcDbLine
 10
187.559195
 20
620.205954
 30
0.0
 11
188.237813
 21
620.298079
 31
0.0
  0
LINE
  5
117D
100
AcDbEntity
  8
10000_FRONT
370
    25
390
0
  6
CONTINUOUS
 62
     7
100
AcDbLine
 10
180.162185
 20
674.701911
 30
0.0
 11
180.840802
 21
674.794036
 31
0.0
  0
LINE
  5
117E
100
AcDbEntity
  8
10000_FRONT
370
    25
390
0
  6
CONTINUOUS
 62
     7
100
AcDbLine
 10
188.237813
 20
620.298079
 30
0.0
 11
188.916622
 21
620.407513
 31
0.0
  0
LINE
  5
117F
100
AcDbEntity
  8
10000_FRONT
370
    25
390
0
  6
CONTINUOUS
 62
     7
100
AcDbLine
 10
179.483377
 20
674.592477
 30
0.0
 11
180.162185
 21
674.701911
 31
0.0
  0
LINE
  5
1180
100
AcDbEntity
  8
10000_FRONT
370
    25
390
0
  6
CONTINUOUS
 62
     7
100
AcDbLine
 10
188.916622
 20
620.407513
 30
0.0
 11
189.594744
 21
620.534337
 31
0.0
  0
LINE
  5
1181
100
AcDbEntity
  8
10000_FRONT
370
    25
390
0
  6
CONTINUOUS
 62
     7
100
AcDbLine
 10
178.805257
 20
674.465653
 30
0.0
 11
179.483377
 21
674.592477
 31
0.0
  0
LINE
  5
1182
100
AcDbEntity
  8
10000_FRONT
370
    25
390
0
  6
CONTINUOUS
 62
     7
100
AcDbLine
 10
178.128675
 20
674.321402
 30
0.0
 11
178.805257
 21
674.465653
 31
0.0
  0
LINE
  5
1183
100
AcDbEntity
  8
10000_FRONT
370
    25
390
0
  6
CONTINUOUS
 62
     7
100
AcDbLine
 10
189.594744
 20
620.534337
 30
0.0
 11
190.271327
 21
620.67859
 31
0.0
  0
LINE
  5
1184
100
AcDbEntity
  8
10000_FRONT
370
    25
390
0
  6
CONTINUOUS
 62
     7
100
AcDbLine
 10
177.454464
 20
674.159816
 30
0.0
 11
178.128675
 21
674.321402
 31
0.0
  0
LINE
  5
1185
100
AcDbEntity
  8
10000_FRONT
370
    25
390
0
  6
CONTINUOUS
 62
     7
100
AcDbLine
 10
190.271327
 20
620.67859
 30
0.0
 11
190.945539
 21
620.840178
 31
0.0
  0
LINE
  5
1186
100
AcDbEntity
  8
10000_FRONT
370
    25
390
0
  6
CONTINUOUS
 62
     7
100
AcDbLine
 10
190.945539
 20
620.840178
 30
0.0
 11
191.616537
 21
621.018981
 31
0.0
  0
LINE
  5
1187
100
AcDbEntity
  8
10000_FRONT
370
    25
390
0
  6
CONTINUOUS
 62
     7
100
AcDbLine
 10
176.783467
 20
673.981013
 30
0.0
 11
177.454464
 21
674.159816
 31
0.0
  0
LINE
  5
1188
100
AcDbEntity
  8
10000_FRONT
370
    25
390
0
  6
CONTINUOUS
 62
     7
100
AcDbLine
 10
191.616537
 20
621.018981
 30
0.0
 11
192.283479
 21
621.214881
 31
0.0
  0
LINE
  5
1189
100
AcDbEntity
  8
10000_FRONT
370
    25
390
0
  6
CONTINUOUS
 62
     7
100
AcDbLine
 10
176.116527
 20
673.785113
 30
0.0
 11
176.783467
 21
673.981013
 31
0.0
  0
LINE
  5
118A
100
AcDbEntity
  8
10000_FRONT
370
    25
390
0
  6
CONTINUOUS
 62
     7
100
AcDbLine
 10
192.283479
 20
621.214881
 30
0.0
 11
192.945534
 21
621.427705
 31
0.0
  0
LINE
  5
118B
100
AcDbEntity
  8
10000_FRONT
370
    25
390
0
  6
CONTINUOUS
 62
     7
100
AcDbLine
 10
175.454473
 20
673.572289
 30
0.0
 11
176.116527
 21
673.785113
 31
0.0
  0
LINE
  5
118C
100
AcDbEntity
  8
10000_FRONT
370
    25
390
0
  6
CONTINUOUS
 62
     7
100
AcDbLine
 10
192.945534
 20
621.427705
 30
0.0
 11
193.601909
 21
621.657157
 31
0.0
  0
LINE
  5
118D
100
AcDbEntity
  8
10000_FRONT
370
    25
390
0
  6
CONTINUOUS
 62
     7
100
AcDbLine
 10
174.798099
 20
673.342837
 30
0.0
 11
175.454473
 21
673.572289
 31
0.0
  0
LINE
  5
118E
100
AcDbEntity
  8
10000_FRONT
370
    25
390
0
  6
CONTINUOUS
 62
     7
100
AcDbLine
 10
174.148192
 20
673.097075
 30
0.0
 11
174.798099
 21
673.342837
 31
0.0
  0
LINE
  5
118F
100
AcDbEntity
  8
10000_FRONT
370
    25
390
0
  6
CONTINUOUS
 62
     7
100
AcDbLine
 10
193.601909
 20
621.657157
 30
0.0
 11
194.251816
 21
621.90292
 31
0.0
  0
LINE
  5
1190
100
AcDbEntity
  8
10000_FRONT
370
    25
390
0
  6
CONTINUOUS
 62
     7
100
AcDbLine
 10
173.505536
 20
672.835315
 30
0.0
 11
174.148192
 21
673.097075
 31
0.0
  0
LINE
  5
1191
100
AcDbEntity
  8
10000_FRONT
370
    25
390
0
  6
CONTINUOUS
 62
     7
100
AcDbLine
 10
194.251816
 20
621.90292
 30
0.0
 11
194.894474
 21
622.164683
 31
0.0
  0
LINE
  5
1192
100
AcDbEntity
  8
10000_FRONT
370
    25
390
0
  6
CONTINUOUS
 62
     7
100
AcDbLine
 10
194.894474
 20
622.164683
 30
0.0
 11
195.52933
 21
622.442166
 31
0.0
  0
LINE
  5
1193
100
AcDbEntity
  8
10000_FRONT
370
    25
390
0
  6
CONTINUOUS
 62
     7
100
AcDbLine
 10
172.87068
 20
672.557832
 30
0.0
 11
173.505536
 21
672.835315
 31
0.0
  0
LINE
  5
1194
100
AcDbEntity
  8
10000_FRONT
370
    25
390
0
  6
CONTINUOUS
 62
     7
100
AcDbLine
 10
195.52933
 20
622.442166
 30
0.0
 11
196.155742
 21
622.734933
 31
0.0
  0
LINE
  5
1195
100
AcDbEntity
  8
10000_FRONT
370
    25
390
0
  6
CONTINUOUS
 62
     7
100
AcDbLine
 10
172.24427
 20
672.265065
 30
0.0
 11
172.87068
 21
672.557832
 31
0.0
  0
LINE
  5
1196
100
AcDbEntity
  8
10000_FRONT
370
    25
390
0
  6
CONTINUOUS
 62
     7
100
AcDbLine
 10
171.627047
 20
671.957513
 30
0.0
 11
172.24427
 21
672.265065
 31
0.0
  0
LINE
  5
1197
100
AcDbEntity
  8
10000_FRONT
370
    25
390
0
  6
CONTINUOUS
 62
     7
100
AcDbLine
 10
196.155742
 20
622.734933
 30
0.0
 11
196.772966
 21
623.042487
 31
0.0
  0
LINE
  5
1198
100
AcDbEntity
  8
10000_FRONT
370
    25
390
0
  6
CONTINUOUS
 62
     7
100
AcDbLine
 10
171.019751
 20
671.635674
 30
0.0
 11
171.627047
 21
671.957513
 31
0.0
  0
LINE
  5
1199
100
AcDbEntity
  8
10000_FRONT
370
    25
390
0
  6
CONTINUOUS
 62
     7
100
AcDbLine
 10
196.772966
 20
623.042487
 30
0.0
 11
197.380262
 21
623.364327
 31
0.0
  0
LINE
  5
119A
100
AcDbEntity
  8
10000_FRONT
370
    25
390
0
  6
CONTINUOUS
 62
     7
100
AcDbLine
 10
170.423092
 20
671.300109
 30
0.0
 11
171.019751
 21
671.635674
 31
0.0
  0
LINE
  5
119B
100
AcDbEntity
  8
10000_FRONT
370
    25
390
0
  6
CONTINUOUS
 62
     7
100
AcDbLine
 10
197.380262
 20
623.364327
 30
0.0
 11
197.976923
 21
623.699895
 31
0.0
  0
LINE
  5
119C
100
AcDbEntity
  8
10000_FRONT
370
    25
390
0
  6
CONTINUOUS
 62
     7
100
AcDbLine
 10
197.976923
 20
623.699895
 30
0.0
 11
198.562302
 21
624.048507
 31
0.0
  0
LINE
  5
119D
100
AcDbEntity
  8
10000_FRONT
370
    25
390
0
  6
CONTINUOUS
 62
     7
100
AcDbLine
 10
169.837713
 20
670.951497
 30
0.0
 11
170.423092
 21
671.300109
 31
0.0
  0
LINE
  5
119E
100
AcDbEntity
  8
10000_FRONT
370
    25
390
0
  6
CONTINUOUS
 62
     7
100
AcDbLine
 10
198.562302
 20
624.048507
 30
0.0
 11
199.135762
 21
624.409472
 31
0.0
  0
LINE
  5
119F
100
AcDbEntity
  8
10000_FRONT
370
    25
390
0
  6
CONTINUOUS
 62
     7
100
AcDbLine
 10
169.264254
 20
670.590533
 30
0.0
 11
169.837713
 21
670.951497
 31
0.0
  0
LINE
  5
11A0
100
AcDbEntity
  8
10000_FRONT
370
    25
390
0
  6
CONTINUOUS
 62
     7
100
AcDbLine
 10
203.199997
 20
609.999995
 30
0.0
 11
203.200203
 21
610.000129
 31
0.0
  0
LINE
  5
11A1
100
AcDbEntity
  8
10000_FRONT
370
    25
390
0
  6
CONTINUOUS
 62
     7
100
AcDbLine
 10
168.703345
 20
670.21791
 30
0.0
 11
169.264254
 21
670.590533
 31
0.0
  0
LINE
  5
11A2
100
AcDbEntity
  8
10000_FRONT
370
    25
390
0
  6
CONTINUOUS
 62
     7
100
AcDbLine
 10
199.135762
 20
624.409472
 30
0.0
 11
199.696671
 21
624.782096
 31
0.0
  0
LINE
  5
11A3
100
AcDbEntity
  8
10000_FRONT
370
    25
390
0
  6
CONTINUOUS
 62
     7
100
AcDbLine
 10
168.155548
 20
669.834365
 30
0.0
 11
168.703345
 21
670.21791
 31
0.0
  0
LINE
  5
11A4
100
AcDbEntity
  8
10000_FRONT
370
    25
390
0
  6
CONTINUOUS
 62
     7
100
AcDbLine
 10
199.696671
 20
624.782096
 30
0.0
 11
200.244467
 21
625.165641
 31
0.0
  0
LINE
  5
11A5
100
AcDbEntity
  8
10000_FRONT
370
    25
390
0
  6
CONTINUOUS
 62
     7
100
AcDbLine
 10
200.244467
 20
625.165641
 30
0.0
 11
200.778648
 21
625.559247
 31
0.0
  0
LINE
  5
11A6
100
AcDbEntity
  8
10000_FRONT
370
    25
390
0
  6
CONTINUOUS
 62
     7
100
AcDbLine
 10
167.621368
 20
669.44076
 30
0.0
 11
168.155548
 21
669.834365
 31
0.0
  0
LINE
  5
11A7
100
AcDbEntity
  8
10000_FRONT
370
    25
390
0
  6
CONTINUOUS
 62
     7
100
AcDbLine
 10
167.101309
 20
669.037968
 30
0.0
 11
167.621368
 21
669.44076
 31
0.0
  0
LINE
  5
11A8
100
AcDbEntity
  8
10000_FRONT
370
    25
390
0
  6
CONTINUOUS
 62
     7
100
AcDbLine
 10
200.778648
 20
625.559247
 30
0.0
 11
201.298708
 21
625.962041
 31
0.0
  0
LINE
  5
11A9
100
AcDbEntity
  8
10000_FRONT
370
    25
390
0
  6
CONTINUOUS
 62
     7
100
AcDbLine
 10
201.298708
 20
625.962041
 30
0.0
 11
201.804142
 21
626.373143
 31
0.0
  0
LINE
  5
11AA
100
AcDbEntity
  8
10000_FRONT
370
    25
390
0
  6
CONTINUOUS
 62
     7
100
AcDbLine
 10
166.595875
 20
668.626866
 30
0.0
 11
167.101309
 21
669.037968
 31
0.0
  0
LINE
  5
11AB
100
AcDbEntity
  8
10000_FRONT
370
    25
390
0
  6
CONTINUOUS
 62
     7
100
AcDbLine
 10
166.105505
 20
668.208394
 30
0.0
 11
166.595875
 21
668.626866
 31
0.0
  0
LINE
  5
11AC
100
AcDbEntity
  8
10000_FRONT
370
    25
390
0
  6
CONTINUOUS
 62
     7
100
AcDbLine
 10
201.804142
 20
626.373143
 30
0.0
 11
202.294512
 21
626.791617
 31
0.0
  0
LINE
  5
11AD
100
AcDbEntity
  8
10000_FRONT
370
    25
390
0
  6
CONTINUOUS
 62
     7
100
AcDbLine
 10
165.630535
 20
667.783568
 30
0.0
 11
166.105505
 21
668.208394
 31
0.0
  0
LINE
  5
11AE
100
AcDbEntity
  8
10000_FRONT
370
    25
390
0
  6
CONTINUOUS
 62
     7
100
AcDbLine
 10
202.294512
 20
626.791617
 30
0.0
 11
202.769482
 21
627.216445
 31
0.0
  0
LINE
  5
11AF
100
AcDbEntity
  8
10000_FRONT
370
    25
390
0
  6
CONTINUOUS
 62
     7
100
AcDbLine
 10
202.769482
 20
627.216445
 30
0.0
 11
203.22872
 21
627.646601
 31
0.0
  0
LINE
  5
11B0
100
AcDbEntity
  8
10000_FRONT
370
    25
390
0
  6
CONTINUOUS
 62
     7
100
AcDbLine
 10
165.171299
 20
667.353413
 30
0.0
 11
165.630535
 21
667.783568
 31
0.0
  0
LINE
  5
11B1
100
AcDbEntity
  8
10000_FRONT
370
    25
390
0
  6
CONTINUOUS
 62
     7
100
AcDbLine
 10
164.726826
 20
666.917624
 30
0.0
 11
165.171299
 21
667.353413
 31
0.0
  0
LINE
  5
11B2
100
AcDbEntity
  8
10000_FRONT
370
    25
390
0
  6
CONTINUOUS
 62
     7
100
AcDbLine
 10
203.22872
 20
627.646601
 30
0.0
 11
203.673193
 21
628.082391
 31
0.0
  0
LINE
  5
11B3
100
AcDbEntity
  8
10000_FRONT
370
    25
390
0
  6
CONTINUOUS
 62
     7
100
AcDbLine
 10
164.288155
 20
666.467414
 30
0.0
 11
164.726826
 21
666.917624
 31
0.0
  0
LINE
  5
11B4
100
AcDbEntity
  8
10000_FRONT
370
    25
390
0
  6
CONTINUOUS
 62
     7
100
AcDbLine
 10
203.673193
 20
628.082391
 30
0.0
 11
204.111864
 21
628.532603
 31
0.0
  0
LINE
  5
11B5
100
AcDbEntity
  8
10000_FRONT
370
    25
390
0
  6
CONTINUOUS
 62
     7
100
AcDbLine
 10
204.111864
 20
628.532603
 30
0.0
 11
204.543709
 21
628.996466
 31
0.0
  0
LINE
  5
11B6
100
AcDbEntity
  8
10000_FRONT
370
    25
390
0
  6
CONTINUOUS
 62
     7
100
AcDbLine
 10
163.85631
 20
666.00355
 30
0.0
 11
164.288155
 21
666.467414
 31
0.0
  0
LINE
  5
11B7
100
AcDbEntity
  8
10000_FRONT
370
    25
390
0
  6
CONTINUOUS
 62
     7
100
AcDbLine
 10
163.43471
 20
665.529204
 30
0.0
 11
163.85631
 21
666.00355
 31
0.0
  0
LINE
  5
11B8
100
AcDbEntity
  8
10000_FRONT
370
    25
390
0
  6
CONTINUOUS
 62
     7
100
AcDbLine
 10
204.543709
 20
628.996466
 30
0.0
 11
204.965309
 21
629.470816
 31
0.0
  0
LINE
  5
11B9
100
AcDbEntity
  8
10000_FRONT
370
    25
390
0
  6
CONTINUOUS
 62
     7
100
AcDbLine
 10
204.965309
 20
629.470816
 30
0.0
 11
205.373669
 21
629.952313
 31
0.0
  0
LINE
  5
11BA
100
AcDbEntity
  8
10000_FRONT
370
    25
390
0
  6
CONTINUOUS
 62
     7
100
AcDbLine
 10
163.026352
 20
665.047707
 30
0.0
 11
163.43471
 21
665.529204
 31
0.0
  0
LINE
  5
11BB
100
AcDbEntity
  8
10000_FRONT
370
    25
390
0
  6
CONTINUOUS
 62
     7
100
AcDbLine
 10
162.63348
 20
664.562592
 30
0.0
 11
163.026352
 21
665.047707
 31
0.0
  0
LINE
  5
11BC
100
AcDbEntity
  8
10000_FRONT
370
    25
390
0
  6
CONTINUOUS
 62
     7
100
AcDbLine
 10
205.373669
 20
629.952313
 30
0.0
 11
205.766539
 21
630.437428
 31
0.0
  0
LINE
  5
11BD
100
AcDbEntity
  8
10000_FRONT
370
    25
390
0
  6
CONTINUOUS
 62
     7
100
AcDbLine
 10
162.258265
 20
664.077397
 30
0.0
 11
162.63348
 21
664.562592
 31
0.0
  0
LINE
  5
11BE
100
AcDbEntity
  8
10000_FRONT
370
    25
390
0
  6
CONTINUOUS
 62
     7
100
AcDbLine
 10
205.766539
 20
630.437428
 30
0.0
 11
206.141754
 21
630.922625
 31
0.0
  0
LINE
  5
11BF
100
AcDbEntity
  8
10000_FRONT
370
    25
390
0
  6
CONTINUOUS
 62
     7
100
AcDbLine
 10
161.902441
 20
663.595532
 30
0.0
 11
162.258265
 21
664.077397
 31
0.0
  0
LINE
  5
11C0
100
AcDbEntity
  8
10000_FRONT
370
    25
390
0
  6
CONTINUOUS
 62
     7
100
AcDbLine
 10
206.141754
 20
630.922625
 30
0.0
 11
206.497576
 21
631.40449
 31
0.0
  0
LINE
  5
11C1
100
AcDbEntity
  8
10000_FRONT
370
    25
390
0
  6
CONTINUOUS
 62
     7
100
AcDbLine
 10
161.567013
 20
663.120353
 30
0.0
 11
161.902441
 21
663.595532
 31
0.0
  0
LINE
  5
11C2
100
AcDbEntity
  8
10000_FRONT
370
    25
390
0
  6
CONTINUOUS
 62
     7
100
AcDbLine
 10
206.497576
 20
631.40449
 30
0.0
 11
206.833004
 21
631.879671
 31
0.0
  0
LINE
  5
11C3
100
AcDbEntity
  8
10000_FRONT
370
    25
390
0
  6
CONTINUOUS
 62
     7
100
AcDbLine
 10
206.833004
 20
631.879671
 30
0.0
 11
207.147089
 21
632.344765
 31
0.0
  0
LINE
  5
11C4
100
AcDbEntity
  8
10000_FRONT
370
    25
390
0
  6
CONTINUOUS
 62
     7
100
AcDbLine
 10
161.252928
 20
662.655258
 30
0.0
 11
161.567013
 21
663.120353
 31
0.0
  0
LINE
  5
11C5
100
AcDbEntity
  8
10000_FRONT
370
    25
390
0
  6
CONTINUOUS
 62
     7
100
AcDbLine
 10
160.960939
 20
662.203579
 30
0.0
 11
161.252928
 21
662.655258
 31
0.0
  0
LINE
  5
11C6
100
AcDbEntity
  8
10000_FRONT
370
    25
390
0
  6
CONTINUOUS
 62
     7
100
AcDbLine
 10
207.147089
 20
632.344765
 30
0.0
 11
207.439076
 21
632.796444
 31
0.0
  0
LINE
  5
11C7
100
AcDbEntity
  8
10000_FRONT
370
    25
390
0
  6
CONTINUOUS
 62
     7
100
AcDbLine
 10
160.691114
 20
661.768193
 30
0.0
 11
160.960939
 21
662.203579
 31
0.0
  0
LINE
  5
11C8
100
AcDbEntity
  8
10000_FRONT
370
    25
390
0
  6
CONTINUOUS
 62
     7
100
AcDbLine
 10
207.439076
 20
632.796444
 30
0.0
 11
207.708899
 21
633.231829
 31
0.0
  0
LINE
  5
11C9
100
AcDbEntity
  8
10000_FRONT
370
    25
390
0
  6
CONTINUOUS
 62
     7
100
AcDbLine
 10
221.700134
 20
684.166888
 30
0.0
 11
225.199997
 21
689.999995
 31
0.0
  0
LINE
  5
11CA
100
AcDbEntity
  8
10000_FRONT
370
    25
390
0
  6
CONTINUOUS
 62
     7
100
AcDbLine
 10
207.708899
 20
633.231829
 30
0.0
 11
207.956636
 21
633.648206
 31
0.0
  0
LINE
  5
11CB
100
AcDbEntity
  8
10000_FRONT
370
    25
390
0
  6
CONTINUOUS
 62
     7
100
AcDbLine
 10
160.443377
 20
661.351815
 30
0.0
 11
160.691114
 21
661.768193
 31
0.0
  0
LINE
  5
11CC
100
AcDbEntity
  8
10000_FRONT
370
    25
390
0
  6
CONTINUOUS
 62
     7
100
AcDbLine
 10
207.956636
 20
633.648206
 30
0.0
 11
208.185432
 21
634.048287
 31
0.0
  0
LINE
  5
11CD
100
AcDbEntity
  8
10000_FRONT
370
    25
390
0
  6
CONTINUOUS
 62
     7
100
AcDbLine
 10
160.214581
 20
660.951734
 30
0.0
 11
160.443377
 21
661.351815
 31
0.0
  0
LINE
  5
11CE
100
AcDbEntity
  8
10000_FRONT
370
    25
390
0
  6
CONTINUOUS
 62
     7
100
AcDbLine
 10
159.998795
 20
660.559526
 30
0.0
 11
160.214581
 21
660.951734
 31
0.0
  0
LINE
  5
11CF
100
AcDbEntity
  8
10000_FRONT
370
    25
390
0
  6
CONTINUOUS
 62
     7
100
AcDbLine
 10
208.185432
 20
634.048287
 30
0.0
 11
208.401217
 21
634.440496
 31
0.0
  0
LINE
  5
11D0
100
AcDbEntity
  8
10000_FRONT
370
    25
390
0
  6
CONTINUOUS
 62
     7
100
AcDbLine
 10
159.796211
 20
660.176952
 30
0.0
 11
159.998795
 21
660.559526
 31
0.0
  0
LINE
  5
11D1
100
AcDbEntity
  8
10000_FRONT
370
    25
390
0
  6
CONTINUOUS
 62
     7
100
AcDbLine
 10
208.401217
 20
634.440496
 30
0.0
 11
208.603798
 21
634.823069
 31
0.0
  0
LINE
  5
11D2
100
AcDbEntity
  8
10000_FRONT
370
    25
390
0
  6
CONTINUOUS
 62
     7
100
AcDbLine
 10
159.607069
 20
659.805991
 30
0.0
 11
159.796211
 21
660.176952
 31
0.0
  0
LINE
  5
11D3
100
AcDbEntity
  8
10000_FRONT
370
    25
390
0
  6
CONTINUOUS
 62
     7
100
AcDbLine
 10
208.603798
 20
634.823069
 30
0.0
 11
208.79294
 21
635.194031
 31
0.0
  0
LINE
  5
11D4
100
AcDbEntity
  8
10000_FRONT
370
    25
390
0
  6
CONTINUOUS
 62
     7
100
AcDbLine
 10
159.431376
 20
659.44844
 30
0.0
 11
159.607069
 21
659.805991
 31
0.0
  0
LINE
  5
11D5
100
AcDbEntity
  8
10000_FRONT
370
    25
390
0
  6
CONTINUOUS
 62
     7
100
AcDbLine
 10
208.79294
 20
635.194031
 30
0.0
 11
208.968632
 21
635.551581
 31
0.0
  0
LINE
  5
11D6
100
AcDbEntity
  8
10000_FRONT
370
    25
390
0
  6
CONTINUOUS
 62
     7
100
AcDbLine
 10
208.968632
 20
635.551581
 30
0.0
 11
209.130888
 21
635.893926
 31
0.0
  0
LINE
  5
11D7
100
AcDbEntity
  8
10000_FRONT
370
    25
390
0
  6
CONTINUOUS
 62
     7
100
AcDbLine
 10
159.269119
 20
659.106093
 30
0.0
 11
159.431376
 21
659.44844
 31
0.0
  0
LINE
  5
11D8
100
AcDbEntity
  8
10000_FRONT
370
    25
390
0
  6
CONTINUOUS
 62
     7
100
AcDbLine
 10
159.120138
 20
658.780574
 30
0.0
 11
159.269119
 21
659.106093
 31
0.0
  0
LINE
  5
11D9
100
AcDbEntity
  8
10000_FRONT
370
    25
390
0
  6
CONTINUOUS
 62
     7
100
AcDbLine
 10
209.130888
 20
635.893926
 30
0.0
 11
209.279869
 21
636.219446
 31
0.0
  0
LINE
  5
11DA
100
AcDbEntity
  8
10000_FRONT
370
    25
390
0
  6
CONTINUOUS
 62
     7
100
AcDbLine
 10
209.279869
 20
636.219446
 30
0.0
 11
209.415909
 21
636.526891
 31
0.0
  0
LINE
  5
11DB
100
AcDbEntity
  8
10000_FRONT
370
    25
390
0
  6
CONTINUOUS
 62
     7
100
AcDbLine
 10
158.984097
 20
658.473126
 30
0.0
 11
159.120138
 21
658.780574
 31
0.0
  0
LINE
  5
11DC
100
AcDbEntity
  8
10000_FRONT
370
    25
390
0
  6
CONTINUOUS
 62
     7
100
AcDbLine
 10
209.415909
 20
636.526891
 30
0.0
 11
209.539349
 21
636.81504
 31
0.0
  0
LINE
  5
11DD
100
AcDbEntity
  8
10000_FRONT
370
    25
390
0
  6
CONTINUOUS
 62
     7
100
AcDbLine
 10
158.860657
 20
658.184976
 30
0.0
 11
158.984097
 21
658.473126
 31
0.0
  0
LINE
  5
11DE
100
AcDbEntity
  8
10000_FRONT
370
    25
390
0
  6
CONTINUOUS
 62
     7
100
AcDbLine
 10
209.539349
 20
636.81504
 30
0.0
 11
209.65053
 21
637.08267
 31
0.0
  0
LINE
  5
11DF
100
AcDbEntity
  8
10000_FRONT
370
    25
390
0
  6
CONTINUOUS
 62
     7
100
AcDbLine
 10
158.749476
 20
657.917346
 30
0.0
 11
158.860657
 21
658.184976
 31
0.0
  0
LINE
  5
11E0
100
AcDbEntity
  8
10000_FRONT
370
    25
390
0
  6
CONTINUOUS
 62
     7
100
AcDbLine
 10
158.650196
 20
657.671435
 30
0.0
 11
158.749476
 21
657.917346
 31
0.0
  0
LINE
  5
11E1
100
AcDbEntity
  8
10000_FRONT
370
    25
390
0
  6
CONTINUOUS
 62
     7
100
AcDbLine
 10
209.65053
 20
637.08267
 30
0.0
 11
209.749807
 21
637.328578
 31
0.0
  0
LINE
  5
11E2
100
AcDbEntity
  8
10000_FRONT
370
    25
390
0
  6
CONTINUOUS
 62
     7
100
AcDbLine
 10
158.562306
 20
657.448008
 30
0.0
 11
158.650196
 21
657.671435
 31
0.0
  0
LINE
  5
11E3
100
AcDbEntity
  8
10000_FRONT
370
    25
390
0
  6
CONTINUOUS
 62
     7
100
AcDbLine
 10
209.749807
 20
637.328578
 30
0.0
 11
209.837696
 21
637.552003
 31
0.0
  0
LINE
  5
11E4
100
AcDbEntity
  8
10000_FRONT
370
    25
390
0
  6
CONTINUOUS
 62
     7
100
AcDbLine
 10
209.837696
 20
637.552003
 30
0.0
 11
209.914648
 21
637.752512
 31
0.0
  0
LINE
  5
11E5
100
AcDbEntity
  8
10000_FRONT
370
    25
390
0
  6
CONTINUOUS
 62
     7
100
AcDbLine
 10
158.485354
 20
657.247497
 30
0.0
 11
158.562306
 21
657.448008
 31
0.0
  0
LINE
  5
11E6
100
AcDbEntity
  8
10000_FRONT
370
    25
390
0
  6
CONTINUOUS
 62
     7
100
AcDbLine
 10
158.418915
 20
657.070335
 30
0.0
 11
158.485354
 21
657.247497
 31
0.0
  0
LINE
  5
11E7
100
AcDbEntity
  8
10000_FRONT
370
    25
390
0
  6
CONTINUOUS
 62
     7
100
AcDbLine
 10
209.914648
 20
637.752512
 30
0.0
 11
209.981085
 21
637.929672
 31
0.0
  0
LINE
  5
11E8
100
AcDbEntity
  8
10000_FRONT
370
    25
390
0
  6
CONTINUOUS
 62
     7
100
AcDbLine
 10
209.981085
 20
637.929672
 30
0.0
 11
210.037432
 21
638.083051
 31
0.0
  0
LINE
  5
11E9
100
AcDbEntity
  8
10000_FRONT
370
    25
390
0
  6
CONTINUOUS
 62
     7
100
AcDbLine
 10
158.362568
 20
656.916954
 30
0.0
 11
158.418915
 21
657.070335
 31
0.0
  0
LINE
  5
11EA
100
AcDbEntity
  8
10000_FRONT
370
    25
390
0
  6
CONTINUOUS
 62
     7
100
AcDbLine
 10
158.315888
 20
656.787785
 30
0.0
 11
158.362568
 21
656.916954
 31
0.0
  0
LINE
  5
11EB
100
AcDbEntity
  8
10000_FRONT
370
    25
390
0
  6
CONTINUOUS
 62
     7
100
AcDbLine
 10
210.037432
 20
638.083051
 30
0.0
 11
210.08411
 21
638.212217
 31
0.0
  0
LINE
  5
11EC
100
AcDbEntity
  8
10000_FRONT
370
    25
390
0
  6
CONTINUOUS
 62
     7
100
AcDbLine
 10
210.08411
 20
638.212217
 30
0.0
 11
210.121536
 21
638.316982
 31
0.0
  0
LINE
  5
11ED
100
AcDbEntity
  8
10000_FRONT
370
    25
390
0
  6
CONTINUOUS
 62
     7
100
AcDbLine
 10
158.278462
 20
656.683018
 30
0.0
 11
158.315888
 21
656.787785
 31
0.0
  0
LINE
  5
11EE
100
AcDbEntity
  8
10000_FRONT
370
    25
390
0
  6
CONTINUOUS
 62
     7
100
AcDbLine
 10
158.249939
 20
656.602293
 30
0.0
 11
158.278462
 21
656.683018
 31
0.0
  0
LINE
  5
11EF
100
AcDbEntity
  8
10000_FRONT
370
    25
390
0
  6
CONTINUOUS
 62
     7
100
AcDbLine
 10
210.121536
 20
638.316982
 30
0.0
 11
210.150057
 21
638.397705
 31
0.0
  0
LINE
  5
11F0
100
AcDbEntity
  8
10000_FRONT
370
    25
390
0
  6
CONTINUOUS
 62
     7
100
AcDbLine
 10
210.150057
 20
638.397705
 30
0.0
 11
210.170012
 21
638.454824
 31
0.0
  0
LINE
  5
11F1
100
AcDbEntity
  8
10000_FRONT
370
    25
390
0
  6
CONTINUOUS
 62
     7
100
AcDbLine
 10
158.229984
 20
656.545172
 30
0.0
 11
158.249939
 21
656.602293
 31
0.0
  0
LINE
  5
11F2
100
AcDbEntity
  8
10000_FRONT
370
    25
390
0
  6
CONTINUOUS
 62
     7
100
AcDbLine
 10
158.218258
 20
656.511218
 30
0.0
 11
158.229984
 21
656.545172
 31
0.0
  0
LINE
  5
11F3
100
AcDbEntity
  8
10000_FRONT
370
    25
390
0
  6
CONTINUOUS
 62
     7
100
AcDbLine
 10
210.170012
 20
638.454824
 30
0.0
 11
210.181736
 21
638.488775
 31
0.0
  0
LINE
  5
11F4
100
AcDbEntity
  8
10000_FRONT
370
    25
390
0
  6
CONTINUOUS
 62
     7
100
AcDbLine
 10
210.181736
 20
638.488775
 30
0.0
 11
210.18557
 21
638.499995
 31
0.0
  0
LINE
  5
11F5
100
AcDbEntity
  8
10000_FRONT
370
    25
390
0
  6
CONTINUOUS
 62
     7
100
AcDbLine
 10
158.214424
 20
656.499995
 30
0.0
 11
158.218258
 21
656.511218
 31
0.0
  0
LINE
  5
11F6
100
AcDbEntity
  8
10000_FRONT
370
    25
390
0
  6
CONTINUOUS
 62
     7
100
AcDbLine
 10
145.199997
 20
562.499995
 30
0.0
 11
145.199997
 21
732.499995
 31
0.0
  0
LINE
  5
11F7
100
AcDbEntity
  8
10000_FRONT
370
    25
390
0
  6
CONTINUOUS
 62
     7
100
AcDbLine
 10
146.199997
 20
626.999995
 30
0.0
 11
146.199997
 21
666.999995
 31
0.0
  0
LINE
  5
11F8
100
AcDbEntity
  8
10000_FRONT
370
    25
390
0
  6
CONTINUOUS
 62
     7
100
AcDbLine
 10
146.699997
 20
609.999995
 30
0.0
 11
146.699997
 21
684.999995
 31
0.0
  0
LINE
  5
11F9
100
AcDbEntity
  8
10000_FRONT
370
    25
390
0
  6
CONTINUOUS
 62
     7
100
AcDbLine
 10
151.199997
 20
604.999995
 30
0.0
 11
151.199997
 21
610.000129
 31
0.0
  0
LINE
  5
11FA
100
AcDbEntity
  8
10000_FRONT
370
    25
390
0
  6
CONTINUOUS
 62
     7
100
AcDbLine
 10
152.199997
 20
562.499995
 30
0.0
 11
152.199997
 21
569.499995
 31
0.0
  0
LINE
  5
11FB
100
AcDbEntity
  8
10000_FRONT
370
    25
390
0
  6
CONTINUOUS
 62
     7
100
AcDbLine
 10
152.199997
 20
725.499995
 30
0.0
 11
152.199997
 21
732.499995
 31
0.0
  0
LINE
  5
11FC
100
AcDbEntity
  8
10000_FRONT
370
    25
390
0
  6
CONTINUOUS
 62
     7
100
AcDbLine
 10
158.199997
 20
725.499995
 30
0.0
 11
158.199997
 21
732.499995
 31
0.0
  0
LINE
  5
11FD
100
AcDbEntity
  8
10000_FRONT
370
    25
390
0
  6
CONTINUOUS
 62
     7
100
AcDbLine
 10
158.199997
 20
562.499995
 30
0.0
 11
158.199997
 21
569.499995
 31
0.0
  0
LINE
  5
11FE
100
AcDbEntity
  8
10000_FRONT
370
    25
390
0
  6
CONTINUOUS
 62
     7
100
AcDbLine
 10
203.199997
 20
604.999995
 30
0.0
 11
203.199997
 21
609.999995
 31
0.0
  0
LINE
  5
11FF
100
AcDbEntity
  8
10000_FRONT
370
    25
390
0
  6
CONTINUOUS
 62
     7
100
AcDbLine
 10
211.199997
 20
725.499995
 30
0.0
 11
211.199997
 21
732.499995
 31
0.0
  0
LINE
  5
1200
100
AcDbEntity
  8
10000_FRONT
370
    25
390
0
  6
CONTINUOUS
 62
     7
100
AcDbLine
 10
211.199997
 20
562.499995
 30
0.0
 11
211.199997
 21
569.499995
 31
0.0
  0
LINE
  5
1201
100
AcDbEntity
  8
10000_FRONT
370
    25
390
0
  6
CONTINUOUS
 62
     7
100
AcDbLine
 10
217.199997
 20
725.499995
 30
0.0
 11
217.199997
 21
732.499995
 31
0.0
  0
LINE
  5
1202
100
AcDbEntity
  8
10000_FRONT
370
    25
390
0
  6
CONTINUOUS
 62
     7
100
AcDbLine
 10
217.199997
 20
562.499995
 30
0.0
 11
217.199997
 21
569.499995
 31
0.0
  0
LINE
  5
1203
100
AcDbEntity
  8
10000_FRONT
370
    25
390
0
  6
CONTINUOUS
 62
     7
100
AcDbLine
 10
221.699997
 20
609.999995
 30
0.0
 11
221.699997
 21
684.999995
 31
0.0
  0
LINE
  5
1204
100
AcDbEntity
  8
10000_FRONT
370
    25
390
0
  6
CONTINUOUS
 62
     7
100
AcDbLine
 10
229.199997
 20
689.999995
 30
0.0
 11
229.199997
 21
732.499995
 31
0.0
  0
LINE
  5
1205
100
AcDbEntity
  8
10000_FRONT
370
    25
390
0
  6
CONTINUOUS
 62
     7
100
AcDbLine
 10
229.199997
 20
584.999995
 30
0.0
 11
229.199997
 21
604.999995
 31
0.0
  0
LINE
  5
1206
100
AcDbEntity
  8
10000_FRONT
370
    25
390
0
  6
CONTINUOUS
 62
     7
100
AcDbLine
 10
229.199997
 20
621.499995
 30
0.0
 11
229.199997
 21
673.499995
 31
0.0
  0
LINE
  5
1207
100
AcDbEntity
  8
10000_FRONT
370
    25
390
0
  6
CONTINUOUS
 62
     7
100
AcDbLine
 10
229.199997
 20
562.499995
 30
0.0
 11
229.199997
 21
584.999995
 31
0.0
  0
LINE
  5
1208
100
AcDbEntity
  8
10000_FRONT
370
    25
390
0
  6
CONTINUOUS
 62
     7
100
AcDbLine
 10
231.199997
 20
562.499995
 30
0.0
 11
231.199997
 21
732.499995
 31
0.0
  0
ARC
  5
1209
100
AcDbEntity
  8
10000_FRONT
370
    25
390
0
  6
CONTINUOUS
 62
     7
100
AcDbCircle
 10
155.199997
 20
569.499995
 30
0.0
 40
3.0
100
AcDbArc
 50
0.0
 51
180.0
  0
ARC
  5
120A
100
AcDbEntity
  8
10000_FRONT
370
    25
390
0
  6
CONTINUOUS
 62
     7
100
AcDbCircle
 10
155.199997
 20
725.499995
 30
0.0
 40
3.0
100
AcDbArc
 50
180.0
 51
0.0
  0
ARC
  5
120B
100
AcDbEntity
  8
10000_FRONT
370
    25
390
0
  6
CONTINUOUS
 62
     7
100
AcDbCircle
 10
184.199997
 20
647.499995
 30
0.0
 40
27.5
100
AcDbArc
 50
160.896675
 51
199.103325
  0
ARC
  5
120C
100
AcDbEntity
  8
10000_FRONT
370
    25
390
0
  6
CONTINUOUS
 62
     7
100
AcDbCircle
 10
184.199997
 20
647.499995
 30
0.0
 40
37.0
100
AcDbArc
 50
345.921962
 51
14.078038
  0
ARC
  5
120D
100
AcDbEntity
  8
10000_FRONT
370
    25
390
0
  6
CONTINUOUS
 62
     7
100
AcDbCircle
 10
214.199997
 20
569.499995
 30
0.0
 40
3.0
100
AcDbArc
 50
0.0
 51
180.0
  0
ARC
  5
120E
100
AcDbEntity
  8
10000_FRONT
370
    25
390
0
  6
CONTINUOUS
 62
     7
100
AcDbCircle
 10
214.199997
 20
725.499995
 30
0.0
 40
3.0
100
AcDbArc
 50
180.0
 51
0.0
  0
ARC
  5
120F
100
AcDbEntity
  8
10000_FRONT
370
    25
390
0
  6
CONTINUOUS
 62
     7
100
AcDbCircle
 10
219.949997
 20
630.499995
 30
0.0
 40
2.939345
100
AcDbArc
 50
11.778408
 51
53.459807
  0
ARC
  5
1210
100
AcDbEntity
  8
10000_FRONT
370
    25
390
0
  6
CONTINUOUS
 62
     7
100
AcDbCircle
 10
219.949997
 20
630.499995
 30
0.0
 40
2.939345
100
AcDbArc
 50
306.538694
 51
348.221592
  0
ARC
  5
1211
100
AcDbEntity
  8
10000_FRONT
370
    25
390
0
  6
CONTINUOUS
 62
     7
100
AcDbCircle
 10
219.949997
 20
630.499995
 30
0.0
 40
3.954632
100
AcDbArc
 50
351.273333
 51
8.726667
  0
ARC
  5
1212
100
AcDbEntity
  8
10000_FRONT
370
    25
390
0
  6
CONTINUOUS
 62
     7
100
AcDbCircle
 10
219.949997
 20
630.499995
 30
0.0
 40
3.954744
100
AcDbArc
 50
296.263489
 51
63.735652
  0
ARC
  5
1213
100
AcDbEntity
  8
10000_FRONT
370
    25
390
0
  6
CONTINUOUS
 62
     7
100
AcDbCircle
 10
219.949997
 20
664.499995
 30
0.0
 40
2.939345
100
AcDbArc
 50
11.778408
 51
53.459796
  0
ARC
  5
1214
100
AcDbEntity
  8
10000_FRONT
370
    25
390
0
  6
CONTINUOUS
 62
     7
100
AcDbCircle
 10
219.949997
 20
664.499995
 30
0.0
 40
2.939345
100
AcDbArc
 50
306.538694
 51
348.221592
  0
ARC
  5
1215
100
AcDbEntity
  8
10000_FRONT
370
    25
390
0
  6
CONTINUOUS
 62
     7
100
AcDbCircle
 10
219.949997
 20
664.499995
 30
0.0
 40
3.954632
100
AcDbArc
 50
351.273333
 51
8.726667
  0
ARC
  5
1216
100
AcDbEntity
  8
10000_FRONT
370
    25
390
0
  6
CONTINUOUS
 62
     7
100
AcDbCircle
 10
219.949997
 20
664.499995
 30
0.0
 40
3.954744
100
AcDbArc
 50
296.263489
 51
63.735658
  0
LINE
  5
1217
100
AcDbEntity
  8
10100_FRONT_DIM
370
    13
390
0
  6
CONTINUOUS
 62
     7
100
AcDbLine
 10
145.199997
 20
732.500005
 30
0.0
 11
145.199997
 21
743.500005
 31
0.0
  0
LINE
  5
1218
100
AcDbEntity
  8
10100_FRONT_DIM
370
    13
390
0
  6
CONTINUOUS
 62
     7
100
AcDbLine
 10
231.199997
 20
743.500005
 30
0.0
 11
231.199997
 21
732.500005
 31
0.0
  0
LINE
  5
1219
100
AcDbEntity
  8
10100_FRONT_DIM
370
    13
390
0
  6
CONTINUOUS
 62
     7
100
AcDbLine
 10
145.199997
 20
742.500005
 30
0.0
 11
231.199997
 21
742.500005
 31
0.0
  0
TEXT
  5
121A
100
AcDbEntity
  8
10100_FRONT_DIM
370
    13
390
0
  6
CONTINUOUS
 62
     7
100
AcDbText
 10
186.53333
 20
743.500005
 30
0.0
 40
2.0
  1
86
 72
     1
 11
188.199997
 21
743.500005
 31
0.0
100
AcDbText
  0
LINE
  5
121B
100
AcDbEntity
  8
10100_FRONT_DIM
370
    13
390
0
  6
CONTINUOUS
 62
     7
100
AcDbLine
 10
145.199997
 20
562.499995
 30
0.0
 11
134.199997
 21
562.499995
 31
0.0
  0
LINE
  5
121C
100
AcDbEntity
  8
10100_FRONT_DIM
370
    13
390
0
  6
CONTINUOUS
 62
     7
100
AcDbLine
 10
134.199997
 20
732.499995
 30
0.0
 11
145.199997
 21
732.499995
 31
0.0
  0
LINE
  5
121D
100
AcDbEntity
  8
10100_FRONT_DIM
370
    13
390
0
  6
CONTINUOUS
 62
     7
100
AcDbLine
 10
135.199997
 20
562.499995
 30
0.0
 11
135.199997
 21
732.499995
 31
0.0
  0
TEXT
  5
121E
100
AcDbEntity
  8
10100_FRONT_DIM
370
    13
390
0
  6
CONTINUOUS
 62
     7
100
AcDbText
 10
134.199997
 20
645.333328
 30
0.0
 40
2.0
  1
170
 50
90.0
 72
     1
 11
134.199997
 21
647.499995
 31
0.0
100
AcDbText
  0
SOLID
  5
121F
100
AcDbEntity
  8
10100_FRONT_DIM
370
    13
390
0
  6
CONTINUOUS
 62
     7
100
AcDbTrace
 10
149.199997
 20
743.026615
 30
0.0
 11
145.199997
 21
742.500005
 31
0.0
 12
149.199997
 22
741.973395
 32
0.0
 13
145.199997
 23
742.500005
 33
0.0
  0
SOLID
  5
1220
100
AcDbEntity
  8
10100_FRONT_DIM
370
    13
390
0
  6
CONTINUOUS
 62
     7
100
AcDbTrace
 10
227.199997
 20
741.973395
 30
0.0
 11
231.199997
 21
742.500005
 31
0.0
 12
227.199997
 22
743.026615
 32
0.0
 13
231.199997
 23
742.500005
 33
0.0
  0
SOLID
  5
1221
100
AcDbEntity
  8
10100_FRONT_DIM
370
    13
390
0
  6
CONTINUOUS
 62
     7
100
AcDbTrace
 10
134.673387
 20
566.499995
 30
0.0
 11
135.199997
 21
562.499995
 31
0.0
 12
135.726607
 22
566.499995
 32
0.0
 13
135.199997
 23
562.499995
 33
0.0
  0
SOLID
  5
1222
100
AcDbEntity
  8
10100_FRONT_DIM
370
    13
390
0
  6
CONTINUOUS
 62
     7
100
AcDbTrace
 10
135.726607
 20
728.499995
 30
0.0
 11
135.199997
 21
732.499995
 31
0.0
 12
134.673387
 22
728.499995
 32
0.0
 13
135.199997
 23
732.499995
 33
0.0
  0
LINE
  5
1223
100
AcDbEntity
  8
11000_LEFT
370
    25
390
0
  6
CONTINUOUS
 62
     7
100
AcDbLine
 10
671.861008
 20
674.991658
 30
0.0
 11
671.860397
 21
674.999995
 31
0.0
  0
LINE
  5
1224
100
AcDbEntity
  8
11000_LEFT
370
    25
390
0
  6
CONTINUOUS
 62
     7
100
AcDbLine
 10
671.8629
 20
674.966513
 30
0.0
 11
671.861008
 21
674.991658
 31
0.0
  0
LINE
  5
1225
100
AcDbEntity
  8
11000_LEFT
370
    25
390
0
  6
CONTINUOUS
 62
     7
100
AcDbLine
 10
671.866196
 20
674.92426
 30
0.0
 11
671.8629
 21
674.966513
 31
0.0
  0
LINE
  5
1226
100
AcDbEntity
  8
11000_LEFT
370
    25
390
0
  6
CONTINUOUS
 62
     7
100
AcDbLine
 10
671.871018
 20
674.864589
 30
0.0
 11
671.866196
 21
674.92426
 31
0.0
  0
LINE
  5
1227
100
AcDbEntity
  8
11000_LEFT
370
    25
390
0
  6
CONTINUOUS
 62
     7
100
AcDbLine
 10
671.877457
 20
674.787247
 30
0.0
 11
671.871018
 21
674.864589
 31
0.0
  0
LINE
  5
1228
100
AcDbEntity
  8
11000_LEFT
370
    25
390
0
  6
CONTINUOUS
 62
     7
100
AcDbLine
 10
671.885819
 20
674.692128
 30
0.0
 11
671.877457
 21
674.787247
 31
0.0
  0
LINE
  5
1229
100
AcDbEntity
  8
11000_LEFT
370
    25
390
0
  6
CONTINUOUS
 62
     7
100
AcDbLine
 10
671.896378
 20
674.579146
 30
0.0
 11
671.885819
 21
674.692128
 31
0.0
  0
LINE
  5
122A
100
AcDbEntity
  8
11000_LEFT
370
    25
390
0
  6
CONTINUOUS
 62
     7
100
AcDbLine
 10
671.909409
 20
674.448214
 30
0.0
 11
671.896378
 21
674.579146
 31
0.0
  0
LINE
  5
122B
100
AcDbEntity
  8
11000_LEFT
370
    25
390
0
  6
CONTINUOUS
 62
     7
100
AcDbLine
 10
671.925247
 20
674.299313
 30
0.0
 11
671.909409
 21
674.448214
 31
0.0
  0
LINE
  5
122C
100
AcDbEntity
  8
11000_LEFT
370
    25
390
0
  6
CONTINUOUS
 62
     7
100
AcDbLine
 10
671.944351
 20
674.132544
 30
0.0
 11
671.925247
 21
674.299313
 31
0.0
  0
LINE
  5
122D
100
AcDbEntity
  8
11000_LEFT
370
    25
390
0
  6
CONTINUOUS
 62
     7
100
AcDbLine
 10
671.967178
 20
673.948039
 30
0.0
 11
671.944351
 21
674.132544
 31
0.0
  0
LINE
  5
122E
100
AcDbEntity
  8
11000_LEFT
370
    25
390
0
  6
CONTINUOUS
 62
     7
100
AcDbLine
 10
671.994186
 20
673.745919
 30
0.0
 11
671.967178
 21
673.948039
 31
0.0
  0
LINE
  5
122F
100
AcDbEntity
  8
11000_LEFT
370
    25
390
0
  6
CONTINUOUS
 62
     7
100
AcDbLine
 10
672.025833
 20
673.526391
 30
0.0
 11
671.994186
 21
673.745919
 31
0.0
  0
LINE
  5
1230
100
AcDbEntity
  8
11000_LEFT
370
    25
390
0
  6
CONTINUOUS
 62
     7
100
AcDbLine
 10
672.06279
 20
673.289778
 30
0.0
 11
672.025833
 21
673.526391
 31
0.0
  0
LINE
  5
1231
100
AcDbEntity
  8
11000_LEFT
370
    25
390
0
  6
CONTINUOUS
 62
     7
100
AcDbLine
 10
672.105606
 20
673.036412
 30
0.0
 11
672.06279
 21
673.289778
 31
0.0
  0
LINE
  5
1232
100
AcDbEntity
  8
11000_LEFT
370
    25
390
0
  6
CONTINUOUS
 62
     7
100
AcDbLine
 10
672.154862
 20
672.76661
 30
0.0
 11
672.105606
 21
673.036412
 31
0.0
  0
LINE
  5
1233
100
AcDbEntity
  8
11000_LEFT
370
    25
390
0
  6
CONTINUOUS
 62
     7
100
AcDbLine
 10
672.211258
 20
672.480687
 30
0.0
 11
672.154862
 21
672.76661
 31
0.0
  0
LINE
  5
1234
100
AcDbEntity
  8
11000_LEFT
370
    25
390
0
  6
CONTINUOUS
 62
     7
100
AcDbLine
 10
672.275436
 20
672.179135
 30
0.0
 11
672.211258
 21
672.480687
 31
0.0
  0
LINE
  5
1235
100
AcDbEntity
  8
11000_LEFT
370
    25
390
0
  6
CONTINUOUS
 62
     7
100
AcDbLine
 10
672.348129
 20
671.862477
 30
0.0
 11
672.275436
 21
672.179135
 31
0.0
  0
LINE
  5
1236
100
AcDbEntity
  8
11000_LEFT
370
    25
390
0
  6
CONTINUOUS
 62
     7
100
AcDbLine
 10
672.429977
 20
671.531239
 30
0.0
 11
672.348129
 21
671.862477
 31
0.0
  0
LINE
  5
1237
100
AcDbEntity
  8
11000_LEFT
370
    25
390
0
  6
CONTINUOUS
 62
     7
100
AcDbLine
 10
672.521683
 20
671.186057
 30
0.0
 11
672.429977
 21
671.531239
 31
0.0
  0
LINE
  5
1238
100
AcDbEntity
  8
11000_LEFT
370
    25
390
0
  6
CONTINUOUS
 62
     7
100
AcDbLine
 10
672.623947
 20
670.827655
 30
0.0
 11
672.521683
 21
671.186057
 31
0.0
  0
LINE
  5
1239
100
AcDbEntity
  8
11000_LEFT
370
    25
390
0
  6
CONTINUOUS
 62
     7
100
AcDbLine
 10
672.737442
 20
670.456757
 30
0.0
 11
672.623947
 21
670.827655
 31
0.0
  0
LINE
  5
123A
100
AcDbEntity
  8
11000_LEFT
370
    25
390
0
  6
CONTINUOUS
 62
     7
100
AcDbLine
 10
672.8629
 20
670.074095
 30
0.0
 11
672.737442
 21
670.456757
 31
0.0
  0
LINE
  5
123B
100
AcDbEntity
  8
11000_LEFT
370
    25
390
0
  6
CONTINUOUS
 62
     7
100
AcDbLine
 10
673.0009
 20
669.680497
 30
0.0
 11
672.8629
 21
670.074095
 31
0.0
  0
LINE
  5
123C
100
AcDbEntity
  8
11000_LEFT
370
    25
390
0
  6
CONTINUOUS
 62
     7
100
AcDbLine
 10
673.152115
 20
669.276873
 30
0.0
 11
673.0009
 21
669.680497
 31
0.0
  0
LINE
  5
123D
100
AcDbEntity
  8
11000_LEFT
370
    25
390
0
  6
CONTINUOUS
 62
     7
100
AcDbLine
 10
673.317154
 20
668.864144
 30
0.0
 11
673.152115
 21
669.276873
 31
0.0
  0
LINE
  5
123E
100
AcDbEntity
  8
11000_LEFT
370
    25
390
0
  6
CONTINUOUS
 62
     7
100
AcDbLine
 10
673.496567
 20
668.443238
 30
0.0
 11
673.317154
 21
668.864144
 31
0.0
  0
LINE
  5
123F
100
AcDbEntity
  8
11000_LEFT
370
    25
390
0
  6
CONTINUOUS
 62
     7
100
AcDbLine
 10
673.690872
 20
668.015189
 30
0.0
 11
673.496567
 21
668.443238
 31
0.0
  0
LINE
  5
1240
100
AcDbEntity
  8
11000_LEFT
370
    25
390
0
  6
CONTINUOUS
 62
     7
100
AcDbLine
 10
673.900559
 20
667.581069
 30
0.0
 11
673.690872
 21
668.015189
 31
0.0
  0
LINE
  5
1241
100
AcDbEntity
  8
11000_LEFT
370
    25
390
0
  6
CONTINUOUS
 62
     7
100
AcDbLine
 10
674.125992
 20
667.141949
 30
0.0
 11
673.900559
 21
667.581069
 31
0.0
  0
LINE
  5
1242
100
AcDbEntity
  8
11000_LEFT
370
    25
390
0
  6
CONTINUOUS
 62
     7
100
AcDbLine
 10
674.371048
 20
666.692857
 30
0.0
 11
674.125992
 21
667.141949
 31
0.0
  0
LINE
  5
1243
100
AcDbEntity
  8
11000_LEFT
370
    25
390
0
  6
CONTINUOUS
 62
     7
100
AcDbLine
 10
674.640701
 20
666.228108
 30
0.0
 11
674.371048
 21
666.692857
 31
0.0
  0
LINE
  5
1244
100
AcDbEntity
  8
11000_LEFT
370
    25
390
0
  6
CONTINUOUS
 62
     7
100
AcDbLine
 10
674.935288
 20
665.750972
 30
0.0
 11
674.640701
 21
666.228108
 31
0.0
  0
LINE
  5
1245
100
AcDbEntity
  8
11000_LEFT
370
    25
390
0
  6
CONTINUOUS
 62
     7
100
AcDbLine
 10
675.255081
 20
665.264817
 30
0.0
 11
674.935288
 21
665.750972
 31
0.0
  0
LINE
  5
1246
100
AcDbEntity
  8
11000_LEFT
370
    25
390
0
  6
CONTINUOUS
 62
     7
100
AcDbLine
 10
675.599625
 20
664.773289
 30
0.0
 11
675.255081
 21
665.264817
 31
0.0
  0
LINE
  5
1247
100
AcDbEntity
  8
11000_LEFT
370
    25
390
0
  6
CONTINUOUS
 62
     7
100
AcDbLine
 10
675.968063
 20
664.280097
 30
0.0
 11
675.599625
 21
664.773289
 31
0.0
  0
LINE
  5
1248
100
AcDbEntity
  8
11000_LEFT
370
    25
390
0
  6
CONTINUOUS
 62
     7
100
AcDbLine
 10
676.359573
 20
663.788895
 30
0.0
 11
675.968063
 21
664.280097
 31
0.0
  0
LINE
  5
1249
100
AcDbEntity
  8
11000_LEFT
370
    25
390
0
  6
CONTINUOUS
 62
     7
100
AcDbLine
 10
676.772476
 20
663.303186
 30
0.0
 11
676.359573
 21
663.788895
 31
0.0
  0
LINE
  5
124A
100
AcDbEntity
  8
11000_LEFT
370
    25
390
0
  6
CONTINUOUS
 62
     7
100
AcDbLine
 10
677.204575
 20
662.826524
 30
0.0
 11
676.772476
 21
663.303186
 31
0.0
  0
LINE
  5
124B
100
AcDbEntity
  8
11000_LEFT
370
    25
390
0
  6
CONTINUOUS
 62
     7
100
AcDbLine
 10
677.653519
 20
662.362457
 30
0.0
 11
677.204575
 21
662.826524
 31
0.0
  0
LINE
  5
124C
100
AcDbEntity
  8
11000_LEFT
370
    25
390
0
  6
CONTINUOUS
 62
     7
100
AcDbLine
 10
496.300003
 20
653.999995
 30
0.0
 11
495.800003
 21
654.499995
 31
0.0
  0
LINE
  5
124D
100
AcDbEntity
  8
11000_LEFT
370
    25
390
0
  6
CONTINUOUS
 62
     7
100
AcDbLine
 10
678.116135
 20
661.914188
 30
0.0
 11
677.653519
 21
662.362457
 31
0.0
  0
LINE
  5
124E
100
AcDbEntity
  8
11000_LEFT
370
    25
390
0
  6
CONTINUOUS
 62
     7
100
AcDbLine
 10
678.588699
 20
661.484576
 30
0.0
 11
678.116135
 21
661.914188
 31
0.0
  0
LINE
  5
124F
100
AcDbEntity
  8
11000_LEFT
370
    25
390
0
  6
CONTINUOUS
 62
     7
100
AcDbLine
 10
679.06984
 20
661.074391
 30
0.0
 11
678.588699
 21
661.484576
 31
0.0
  0
LINE
  5
1250
100
AcDbEntity
  8
11000_LEFT
370
    25
390
0
  6
CONTINUOUS
 62
     7
100
AcDbLine
 10
645.499985
 20
648.304999
 30
0.0
 11
629.12001
 21
661.499995
 31
0.0
  0
LINE
  5
1251
100
AcDbEntity
  8
11000_LEFT
370
    25
390
0
  6
CONTINUOUS
 62
     7
100
AcDbLine
 10
679.571701
 20
660.673507
 30
0.0
 11
679.06984
 21
661.074391
 31
0.0
  0
LINE
  5
1252
100
AcDbEntity
  8
11000_LEFT
370
    25
390
0
  6
CONTINUOUS
 62
     7
100
AcDbLine
 10
680.095841
 20
660.281943
 30
0.0
 11
679.571701
 21
660.673507
 31
0.0
  0
LINE
  5
1253
100
AcDbEntity
  8
11000_LEFT
370
    25
390
0
  6
CONTINUOUS
 62
     7
100
AcDbLine
 10
680.641403
 20
659.901812
 30
0.0
 11
680.095841
 21
660.281943
 31
0.0
  0
LINE
  5
1254
100
AcDbEntity
  8
11000_LEFT
370
    25
390
0
  6
CONTINUOUS
 62
     7
100
AcDbLine
 10
681.20723
 20
659.535037
 30
0.0
 11
680.641403
 21
659.901812
 31
0.0
  0
LINE
  5
1255
100
AcDbEntity
  8
11000_LEFT
370
    25
390
0
  6
CONTINUOUS
 62
     7
100
AcDbLine
 10
681.792191
 20
659.183486
 30
0.0
 11
681.20723
 21
659.535037
 31
0.0
  0
LINE
  5
1256
100
AcDbEntity
  8
11000_LEFT
370
    25
390
0
  6
CONTINUOUS
 62
     7
100
AcDbLine
 10
682.395035
 20
658.848955
 30
0.0
 11
681.792191
 21
659.183486
 31
0.0
  0
LINE
  5
1257
100
AcDbEntity
  8
11000_LEFT
370
    25
390
0
  6
CONTINUOUS
 62
     7
100
AcDbLine
 10
683.014328
 20
658.532797
 30
0.0
 11
682.395035
 21
658.848955
 31
0.0
  0
LINE
  5
1258
100
AcDbEntity
  8
11000_LEFT
370
    25
390
0
  6
CONTINUOUS
 62
     7
100
AcDbLine
 10
472.199997
 20
709.999995
 30
0.0
 11
425.199997
 21
732.499995
 31
0.0
  0
LINE
  5
1259
100
AcDbEntity
  8
11000_LEFT
370
    25
390
0
  6
CONTINUOUS
 62
     7
100
AcDbLine
 10
683.648392
 20
658.236294
 30
0.0
 11
683.014328
 21
658.532797
 31
0.0
  0
LINE
  5
125A
100
AcDbEntity
  8
11000_LEFT
370
    25
390
0
  6
CONTINUOUS
 62
     7
100
AcDbLine
 10
684.29567
 20
657.960727
 30
0.0
 11
683.648392
 21
658.236294
 31
0.0
  0
LINE
  5
125B
100
AcDbEntity
  8
11000_LEFT
370
    25
390
0
  6
CONTINUOUS
 62
     7
100
AcDbLine
 10
684.954605
 20
657.707369
 30
0.0
 11
684.29567
 21
657.960727
 31
0.0
  0
LINE
  5
125C
100
AcDbEntity
  8
11000_LEFT
370
    25
390
0
  6
CONTINUOUS
 62
     7
100
AcDbLine
 10
685.623795
 20
657.477125
 30
0.0
 11
684.954605
 21
657.707369
 31
0.0
  0
LINE
  5
125D
100
AcDbEntity
  8
11000_LEFT
370
    25
390
0
  6
CONTINUOUS
 62
     7
100
AcDbLine
 10
686.301498
 20
657.27046
 30
0.0
 11
685.623795
 21
657.477125
 31
0.0
  0
LINE
  5
125E
100
AcDbEntity
  8
11000_LEFT
370
    25
390
0
  6
CONTINUOUS
 62
     7
100
AcDbLine
 10
686.985794
 20
657.087826
 30
0.0
 11
686.301498
 21
657.27046
 31
0.0
  0
LINE
  5
125F
100
AcDbEntity
  8
11000_LEFT
370
    25
390
0
  6
CONTINUOUS
 62
     7
100
AcDbLine
 10
687.674881
 20
656.929677
 30
0.0
 11
686.985794
 21
657.087826
 31
0.0
  0
LINE
  5
1260
100
AcDbEntity
  8
11000_LEFT
370
    25
390
0
  6
CONTINUOUS
 62
     7
100
AcDbLine
 10
688.366806
 20
656.796466
 30
0.0
 11
687.674881
 21
656.929677
 31
0.0
  0
LINE
  5
1261
100
AcDbEntity
  8
11000_LEFT
370
    25
390
0
  6
CONTINUOUS
 62
     7
100
AcDbLine
 10
689.059677
 20
656.688434
 30
0.0
 11
688.366806
 21
656.796466
 31
0.0
  0
LINE
  5
1262
100
AcDbEntity
  8
11000_LEFT
370
    25
390
0
  6
CONTINUOUS
 62
     7
100
AcDbLine
 10
689.75148
 20
656.605229
 30
0.0
 11
689.059677
 21
656.688434
 31
0.0
  0
LINE
  5
1263
100
AcDbEntity
  8
11000_LEFT
370
    25
390
0
  6
CONTINUOUS
 62
     7
100
AcDbLine
 10
690.44014
 20
656.546392
 30
0.0
 11
689.75148
 21
656.605229
 31
0.0
  0
LINE
  5
1264
100
AcDbEntity
  8
11000_LEFT
370
    25
390
0
  6
CONTINUOUS
 62
     7
100
AcDbLine
 10
691.123673
 20
656.511467
 30
0.0
 11
690.44014
 21
656.546392
 31
0.0
  0
LINE
  5
1265
100
AcDbEntity
  8
11000_LEFT
370
    25
390
0
  6
CONTINUOUS
 62
     7
100
AcDbLine
 10
691.800003
 20
656.499995
 30
0.0
 11
691.123673
 21
656.511467
 31
0.0
  0
LINE
  5
1266
100
AcDbEntity
  8
11000_LEFT
370
    25
390
0
  6
CONTINUOUS
 62
     7
100
AcDbLine
 10
311.199997
 20
562.499995
 30
0.0
 11
425.199997
 21
562.499995
 31
0.0
  0
LINE
  5
1267
100
AcDbEntity
  8
11000_LEFT
370
    25
390
0
  6
CONTINUOUS
 62
     7
100
AcDbLine
 10
311.199997
 20
569.499995
 30
0.0
 11
311.200039
 21
569.499995
 31
0.0
  0
LINE
  5
1268
100
AcDbEntity
  8
11000_LEFT
370
    25
390
0
  6
CONTINUOUS
 62
     7
100
AcDbLine
 10
470.199997
 20
604.999995
 30
0.0
 11
472.199997
 21
604.999995
 31
0.0
  0
LINE
  5
1269
100
AcDbEntity
  8
11000_LEFT
370
    25
390
0
  6
CONTINUOUS
 62
     7
100
AcDbLine
 10
649.800003
 20
609.999995
 30
0.0
 11
662.800003
 21
609.999995
 31
0.0
  0
LINE
  5
126A
100
AcDbEntity
  8
11000_LEFT
370
    25
390
0
  6
CONTINUOUS
 62
     7
100
AcDbLine
 10
472.199997
 20
611.599993
 30
0.0
 11
472.300003
 21
611.599993
 31
0.0
  0
LINE
  5
126B
100
AcDbEntity
  8
11000_LEFT
370
    25
390
0
  6
CONTINUOUS
 62
     7
100
AcDbLine
 10
472.199997
 20
613.599993
 30
0.0
 11
472.300003
 21
613.599993
 31
0.0
  0
LINE
  5
126C
100
AcDbEntity
  8
11000_LEFT
370
    25
390
0
  6
CONTINUOUS
 62
     7
100
AcDbLine
 10
472.199997
 20
619.599995
 30
0.0
 11
472.300003
 21
619.599995
 31
0.0
  0
LINE
  5
126D
100
AcDbEntity
  8
11000_LEFT
370
    25
390
0
  6
CONTINUOUS
 62
     7
100
AcDbLine
 10
662.800003
 20
619.999995
 30
0.0
 11
671.860397
 21
619.999995
 31
0.0
  0
LINE
  5
126E
100
AcDbEntity
  8
11000_LEFT
370
    25
390
0
  6
CONTINUOUS
 62
     7
100
AcDbLine
 10
468.199997
 20
621.499995
 30
0.0
 11
470.199997
 21
621.499995
 31
0.0
  0
LINE
  5
126F
100
AcDbEntity
  8
11000_LEFT
370
    25
390
0
  6
CONTINUOUS
 62
     7
100
AcDbLine
 10
472.199997
 20
621.599995
 30
0.0
 11
472.300003
 21
621.599995
 31
0.0
  0
LINE
  5
1270
100
AcDbEntity
  8
11000_LEFT
370
    25
390
0
  6
CONTINUOUS
 62
     7
100
AcDbLine
 10
438.199997
 20
622.499995
 30
0.0
 11
450.199997
 21
622.499995
 31
0.0
  0
LINE
  5
1271
100
AcDbEntity
  8
11000_LEFT
370
    25
390
0
  6
CONTINUOUS
 62
     7
100
AcDbLine
 10
468.199997
 20
624.999995
 30
0.0
 11
470.199997
 21
624.999995
 31
0.0
  0
LINE
  5
1272
100
AcDbEntity
  8
11000_LEFT
370
    25
390
0
  6
CONTINUOUS
 62
     7
100
AcDbLine
 10
472.199997
 20
626.545251
 30
0.0
 11
473.199997
 21
626.545251
 31
0.0
  0
LINE
  5
1273
100
AcDbEntity
  8
11000_LEFT
370
    25
390
0
  6
CONTINUOUS
 62
     7
100
AcDbLine
 10
470.199997
 20
626.999995
 30
0.0
 11
472.199997
 21
626.999995
 31
0.0
  0
LINE
  5
1274
100
AcDbEntity
  8
11000_LEFT
370
    25
390
0
  6
CONTINUOUS
 62
     7
100
AcDbLine
 10
462.199997
 20
628.499995
 30
0.0
 11
468.199997
 21
628.499995
 31
0.0
  0
LINE
  5
1275
100
AcDbEntity
  8
11000_LEFT
370
    25
390
0
  6
CONTINUOUS
 62
     7
100
AcDbLine
 10
473.209992
 20
629.899995
 30
0.0
 11
474.199997
 21
629.899995
 31
0.0
  0
LINE
  5
1276
100
AcDbEntity
  8
11000_LEFT
370
    25
390
0
  6
CONTINUOUS
 62
     7
100
AcDbLine
 10
473.209992
 20
631.099995
 30
0.0
 11
474.199997
 21
631.099995
 31
0.0
  0
LINE
  5
1277
100
AcDbEntity
  8
11000_LEFT
370
    25
390
0
  6
CONTINUOUS
 62
     7
100
AcDbLine
 10
462.199997
 20
632.499995
 30
0.0
 11
468.199997
 21
632.499995
 31
0.0
  0
LINE
  5
1278
100
AcDbEntity
  8
11000_LEFT
370
    25
390
0
  6
CONTINUOUS
 62
     7
100
AcDbLine
 10
621.499985
 20
633.499995
 30
0.0
 11
629.12001
 21
633.499995
 31
0.0
  0
LINE
  5
1279
100
AcDbEntity
  8
11000_LEFT
370
    25
390
0
  6
CONTINUOUS
 62
     7
100
AcDbLine
 10
472.199997
 20
634.454739
 30
0.0
 11
473.199997
 21
634.454739
 31
0.0
  0
LINE
  5
127A
100
AcDbEntity
  8
11000_LEFT
370
    25
390
0
  6
CONTINUOUS
 62
     7
100
AcDbLine
 10
474.399994
 20
635.599995
 30
0.0
 11
476.800003
 21
635.599995
 31
0.0
  0
LINE
  5
127B
100
AcDbEntity
  8
11000_LEFT
370
    25
390
0
  6
CONTINUOUS
 62
     7
100
AcDbLine
 10
463.699997
 20
636.600917
 30
0.0
 11
465.199997
 21
636.600917
 31
0.0
  0
LINE
  5
127C
100
AcDbEntity
  8
11000_LEFT
370
    25
390
0
  6
CONTINUOUS
 62
     7
100
AcDbLine
 10
463.699997
 20
637.600965
 30
0.0
 11
465.199997
 21
637.600965
 31
0.0
  0
LINE
  5
127D
100
AcDbEntity
  8
11000_LEFT
370
    25
390
0
  6
CONTINUOUS
 62
     7
100
AcDbLine
 10
691.800003
 20
638.499995
 30
0.0
 11
707.800003
 21
638.499995
 31
0.0
  0
LINE
  5
127E
100
AcDbEntity
  8
11000_LEFT
370
    25
390
0
  6
CONTINUOUS
 62
     7
100
AcDbLine
 10
469.0
 20
639.499995
 30
0.0
 11
470.199997
 21
639.499995
 31
0.0
  0
LINE
  5
127F
100
AcDbEntity
  8
11000_LEFT
370
    25
390
0
  6
CONTINUOUS
 62
     7
100
AcDbLine
 10
470.199997
 20
639.999995
 30
0.0
 11
470.200012
 21
639.999995
 31
0.0
  0
LINE
  5
1280
100
AcDbEntity
  8
11000_LEFT
370
    25
390
0
  6
CONTINUOUS
 62
     7
100
AcDbLine
 10
476.800003
 20
640.499995
 30
0.0
 11
495.800003
 21
640.499995
 31
0.0
  0
LINE
  5
1281
100
AcDbEntity
  8
11000_LEFT
370
    25
390
0
  6
CONTINUOUS
 62
     7
100
AcDbLine
 10
472.199997
 20
640.999995
 30
0.0
 11
474.399994
 21
640.999995
 31
0.0
  0
LINE
  5
1282
100
AcDbEntity
  8
11000_LEFT
370
    25
390
0
  6
CONTINUOUS
 62
     7
100
AcDbLine
 10
594.499985
 20
641.499995
 30
0.0
 11
621.499985
 21
641.499995
 31
0.0
  0
LINE
  5
1283
100
AcDbEntity
  8
11000_LEFT
370
    25
390
0
  6
CONTINUOUS
 62
     7
100
AcDbLine
 10
508.0
 20
641.499995
 30
0.0
 11
535.0
 21
641.499995
 31
0.0
  0
LINE
  5
1284
100
AcDbEntity
  8
11000_LEFT
370
    25
390
0
  6
CONTINUOUS
 62
     7
100
AcDbLine
 10
457.0
 20
642.399995
 30
0.0
 11
463.699997
 21
642.399995
 31
0.0
  0
LINE
  5
1285
100
AcDbEntity
  8
11000_LEFT
370
    25
390
0
  6
CONTINUOUS
 62
     7
100
AcDbLine
 10
465.199997
 20
642.399995
 30
0.0
 11
469.0
 21
642.399995
 31
0.0
  0
LINE
  5
1286
100
AcDbEntity
  8
11000_LEFT
370
    25
390
0
  6
CONTINUOUS
 62
     7
100
AcDbLine
 10
535.0
 20
643.499995
 30
0.0
 11
594.499985
 21
643.499995
 31
0.0
  0
LINE
  5
1287
100
AcDbEntity
  8
11000_LEFT
370
    25
390
0
  6
CONTINUOUS
 62
     7
100
AcDbLine
 10
496.300003
 20
643.499995
 30
0.0
 11
508.0
 21
643.499995
 31
0.0
  0
LINE
  5
1288
100
AcDbEntity
  8
11000_LEFT
370
    25
390
0
  6
CONTINUOUS
 62
     7
100
AcDbLine
 10
465.199997
 20
644.249995
 30
0.0
 11
466.75
 21
644.249995
 31
0.0
  0
LINE
  5
1289
100
AcDbEntity
  8
11000_LEFT
370
    25
390
0
  6
CONTINUOUS
 62
     7
100
AcDbLine
 10
457.0
 20
644.249995
 30
0.0
 11
463.699997
 21
644.249995
 31
0.0
  0
LINE
  5
128A
100
AcDbEntity
  8
11000_LEFT
370
    25
390
0
  6
CONTINUOUS
 62
     7
100
AcDbLine
 10
470.199997
 20
647.999995
 30
0.0
 11
470.200012
 21
647.999995
 31
0.0
  0
LINE
  5
128B
100
AcDbEntity
  8
11000_LEFT
370
    25
390
0
  6
CONTINUOUS
 62
     7
100
AcDbLine
 10
465.199997
 20
650.749995
 30
0.0
 11
466.75
 21
650.749995
 31
0.0
  0
LINE
  5
128C
100
AcDbEntity
  8
11000_LEFT
370
    25
390
0
  6
CONTINUOUS
 62
     7
100
AcDbLine
 10
457.0
 20
650.749995
 30
0.0
 11
463.699997
 21
650.749995
 31
0.0
  0
LINE
  5
128D
100
AcDbEntity
  8
11000_LEFT
370
    25
390
0
  6
CONTINUOUS
 62
     7
100
AcDbLine
 10
535.0
 20
651.499995
 30
0.0
 11
594.499985
 21
651.499995
 31
0.0
  0
LINE
  5
128E
100
AcDbEntity
  8
11000_LEFT
370
    25
390
0
  6
CONTINUOUS
 62
     7
100
AcDbLine
 10
496.300003
 20
651.499995
 30
0.0
 11
508.0
 21
651.499995
 31
0.0
  0
LINE
  5
128F
100
AcDbEntity
  8
11000_LEFT
370
    25
390
0
  6
CONTINUOUS
 62
     7
100
AcDbLine
 10
457.0
 20
652.599995
 30
0.0
 11
463.699997
 21
652.599995
 31
0.0
  0
LINE
  5
1290
100
AcDbEntity
  8
11000_LEFT
370
    25
390
0
  6
CONTINUOUS
 62
     7
100
AcDbLine
 10
465.199997
 20
652.599995
 30
0.0
 11
469.0
 21
652.599995
 31
0.0
  0
LINE
  5
1291
100
AcDbEntity
  8
11000_LEFT
370
    25
390
0
  6
CONTINUOUS
 62
     7
100
AcDbLine
 10
594.499985
 20
653.499995
 30
0.0
 11
621.499985
 21
653.499995
 31
0.0
  0
LINE
  5
1292
100
AcDbEntity
  8
11000_LEFT
370
    25
390
0
  6
CONTINUOUS
 62
     7
100
AcDbLine
 10
508.0
 20
653.499995
 30
0.0
 11
535.0
 21
653.499995
 31
0.0
  0
LINE
  5
1293
100
AcDbEntity
  8
11000_LEFT
370
    25
390
0
  6
CONTINUOUS
 62
     7
100
AcDbLine
 10
472.199997
 20
653.999995
 30
0.0
 11
474.399994
 21
653.999995
 31
0.0
  0
LINE
  5
1294
100
AcDbEntity
  8
11000_LEFT
370
    25
390
0
  6
CONTINUOUS
 62
     7
100
AcDbLine
 10
476.800003
 20
654.499995
 30
0.0
 11
495.800003
 21
654.499995
 31
0.0
  0
LINE
  5
1295
100
AcDbEntity
  8
11000_LEFT
370
    25
390
0
  6
CONTINUOUS
 62
     7
100
AcDbLine
 10
463.699997
 20
654.963916
 30
0.0
 11
465.199997
 21
654.963916
 31
0.0
  0
LINE
  5
1296
100
AcDbEntity
  8
11000_LEFT
370
    25
390
0
  6
CONTINUOUS
 62
     7
100
AcDbLine
 10
469.0
 20
655.499995
 30
0.0
 11
470.199997
 21
655.499995
 31
0.0
  0
LINE
  5
1297
100
AcDbEntity
  8
11000_LEFT
370
    25
390
0
  6
CONTINUOUS
 62
     7
100
AcDbLine
 10
594.499985
 20
655.807123
 30
0.0
 11
621.499985
 21
655.807123
 31
0.0
  0
LINE
  5
1298
100
AcDbEntity
  8
11000_LEFT
370
    25
390
0
  6
CONTINUOUS
 62
     7
100
AcDbLine
 10
508.0
 20
655.807123
 30
0.0
 11
535.0
 21
655.807123
 31
0.0
  0
LINE
  5
1299
100
AcDbEntity
  8
11000_LEFT
370
    25
390
0
  6
CONTINUOUS
 62
     7
100
AcDbLine
 10
691.800003
 20
656.499995
 30
0.0
 11
707.800003
 21
656.499995
 31
0.0
  0
LINE
  5
129A
100
AcDbEntity
  8
11000_LEFT
370
    25
390
0
  6
CONTINUOUS
 62
     7
100
AcDbLine
 10
463.699997
 20
657.020992
 30
0.0
 11
465.199997
 21
657.020992
 31
0.0
  0
LINE
  5
129B
100
AcDbEntity
  8
11000_LEFT
370
    25
390
0
  6
CONTINUOUS
 62
     7
100
AcDbLine
 10
599.458542
 20
658.799995
 30
0.0
 11
607.541458
 21
658.799995
 31
0.0
  0
LINE
  5
129C
100
AcDbEntity
  8
11000_LEFT
370
    25
390
0
  6
CONTINUOUS
 62
     7
100
AcDbLine
 10
511.458542
 20
658.799995
 30
0.0
 11
513.479279
 21
658.799995
 31
0.0
  0
LINE
  5
129D
100
AcDbEntity
  8
11000_LEFT
370
    25
390
0
  6
CONTINUOUS
 62
     7
100
AcDbLine
 10
513.479279
 20
658.799995
 30
0.0
 11
517.520721
 21
658.799995
 31
0.0
  0
LINE
  5
129E
100
AcDbEntity
  8
11000_LEFT
370
    25
390
0
  6
CONTINUOUS
 62
     7
100
AcDbLine
 10
517.520721
 20
658.799995
 30
0.0
 11
519.541443
 21
658.799995
 31
0.0
  0
LINE
  5
129F
100
AcDbEntity
  8
11000_LEFT
370
    25
390
0
  6
CONTINUOUS
 62
     7
100
AcDbLine
 10
523.458542
 20
658.799995
 30
0.0
 11
525.479279
 21
658.799995
 31
0.0
  0
LINE
  5
12A0
100
AcDbEntity
  8
11000_LEFT
370
    25
390
0
  6
CONTINUOUS
 62
     7
100
AcDbLine
 10
525.479279
 20
658.799995
 30
0.0
 11
529.520721
 21
658.799995
 31
0.0
  0
LINE
  5
12A1
100
AcDbEntity
  8
11000_LEFT
370
    25
390
0
  6
CONTINUOUS
 62
     7
100
AcDbLine
 10
529.520721
 20
658.799995
 30
0.0
 11
531.541443
 21
658.799995
 31
0.0
  0
LINE
  5
12A2
100
AcDbEntity
  8
11000_LEFT
370
    25
390
0
  6
CONTINUOUS
 62
     7
100
AcDbLine
 10
474.399994
 20
659.399995
 30
0.0
 11
476.800003
 21
659.399995
 31
0.0
  0
LINE
  5
12A3
100
AcDbEntity
  8
11000_LEFT
370
    25
390
0
  6
CONTINUOUS
 62
     7
100
AcDbLine
 10
472.199997
 20
660.545251
 30
0.0
 11
473.199997
 21
660.545251
 31
0.0
  0
LINE
  5
12A4
100
AcDbEntity
  8
11000_LEFT
370
    25
390
0
  6
CONTINUOUS
 62
     7
100
AcDbLine
 10
463.699997
 20
661.379207
 30
0.0
 11
465.199997
 21
661.379207
 31
0.0
  0
LINE
  5
12A5
100
AcDbEntity
  8
11000_LEFT
370
    25
390
0
  6
CONTINUOUS
 62
     7
100
AcDbLine
 10
621.499985
 20
661.499995
 30
0.0
 11
629.12001
 21
661.499995
 31
0.0
  0
LINE
  5
12A6
100
AcDbEntity
  8
11000_LEFT
370
    25
390
0
  6
CONTINUOUS
 62
     7
100
AcDbLine
 10
599.458542
 20
661.799995
 30
0.0
 11
607.541458
 21
661.799995
 31
0.0
  0
LINE
  5
12A7
100
AcDbEntity
  8
11000_LEFT
370
    25
390
0
  6
CONTINUOUS
 62
     7
100
AcDbLine
 10
511.458542
 20
661.799995
 30
0.0
 11
513.479279
 21
661.799995
 31
0.0
  0
LINE
  5
12A8
100
AcDbEntity
  8
11000_LEFT
370
    25
390
0
  6
CONTINUOUS
 62
     7
100
AcDbLine
 10
513.479279
 20
661.799995
 30
0.0
 11
517.520721
 21
661.799995
 31
0.0
  0
LINE
  5
12A9
100
AcDbEntity
  8
11000_LEFT
370
    25
390
0
  6
CONTINUOUS
 62
     7
100
AcDbLine
 10
517.520721
 20
661.799995
 30
0.0
 11
519.541443
 21
661.799995
 31
0.0
  0
LINE
  5
12AA
100
AcDbEntity
  8
11000_LEFT
370
    25
390
0
  6
CONTINUOUS
 62
     7
100
AcDbLine
 10
523.458542
 20
661.799995
 30
0.0
 11
525.479279
 21
661.799995
 31
0.0
  0
LINE
  5
12AB
100
AcDbEntity
  8
11000_LEFT
370
    25
390
0
  6
CONTINUOUS
 62
     7
100
AcDbLine
 10
525.479279
 20
661.799995
 30
0.0
 11
529.520721
 21
661.799995
 31
0.0
  0
LINE
  5
12AC
100
AcDbEntity
  8
11000_LEFT
370
    25
390
0
  6
CONTINUOUS
 62
     7
100
AcDbLine
 10
529.520721
 20
661.799995
 30
0.0
 11
531.541443
 21
661.799995
 31
0.0
  0
LINE
  5
12AD
100
AcDbEntity
  8
11000_LEFT
370
    25
390
0
  6
CONTINUOUS
 62
     7
100
AcDbLine
 10
462.199997
 20
662.499995
 30
0.0
 11
463.700028
 21
662.499995
 31
0.0
  0
LINE
  5
12AE
100
AcDbEntity
  8
11000_LEFT
370
    25
390
0
  6
CONTINUOUS
 62
     7
100
AcDbLine
 10
465.200028
 20
662.499995
 30
0.0
 11
468.199997
 21
662.499995
 31
0.0
  0
LINE
  5
12AF
100
AcDbEntity
  8
11000_LEFT
370
    25
390
0
  6
CONTINUOUS
 62
     7
100
AcDbLine
 10
473.209992
 20
663.899995
 30
0.0
 11
474.199997
 21
663.899995
 31
0.0
  0
LINE
  5
12B0
100
AcDbEntity
  8
11000_LEFT
370
    25
390
0
  6
CONTINUOUS
 62
     7
100
AcDbLine
 10
463.699997
 20
664.619134
 30
0.0
 11
465.199997
 21
664.619134
 31
0.0
  0
LINE
  5
12B1
100
AcDbEntity
  8
11000_LEFT
370
    25
390
0
  6
CONTINUOUS
 62
     7
100
AcDbLine
 10
473.209992
 20
665.099995
 30
0.0
 11
474.199997
 21
665.099995
 31
0.0
  0
LINE
  5
12B2
100
AcDbEntity
  8
11000_LEFT
370
    25
390
0
  6
CONTINUOUS
 62
     7
100
AcDbLine
 10
463.699997
 20
665.724551
 30
0.0
 11
465.199997
 21
665.724551
 31
0.0
  0
LINE
  5
12B3
100
AcDbEntity
  8
11000_LEFT
370
    25
390
0
  6
CONTINUOUS
 62
     7
100
AcDbLine
 10
465.200043
 20
666.499995
 30
0.0
 11
468.199997
 21
666.499995
 31
0.0
  0
LINE
  5
12B4
100
AcDbEntity
  8
11000_LEFT
370
    25
390
0
  6
CONTINUOUS
 62
     7
100
AcDbLine
 10
462.199997
 20
666.499995
 30
0.0
 11
463.700043
 21
666.499995
 31
0.0
  0
LINE
  5
12B5
100
AcDbEntity
  8
11000_LEFT
370
    25
390
0
  6
CONTINUOUS
 62
     7
100
AcDbLine
 10
470.199997
 20
666.999995
 30
0.0
 11
472.199997
 21
666.999995
 31
0.0
  0
LINE
  5
12B6
100
AcDbEntity
  8
11000_LEFT
370
    25
390
0
  6
CONTINUOUS
 62
     7
100
AcDbLine
 10
472.199997
 20
668.454739
 30
0.0
 11
473.199997
 21
668.454739
 31
0.0
  0
LINE
  5
12B7
100
AcDbEntity
  8
11000_LEFT
370
    25
390
0
  6
CONTINUOUS
 62
     7
100
AcDbLine
 10
468.199997
 20
670.999995
 30
0.0
 11
470.199997
 21
670.999995
 31
0.0
  0
LINE
  5
12B8
100
AcDbEntity
  8
11000_LEFT
370
    25
390
0
  6
CONTINUOUS
 62
     7
100
AcDbLine
 10
463.699997
 20
671.425547
 30
0.0
 11
465.199997
 21
671.425547
 31
0.0
  0
LINE
  5
12B9
100
AcDbEntity
  8
11000_LEFT
370
    25
390
0
  6
CONTINUOUS
 62
     7
100
AcDbLine
 10
438.199997
 20
672.499995
 30
0.0
 11
450.199997
 21
672.499995
 31
0.0
  0
LINE
  5
12BA
100
AcDbEntity
  8
11000_LEFT
370
    25
390
0
  6
CONTINUOUS
 62
     7
100
AcDbLine
 10
468.199997
 20
673.499995
 30
0.0
 11
470.199997
 21
673.499995
 31
0.0
  0
LINE
  5
12BB
100
AcDbEntity
  8
11000_LEFT
370
    25
390
0
  6
CONTINUOUS
 62
     7
100
AcDbLine
 10
662.800003
 20
674.999995
 30
0.0
 11
671.860397
 21
674.999995
 31
0.0
  0
LINE
  5
12BC
100
AcDbEntity
  8
11000_LEFT
370
    25
390
0
  6
CONTINUOUS
 62
     7
100
AcDbLine
 10
463.699997
 20
677.499995
 30
0.0
 11
465.199997
 21
677.499995
 31
0.0
  0
LINE
  5
12BD
100
AcDbEntity
  8
11000_LEFT
370
    25
390
0
  6
CONTINUOUS
 62
     7
100
AcDbLine
 10
470.199997
 20
679.999995
 30
0.0
 11
472.199997
 21
679.999995
 31
0.0
  0
LINE
  5
12BE
100
AcDbEntity
  8
11000_LEFT
370
    25
390
0
  6
CONTINUOUS
 62
     7
100
AcDbLine
 10
649.800003
 20
684.999995
 30
0.0
 11
662.800003
 21
684.999995
 31
0.0
  0
LINE
  5
12BF
100
AcDbEntity
  8
11000_LEFT
370
    25
390
0
  6
CONTINUOUS
 62
     7
100
AcDbLine
 10
470.199997
 20
689.999995
 30
0.0
 11
472.199997
 21
689.999995
 31
0.0
  0
LINE
  5
12C0
100
AcDbEntity
  8
11000_LEFT
370
    25
390
0
  6
CONTINUOUS
 62
     7
100
AcDbLine
 10
311.199997
 20
725.499995
 30
0.0
 11
311.200039
 21
725.499995
 31
0.0
  0
LINE
  5
12C1
100
AcDbEntity
  8
11000_LEFT
370
    25
390
0
  6
CONTINUOUS
 62
     7
100
AcDbLine
 10
311.199997
 20
732.499995
 30
0.0
 11
425.199997
 21
732.499995
 31
0.0
  0
LINE
  5
12C2
100
AcDbEntity
  8
11000_LEFT
370
    25
390
0
  6
CONTINUOUS
 62
     7
100
AcDbLine
 10
691.13414
 20
638.488876
 30
0.0
 11
691.800003
 21
638.499995
 31
0.0
  0
LINE
  5
12C3
100
AcDbEntity
  8
11000_LEFT
370
    25
390
0
  6
CONTINUOUS
 62
     7
100
AcDbLine
 10
690.461258
 20
638.455026
 30
0.0
 11
691.13414
 21
638.488876
 31
0.0
  0
LINE
  5
12C4
100
AcDbEntity
  8
11000_LEFT
370
    25
390
0
  6
CONTINUOUS
 62
     7
100
AcDbLine
 10
689.783341
 20
638.398009
 30
0.0
 11
690.461258
 21
638.455026
 31
0.0
  0
LINE
  5
12C5
100
AcDbEntity
  8
11000_LEFT
370
    25
390
0
  6
CONTINUOUS
 62
     7
100
AcDbLine
 10
689.10231
 20
638.317388
 30
0.0
 11
689.783341
 21
638.398009
 31
0.0
  0
LINE
  5
12C6
100
AcDbEntity
  8
11000_LEFT
370
    25
390
0
  6
CONTINUOUS
 62
     7
100
AcDbLine
 10
688.42009
 20
638.212726
 30
0.0
 11
689.10231
 21
638.317388
 31
0.0
  0
LINE
  5
12C7
100
AcDbEntity
  8
11000_LEFT
370
    25
390
0
  6
CONTINUOUS
 62
     7
100
AcDbLine
 10
687.738663
 20
638.083661
 30
0.0
 11
688.42009
 21
638.212726
 31
0.0
  0
LINE
  5
12C8
100
AcDbEntity
  8
11000_LEFT
370
    25
390
0
  6
CONTINUOUS
 62
     7
100
AcDbLine
 10
687.05983
 20
637.93038
 30
0.0
 11
687.738663
 21
638.083661
 31
0.0
  0
LINE
  5
12C9
100
AcDbEntity
  8
11000_LEFT
370
    25
390
0
  6
CONTINUOUS
 62
     7
100
AcDbLine
 10
686.385391
 20
637.753314
 30
0.0
 11
687.05983
 21
637.93038
 31
0.0
  0
LINE
  5
12CA
100
AcDbEntity
  8
11000_LEFT
370
    25
390
0
  6
CONTINUOUS
 62
     7
100
AcDbLine
 10
685.717178
 20
637.552896
 30
0.0
 11
686.385391
 21
637.753314
 31
0.0
  0
LINE
  5
12CB
100
AcDbEntity
  8
11000_LEFT
370
    25
390
0
  6
CONTINUOUS
 62
     7
100
AcDbLine
 10
685.056931
 20
637.32956
 30
0.0
 11
685.717178
 21
637.552896
 31
0.0
  0
LINE
  5
12CC
100
AcDbEntity
  8
11000_LEFT
370
    25
390
0
  6
CONTINUOUS
 62
     7
100
AcDbLine
 10
684.406418
 20
637.083735
 30
0.0
 11
685.056931
 21
637.32956
 31
0.0
  0
LINE
  5
12CD
100
AcDbEntity
  8
11000_LEFT
370
    25
390
0
  6
CONTINUOUS
 62
     7
100
AcDbLine
 10
683.766953
 20
636.816184
 30
0.0
 11
684.406418
 21
637.083735
 31
0.0
  0
LINE
  5
12CE
100
AcDbEntity
  8
11000_LEFT
370
    25
390
0
  6
CONTINUOUS
 62
     7
100
AcDbLine
 10
683.139999
 20
636.528107
 30
0.0
 11
683.766953
 21
636.816184
 31
0.0
  0
LINE
  5
12CF
100
AcDbEntity
  8
11000_LEFT
370
    25
390
0
  6
CONTINUOUS
 62
     7
100
AcDbLine
 10
425.199997
 20
562.499995
 30
0.0
 11
472.199997
 21
584.999995
 31
0.0
  0
LINE
  5
12D0
100
AcDbEntity
  8
11000_LEFT
370
    25
390
0
  6
CONTINUOUS
 62
     7
100
AcDbLine
 10
682.527084
 20
636.220727
 30
0.0
 11
683.139999
 21
636.528107
 31
0.0
  0
LINE
  5
12D1
100
AcDbEntity
  8
11000_LEFT
370
    25
390
0
  6
CONTINUOUS
 62
     7
100
AcDbLine
 10
681.929764
 20
635.895267
 30
0.0
 11
682.527084
 21
636.220727
 31
0.0
  0
LINE
  5
12D2
100
AcDbEntity
  8
11000_LEFT
370
    25
390
0
  6
CONTINUOUS
 62
     7
100
AcDbLine
 10
681.349472
 20
635.552974
 30
0.0
 11
681.929764
 21
635.895267
 31
0.0
  0
LINE
  5
12D3
100
AcDbEntity
  8
11000_LEFT
370
    25
390
0
  6
CONTINUOUS
 62
     7
100
AcDbLine
 10
680.78746
 20
635.195469
 30
0.0
 11
681.349472
 21
635.552974
 31
0.0
  0
LINE
  5
12D4
100
AcDbEntity
  8
11000_LEFT
370
    25
390
0
  6
CONTINUOUS
 62
     7
100
AcDbLine
 10
680.244827
 20
634.824544
 30
0.0
 11
680.78746
 21
635.195469
 31
0.0
  0
LINE
  5
12D5
100
AcDbEntity
  8
11000_LEFT
370
    25
390
0
  6
CONTINUOUS
 62
     7
100
AcDbLine
 10
679.722641
 20
634.441999
 30
0.0
 11
680.244827
 21
634.824544
 31
0.0
  0
LINE
  5
12D6
100
AcDbEntity
  8
11000_LEFT
370
    25
390
0
  6
CONTINUOUS
 62
     7
100
AcDbLine
 10
679.221848
 20
634.049811
 30
0.0
 11
679.722641
 21
634.441999
 31
0.0
  0
LINE
  5
12D7
100
AcDbEntity
  8
11000_LEFT
370
    25
390
0
  6
CONTINUOUS
 62
     7
100
AcDbLine
 10
629.12001
 20
633.499995
 30
0.0
 11
645.499985
 21
646.694991
 31
0.0
  0
LINE
  5
12D8
100
AcDbEntity
  8
11000_LEFT
370
    25
390
0
  6
CONTINUOUS
 62
     7
100
AcDbLine
 10
678.742874
 20
633.649753
 30
0.0
 11
679.221848
 21
634.049811
 31
0.0
  0
LINE
  5
12D9
100
AcDbEntity
  8
11000_LEFT
370
    25
390
0
  6
CONTINUOUS
 62
     7
100
AcDbLine
 10
678.275131
 20
633.233439
 30
0.0
 11
678.742874
 21
633.649753
 31
0.0
  0
LINE
  5
12DA
100
AcDbEntity
  8
11000_LEFT
370
    25
390
0
  6
CONTINUOUS
 62
     7
100
AcDbLine
 10
677.815842
 20
632.798106
 30
0.0
 11
678.275131
 21
633.233439
 31
0.0
  0
LINE
  5
12DB
100
AcDbEntity
  8
11000_LEFT
370
    25
390
0
  6
CONTINUOUS
 62
     7
100
AcDbLine
 10
495.800003
 20
640.499995
 30
0.0
 11
496.300003
 21
640.999995
 31
0.0
  0
LINE
  5
12DC
100
AcDbEntity
  8
11000_LEFT
370
    25
390
0
  6
CONTINUOUS
 62
     7
100
AcDbLine
 10
677.368515
 20
632.346467
 30
0.0
 11
677.815842
 21
632.798106
 31
0.0
  0
LINE
  5
12DD
100
AcDbEntity
  8
11000_LEFT
370
    25
390
0
  6
CONTINUOUS
 62
     7
100
AcDbLine
 10
676.936539
 20
631.881401
 30
0.0
 11
677.368515
 21
632.346467
 31
0.0
  0
LINE
  5
12DE
100
AcDbEntity
  8
11000_LEFT
370
    25
390
0
  6
CONTINUOUS
 62
     7
100
AcDbLine
 10
676.522293
 20
631.406235
 30
0.0
 11
676.936539
 21
631.881401
 31
0.0
  0
LINE
  5
12DF
100
AcDbEntity
  8
11000_LEFT
370
    25
390
0
  6
CONTINUOUS
 62
     7
100
AcDbLine
 10
676.127945
 20
630.924371
 30
0.0
 11
676.522293
 21
631.406235
 31
0.0
  0
LINE
  5
12E0
100
AcDbEntity
  8
11000_LEFT
370
    25
390
0
  6
CONTINUOUS
 62
     7
100
AcDbLine
 10
675.755447
 20
630.439164
 30
0.0
 11
676.127945
 21
630.924371
 31
0.0
  0
LINE
  5
12E1
100
AcDbEntity
  8
11000_LEFT
370
    25
390
0
  6
CONTINUOUS
 62
     7
100
AcDbLine
 10
675.405808
 20
629.954026
 30
0.0
 11
675.755447
 21
630.439164
 31
0.0
  0
LINE
  5
12E2
100
AcDbEntity
  8
11000_LEFT
370
    25
390
0
  6
CONTINUOUS
 62
     7
100
AcDbLine
 10
675.079758
 20
629.472493
 30
0.0
 11
675.405808
 21
629.954026
 31
0.0
  0
LINE
  5
12E3
100
AcDbEntity
  8
11000_LEFT
370
    25
390
0
  6
CONTINUOUS
 62
     7
100
AcDbLine
 10
674.778061
 20
628.998097
 30
0.0
 11
675.079758
 21
629.472493
 31
0.0
  0
LINE
  5
12E4
100
AcDbEntity
  8
11000_LEFT
370
    25
390
0
  6
CONTINUOUS
 62
     7
100
AcDbLine
 10
674.500717
 20
628.534177
 30
0.0
 11
674.778061
 21
628.998097
 31
0.0
  0
LINE
  5
12E5
100
AcDbEntity
  8
11000_LEFT
370
    25
390
0
  6
CONTINUOUS
 62
     7
100
AcDbLine
 10
674.24736
 20
628.083895
 30
0.0
 11
674.500717
 21
628.534177
 31
0.0
  0
LINE
  5
12E6
100
AcDbEntity
  8
11000_LEFT
370
    25
390
0
  6
CONTINUOUS
 62
     7
100
AcDbLine
 10
674.016464
 20
627.648059
 30
0.0
 11
674.24736
 21
628.083895
 31
0.0
  0
LINE
  5
12E7
100
AcDbEntity
  8
11000_LEFT
370
    25
390
0
  6
CONTINUOUS
 62
     7
100
AcDbLine
 10
673.801834
 20
627.217871
 30
0.0
 11
674.016464
 21
627.648059
 31
0.0
  0
LINE
  5
12E8
100
AcDbEntity
  8
11000_LEFT
370
    25
390
0
  6
CONTINUOUS
 62
     7
100
AcDbLine
 10
673.60231
 20
626.793011
 30
0.0
 11
673.801834
 21
627.217871
 31
0.0
  0
LINE
  5
12E9
100
AcDbEntity
  8
11000_LEFT
370
    25
390
0
  6
CONTINUOUS
 62
     7
100
AcDbLine
 10
673.417465
 20
626.374501
 30
0.0
 11
673.60231
 21
626.793011
 31
0.0
  0
LINE
  5
12EA
100
AcDbEntity
  8
11000_LEFT
370
    25
390
0
  6
CONTINUOUS
 62
     7
100
AcDbLine
 10
673.246872
 20
625.963359
 30
0.0
 11
673.417465
 21
626.374501
 31
0.0
  0
LINE
  5
12EB
100
AcDbEntity
  8
11000_LEFT
370
    25
390
0
  6
CONTINUOUS
 62
     7
100
AcDbLine
 10
673.090012
 20
625.560523
 30
0.0
 11
673.246872
 21
625.963359
 31
0.0
  0
LINE
  5
12EC
100
AcDbEntity
  8
11000_LEFT
370
    25
390
0
  6
CONTINUOUS
 62
     7
100
AcDbLine
 10
672.946304
 20
625.166873
 30
0.0
 11
673.090012
 21
625.560523
 31
0.0
  0
LINE
  5
12ED
100
AcDbEntity
  8
11000_LEFT
370
    25
390
0
  6
CONTINUOUS
 62
     7
100
AcDbLine
 10
672.81514
 20
624.783282
 30
0.0
 11
672.946304
 21
625.166873
 31
0.0
  0
LINE
  5
12EE
100
AcDbEntity
  8
11000_LEFT
370
    25
390
0
  6
CONTINUOUS
 62
     7
100
AcDbLine
 10
672.695969
 20
624.410609
 30
0.0
 11
672.81514
 21
624.783282
 31
0.0
  0
LINE
  5
12EF
100
AcDbEntity
  8
11000_LEFT
370
    25
390
0
  6
CONTINUOUS
 62
     7
100
AcDbLine
 10
672.58812
 20
624.049596
 30
0.0
 11
672.695969
 21
624.410609
 31
0.0
  0
LINE
  5
12F0
100
AcDbEntity
  8
11000_LEFT
370
    25
390
0
  6
CONTINUOUS
 62
     7
100
AcDbLine
 10
672.490921
 20
623.700932
 30
0.0
 11
672.58812
 21
624.049596
 31
0.0
  0
LINE
  5
12F1
100
AcDbEntity
  8
11000_LEFT
370
    25
390
0
  6
CONTINUOUS
 62
     7
100
AcDbLine
 10
672.403763
 20
623.365313
 30
0.0
 11
672.490921
 21
623.700932
 31
0.0
  0
LINE
  5
12F2
100
AcDbEntity
  8
11000_LEFT
370
    25
390
0
  6
CONTINUOUS
 62
     7
100
AcDbLine
 10
672.325943
 20
623.04342
 30
0.0
 11
672.403763
 21
623.365313
 31
0.0
  0
LINE
  5
12F3
100
AcDbEntity
  8
11000_LEFT
370
    25
390
0
  6
CONTINUOUS
 62
     7
100
AcDbLine
 10
672.256851
 20
622.735814
 30
0.0
 11
672.325943
 21
623.04342
 31
0.0
  0
LINE
  5
12F4
100
AcDbEntity
  8
11000_LEFT
370
    25
390
0
  6
CONTINUOUS
 62
     7
100
AcDbLine
 10
672.195786
 20
622.442992
 30
0.0
 11
672.256851
 21
622.735814
 31
0.0
  0
LINE
  5
12F5
100
AcDbEntity
  8
11000_LEFT
370
    25
390
0
  6
CONTINUOUS
 62
     7
100
AcDbLine
 10
672.142105
 20
622.165456
 30
0.0
 11
672.195786
 21
622.442992
 31
0.0
  0
LINE
  5
12F6
100
AcDbEntity
  8
11000_LEFT
370
    25
390
0
  6
CONTINUOUS
 62
     7
100
AcDbLine
 10
672.095169
 20
621.90364
 30
0.0
 11
672.142105
 21
622.165456
 31
0.0
  0
LINE
  5
12F7
100
AcDbEntity
  8
11000_LEFT
370
    25
390
0
  6
CONTINUOUS
 62
     7
100
AcDbLine
 10
672.054367
 20
621.657822
 30
0.0
 11
672.095169
 21
621.90364
 31
0.0
  0
LINE
  5
12F8
100
AcDbEntity
  8
11000_LEFT
370
    25
390
0
  6
CONTINUOUS
 62
     7
100
AcDbLine
 10
672.019119
 20
621.428315
 30
0.0
 11
672.054367
 21
621.657822
 31
0.0
  0
LINE
  5
12F9
100
AcDbEntity
  8
11000_LEFT
370
    25
390
0
  6
CONTINUOUS
 62
     7
100
AcDbLine
 10
671.988846
 20
621.215438
 30
0.0
 11
672.019119
 21
621.428315
 31
0.0
  0
LINE
  5
12FA
100
AcDbEntity
  8
11000_LEFT
370
    25
390
0
  6
CONTINUOUS
 62
     7
100
AcDbLine
 10
671.963028
 20
621.019486
 30
0.0
 11
671.988846
 21
621.215438
 31
0.0
  0
LINE
  5
12FB
100
AcDbEntity
  8
11000_LEFT
370
    25
390
0
  6
CONTINUOUS
 62
     7
100
AcDbLine
 10
671.941208
 20
620.84063
 30
0.0
 11
671.963028
 21
621.019486
 31
0.0
  0
LINE
  5
12FC
100
AcDbEntity
  8
11000_LEFT
370
    25
390
0
  6
CONTINUOUS
 62
     7
100
AcDbLine
 10
671.922867
 20
620.678992
 30
0.0
 11
671.941208
 21
620.84063
 31
0.0
  0
LINE
  5
12FD
100
AcDbEntity
  8
11000_LEFT
370
    25
390
0
  6
CONTINUOUS
 62
     7
100
AcDbLine
 10
671.907669
 20
620.53469
 30
0.0
 11
671.922867
 21
620.678992
 31
0.0
  0
LINE
  5
12FE
100
AcDbEntity
  8
11000_LEFT
370
    25
390
0
  6
CONTINUOUS
 62
     7
100
AcDbLine
 10
671.895126
 20
620.407817
 30
0.0
 11
671.907669
 21
620.53469
 31
0.0
  0
LINE
  5
12FF
100
AcDbEntity
  8
11000_LEFT
370
    25
390
0
  6
CONTINUOUS
 62
     7
100
AcDbLine
 10
671.884964
 20
620.298335
 30
0.0
 11
671.895126
 21
620.407817
 31
0.0
  0
LINE
  5
1300
100
AcDbEntity
  8
11000_LEFT
370
    25
390
0
  6
CONTINUOUS
 62
     7
100
AcDbLine
 10
671.876907
 20
620.206162
 30
0.0
 11
671.884964
 21
620.298335
 31
0.0
  0
LINE
  5
1301
100
AcDbEntity
  8
11000_LEFT
370
    25
390
0
  6
CONTINUOUS
 62
     7
100
AcDbLine
 10
671.870651
 20
620.131221
 30
0.0
 11
671.876907
 21
620.206162
 31
0.0
  0
LINE
  5
1302
100
AcDbEntity
  8
11000_LEFT
370
    25
390
0
  6
CONTINUOUS
 62
     7
100
AcDbLine
 10
671.866013
 20
620.073399
 30
0.0
 11
671.870651
 21
620.131221
 31
0.0
  0
LINE
  5
1303
100
AcDbEntity
  8
11000_LEFT
370
    25
390
0
  6
CONTINUOUS
 62
     7
100
AcDbLine
 10
671.862839
 20
620.032449
 30
0.0
 11
671.866013
 21
620.073399
 31
0.0
  0
LINE
  5
1304
100
AcDbEntity
  8
11000_LEFT
370
    25
390
0
  6
CONTINUOUS
 62
     7
100
AcDbLine
 10
671.860397
 20
619.999995
 30
0.0
 11
671.861008
 21
620.008078
 31
0.0
  0
LINE
  5
1305
100
AcDbEntity
  8
11000_LEFT
370
    25
390
0
  6
CONTINUOUS
 62
     7
100
AcDbLine
 10
671.861008
 20
620.008078
 30
0.0
 11
671.862839
 21
620.032449
 31
0.0
  0
LINE
  5
1306
100
AcDbEntity
  8
11000_LEFT
370
    25
390
0
  6
CONTINUOUS
 62
     7
100
AcDbLine
 10
311.199997
 20
562.499995
 30
0.0
 11
311.199997
 21
732.499995
 31
0.0
  0
LINE
  5
1307
100
AcDbEntity
  8
11000_LEFT
370
    25
390
0
  6
CONTINUOUS
 62
     7
100
AcDbLine
 10
313.199997
 20
562.499995
 30
0.0
 11
313.199997
 21
732.499995
 31
0.0
  0
LINE
  5
1308
100
AcDbEntity
  8
11000_LEFT
370
    25
390
0
  6
CONTINUOUS
 62
     7
100
AcDbLine
 10
438.199997
 20
622.499995
 30
0.0
 11
438.199997
 21
672.499995
 31
0.0
  0
LINE
  5
1309
100
AcDbEntity
  8
11000_LEFT
370
    25
390
0
  6
CONTINUOUS
 62
     7
100
AcDbLine
 10
449.199997
 20
622.499995
 30
0.0
 11
449.199997
 21
672.499995
 31
0.0
  0
LINE
  5
130A
100
AcDbEntity
  8
11000_LEFT
370
    25
390
0
  6
CONTINUOUS
 62
     7
100
AcDbLine
 10
450.199997
 20
622.499995
 30
0.0
 11
450.199997
 21
672.499995
 31
0.0
  0
LINE
  5
130B
100
AcDbEntity
  8
11000_LEFT
370
    25
390
0
  6
CONTINUOUS
 62
     7
100
AcDbLine
 10
457.0
 20
642.399995
 30
0.0
 11
457.0
 21
644.249995
 31
0.0
  0
LINE
  5
130C
100
AcDbEntity
  8
11000_LEFT
370
    25
390
0
  6
CONTINUOUS
 62
     7
100
AcDbLine
 10
457.0
 20
650.749995
 30
0.0
 11
457.0
 21
652.599995
 31
0.0
  0
LINE
  5
130D
100
AcDbEntity
  8
11000_LEFT
370
    25
390
0
  6
CONTINUOUS
 62
     7
100
AcDbLine
 10
462.199997
 20
628.499995
 30
0.0
 11
462.199997
 21
632.499995
 31
0.0
  0
LINE
  5
130E
100
AcDbEntity
  8
11000_LEFT
370
    25
390
0
  6
CONTINUOUS
 62
     7
100
AcDbLine
 10
462.199997
 20
662.499995
 30
0.0
 11
462.199997
 21
666.499995
 31
0.0
  0
LINE
  5
130F
100
AcDbEntity
  8
11000_LEFT
370
    25
390
0
  6
CONTINUOUS
 62
     7
100
AcDbLine
 10
463.699997
 20
636.600917
 30
0.0
 11
463.699997
 21
677.499995
 31
0.0
  0
LINE
  5
1310
100
AcDbEntity
  8
11000_LEFT
370
    25
390
0
  6
CONTINUOUS
 62
     7
100
AcDbLine
 10
465.199997
 20
636.600917
 30
0.0
 11
465.199997
 21
677.499995
 31
0.0
  0
LINE
  5
1311
100
AcDbEntity
  8
11000_LEFT
370
    25
390
0
  6
CONTINUOUS
 62
     7
100
AcDbLine
 10
466.75
 20
644.249995
 30
0.0
 11
466.75
 21
650.749995
 31
0.0
  0
LINE
  5
1312
100
AcDbEntity
  8
11000_LEFT
370
    25
390
0
  6
CONTINUOUS
 62
     7
100
AcDbLine
 10
468.199997
 20
652.600021
 30
0.0
 11
468.199997
 21
673.499995
 31
0.0
  0
LINE
  5
1313
100
AcDbEntity
  8
11000_LEFT
370
    25
390
0
  6
CONTINUOUS
 62
     7
100
AcDbLine
 10
468.199997
 20
624.999995
 30
0.0
 11
468.199997
 21
642.400021
 31
0.0
  0
LINE
  5
1314
100
AcDbEntity
  8
11000_LEFT
370
    25
390
0
  6
CONTINUOUS
 62
     7
100
AcDbLine
 10
468.199997
 20
621.499995
 30
0.0
 11
468.199997
 21
624.999995
 31
0.0
  0
LINE
  5
1315
100
AcDbEntity
  8
11000_LEFT
370
    25
390
0
  6
CONTINUOUS
 62
     7
100
AcDbLine
 10
469.0
 20
639.499995
 30
0.0
 11
469.0
 21
655.499995
 31
0.0
  0
LINE
  5
1316
100
AcDbEntity
  8
11000_LEFT
370
    25
390
0
  6
CONTINUOUS
 62
     7
100
AcDbLine
 10
470.199997
 20
604.999995
 30
0.0
 11
470.199997
 21
689.999995
 31
0.0
  0
LINE
  5
1317
100
AcDbEntity
  8
11000_LEFT
370
    25
390
0
  6
CONTINUOUS
 62
     7
100
AcDbLine
 10
472.199997
 20
584.999995
 30
0.0
 11
472.199997
 21
709.999995
 31
0.0
  0
LINE
  5
1318
100
AcDbEntity
  8
11000_LEFT
370
    25
390
0
  6
CONTINUOUS
 62
     7
100
AcDbLine
 10
472.300003
 20
611.599993
 30
0.0
 11
472.300003
 21
621.599995
 31
0.0
  0
LINE
  5
1319
100
AcDbEntity
  8
11000_LEFT
370
    25
390
0
  6
CONTINUOUS
 62
     7
100
AcDbLine
 10
473.199997
 20
660.545251
 30
0.0
 11
473.199997
 21
668.454739
 31
0.0
  0
LINE
  5
131A
100
AcDbEntity
  8
11000_LEFT
370
    25
390
0
  6
CONTINUOUS
 62
     7
100
AcDbLine
 10
473.199997
 20
626.545251
 30
0.0
 11
473.199997
 21
634.454739
 31
0.0
  0
LINE
  5
131B
100
AcDbEntity
  8
11000_LEFT
370
    25
390
0
  6
CONTINUOUS
 62
     7
100
AcDbLine
 10
473.209992
 20
663.899995
 30
0.0
 11
473.209992
 21
665.099995
 31
0.0
  0
LINE
  5
131C
100
AcDbEntity
  8
11000_LEFT
370
    25
390
0
  6
CONTINUOUS
 62
     7
100
AcDbLine
 10
473.209992
 20
629.899995
 30
0.0
 11
473.209992
 21
631.099995
 31
0.0
  0
LINE
  5
131D
100
AcDbEntity
  8
11000_LEFT
370
    25
390
0
  6
CONTINUOUS
 62
     7
100
AcDbLine
 10
474.199997
 20
665.099995
 30
0.0
 11
474.199997
 21
667.439339
 31
0.0
  0
LINE
  5
131E
100
AcDbEntity
  8
11000_LEFT
370
    25
390
0
  6
CONTINUOUS
 62
     7
100
AcDbLine
 10
474.199997
 20
661.56065
 30
0.0
 11
474.199997
 21
663.899995
 31
0.0
  0
LINE
  5
131F
100
AcDbEntity
  8
11000_LEFT
370
    25
390
0
  6
CONTINUOUS
 62
     7
100
AcDbLine
 10
474.199997
 20
631.099995
 30
0.0
 11
474.199997
 21
633.43934
 31
0.0
  0
LINE
  5
1320
100
AcDbEntity
  8
11000_LEFT
370
    25
390
0
  6
CONTINUOUS
 62
     7
100
AcDbLine
 10
474.199997
 20
627.560651
 30
0.0
 11
474.199997
 21
629.899995
 31
0.0
  0
LINE
  5
1321
100
AcDbEntity
  8
11000_LEFT
370
    25
390
0
  6
CONTINUOUS
 62
     7
100
AcDbLine
 10
474.399994
 20
635.599995
 30
0.0
 11
474.399994
 21
659.399995
 31
0.0
  0
LINE
  5
1322
100
AcDbEntity
  8
11000_LEFT
370
    25
390
0
  6
CONTINUOUS
 62
     7
100
AcDbLine
 10
476.800003
 20
635.599995
 30
0.0
 11
476.800003
 21
659.399995
 31
0.0
  0
LINE
  5
1323
100
AcDbEntity
  8
11000_LEFT
370
    25
390
0
  6
CONTINUOUS
 62
     7
100
AcDbLine
 10
495.800003
 20
640.499995
 30
0.0
 11
495.800003
 21
654.499995
 31
0.0
  0
LINE
  5
1324
100
AcDbEntity
  8
11000_LEFT
370
    25
390
0
  6
CONTINUOUS
 62
     7
100
AcDbLine
 10
496.300003
 20
640.999995
 30
0.0
 11
496.300003
 21
653.999995
 31
0.0
  0
LINE
  5
1325
100
AcDbEntity
  8
11000_LEFT
370
    25
390
0
  6
CONTINUOUS
 62
     7
100
AcDbLine
 10
508.0
 20
641.499995
 30
0.0
 11
508.0
 21
655.807123
 31
0.0
  0
LINE
  5
1326
100
AcDbEntity
  8
11000_LEFT
370
    25
390
0
  6
CONTINUOUS
 62
     7
100
AcDbLine
 10
511.458542
 20
658.799995
 30
0.0
 11
511.458542
 21
661.799995
 31
0.0
  0
LINE
  5
1327
100
AcDbEntity
  8
11000_LEFT
370
    25
390
0
  6
CONTINUOUS
 62
     7
100
AcDbLine
 10
513.479279
 20
658.799995
 30
0.0
 11
513.479279
 21
661.799995
 31
0.0
  0
LINE
  5
1328
100
AcDbEntity
  8
11000_LEFT
370
    25
390
0
  6
CONTINUOUS
 62
     7
100
AcDbLine
 10
513.5
 20
655.807123
 30
0.0
 11
513.5
 21
658.799995
 31
0.0
  0
LINE
  5
1329
100
AcDbEntity
  8
11000_LEFT
370
    25
390
0
  6
CONTINUOUS
 62
     7
100
AcDbLine
 10
517.5
 20
655.807123
 30
0.0
 11
517.5
 21
658.799995
 31
0.0
  0
LINE
  5
132A
100
AcDbEntity
  8
11000_LEFT
370
    25
390
0
  6
CONTINUOUS
 62
     7
100
AcDbLine
 10
517.520721
 20
658.799995
 30
0.0
 11
517.520721
 21
661.799995
 31
0.0
  0
LINE
  5
132B
100
AcDbEntity
  8
11000_LEFT
370
    25
390
0
  6
CONTINUOUS
 62
     7
100
AcDbLine
 10
519.541443
 20
658.799995
 30
0.0
 11
519.541443
 21
661.799995
 31
0.0
  0
LINE
  5
132C
100
AcDbEntity
  8
11000_LEFT
370
    25
390
0
  6
CONTINUOUS
 62
     7
100
AcDbLine
 10
523.458542
 20
658.799995
 30
0.0
 11
523.458542
 21
661.799995
 31
0.0
  0
LINE
  5
132D
100
AcDbEntity
  8
11000_LEFT
370
    25
390
0
  6
CONTINUOUS
 62
     7
100
AcDbLine
 10
525.479279
 20
658.799995
 30
0.0
 11
525.479279
 21
661.799995
 31
0.0
  0
LINE
  5
132E
100
AcDbEntity
  8
11000_LEFT
370
    25
390
0
  6
CONTINUOUS
 62
     7
100
AcDbLine
 10
525.5
 20
655.807123
 30
0.0
 11
525.5
 21
658.799995
 31
0.0
  0
LINE
  5
132F
100
AcDbEntity
  8
11000_LEFT
370
    25
390
0
  6
CONTINUOUS
 62
     7
100
AcDbLine
 10
529.5
 20
655.807123
 30
0.0
 11
529.5
 21
658.799995
 31
0.0
  0
LINE
  5
1330
100
AcDbEntity
  8
11000_LEFT
370
    25
390
0
  6
CONTINUOUS
 62
     7
100
AcDbLine
 10
529.520721
 20
658.799995
 30
0.0
 11
529.520721
 21
661.799995
 31
0.0
  0
LINE
  5
1331
100
AcDbEntity
  8
11000_LEFT
370
    25
390
0
  6
CONTINUOUS
 62
     7
100
AcDbLine
 10
531.541443
 20
658.799995
 30
0.0
 11
531.541443
 21
661.799995
 31
0.0
  0
LINE
  5
1332
100
AcDbEntity
  8
11000_LEFT
370
    25
390
0
  6
CONTINUOUS
 62
     7
100
AcDbLine
 10
535.0
 20
641.499995
 30
0.0
 11
535.0
 21
655.807123
 31
0.0
  0
LINE
  5
1333
100
AcDbEntity
  8
11000_LEFT
370
    25
390
0
  6
CONTINUOUS
 62
     7
100
AcDbLine
 10
594.499985
 20
641.499995
 30
0.0
 11
594.499985
 21
655.807123
 31
0.0
  0
LINE
  5
1334
100
AcDbEntity
  8
11000_LEFT
370
    25
390
0
  6
CONTINUOUS
 62
     7
100
AcDbLine
 10
599.458542
 20
658.799995
 30
0.0
 11
599.458542
 21
661.799995
 31
0.0
  0
LINE
  5
1335
100
AcDbEntity
  8
11000_LEFT
370
    25
390
0
  6
CONTINUOUS
 62
     7
100
AcDbLine
 10
601.479263
 20
658.799995
 30
0.0
 11
601.479263
 21
661.799995
 31
0.0
  0
LINE
  5
1336
100
AcDbEntity
  8
11000_LEFT
370
    25
390
0
  6
CONTINUOUS
 62
     7
100
AcDbLine
 10
601.499985
 20
655.807123
 30
0.0
 11
601.499985
 21
658.799995
 31
0.0
  0
LINE
  5
1337
100
AcDbEntity
  8
11000_LEFT
370
    25
390
0
  6
CONTINUOUS
 62
     7
100
AcDbLine
 10
605.499985
 20
655.807123
 30
0.0
 11
605.499985
 21
658.799995
 31
0.0
  0
LINE
  5
1338
100
AcDbEntity
  8
11000_LEFT
370
    25
390
0
  6
CONTINUOUS
 62
     7
100
AcDbLine
 10
605.520737
 20
658.799995
 30
0.0
 11
605.520737
 21
661.799995
 31
0.0
  0
LINE
  5
1339
100
AcDbEntity
  8
11000_LEFT
370
    25
390
0
  6
CONTINUOUS
 62
     7
100
AcDbLine
 10
607.541458
 20
658.799995
 30
0.0
 11
607.541458
 21
661.799995
 31
0.0
  0
LINE
  5
133A
100
AcDbEntity
  8
11000_LEFT
370
    25
390
0
  6
CONTINUOUS
 62
     7
100
AcDbLine
 10
621.499985
 20
633.499995
 30
0.0
 11
621.499985
 21
661.499995
 31
0.0
  0
LINE
  5
133B
100
AcDbEntity
  8
11000_LEFT
370
    25
390
0
  6
CONTINUOUS
 62
     7
100
AcDbLine
 10
629.12001
 20
633.499995
 30
0.0
 11
629.12001
 21
661.499995
 31
0.0
  0
LINE
  5
133C
100
AcDbEntity
  8
11000_LEFT
370
    25
390
0
  6
CONTINUOUS
 62
     7
100
AcDbLine
 10
645.499985
 20
646.694991
 30
0.0
 11
645.499985
 21
648.304999
 31
0.0
  0
LINE
  5
133D
100
AcDbEntity
  8
11000_LEFT
370
    25
390
0
  6
CONTINUOUS
 62
     7
100
AcDbLine
 10
649.800003
 20
609.999995
 30
0.0
 11
649.800003
 21
684.999995
 31
0.0
  0
LINE
  5
133E
100
AcDbEntity
  8
11000_LEFT
370
    25
390
0
  6
CONTINUOUS
 62
     7
100
AcDbLine
 10
662.800003
 20
609.999995
 30
0.0
 11
662.800003
 21
684.999995
 31
0.0
  0
LINE
  5
133F
100
AcDbEntity
  8
11000_LEFT
370
    25
390
0
  6
CONTINUOUS
 62
     7
100
AcDbLine
 10
707.800003
 20
638.499995
 30
0.0
 11
707.800003
 21
656.499995
 31
0.0
  0
ARC
  5
1340
100
AcDbEntity
  8
11000_LEFT
370
    25
390
0
  6
CONTINUOUS
 62
     7
100
AcDbCircle
 10
473.193716
 20
627.551553
 30
0.0
 40
1.006322
100
AcDbArc
 50
270.35759
 51
0.517982
  0
ARC
  5
1341
100
AcDbEntity
  8
11000_LEFT
370
    25
390
0
  6
CONTINUOUS
 62
     7
100
AcDbCircle
 10
473.193716
 20
633.448437
 30
0.0
 40
1.006322
100
AcDbArc
 50
359.482072
 51
89.64241
  0
ARC
  5
1342
100
AcDbEntity
  8
11000_LEFT
370
    25
390
0
  6
CONTINUOUS
 62
     7
100
AcDbCircle
 10
473.193716
 20
661.551553
 30
0.0
 40
1.006322
100
AcDbArc
 50
270.35759
 51
0.517928
  0
ARC
  5
1343
100
AcDbEntity
  8
11000_LEFT
370
    25
390
0
  6
CONTINUOUS
 62
     7
100
AcDbCircle
 10
473.193716
 20
667.448437
 30
0.0
 40
1.006322
100
AcDbArc
 50
359.482018
 51
89.64241
  0
LINE
  5
1344
100
AcDbEntity
  8
11100_LEFT_DIM
370
    13
390
0
  6
CONTINUOUS
 62
     7
100
AcDbLine
 10
311.199997
 20
732.500005
 30
0.0
 11
311.199997
 21
743.500005
 31
0.0
  0
LINE
  5
1345
100
AcDbEntity
  8
11100_LEFT_DIM
370
    13
390
0
  6
CONTINUOUS
 62
     7
100
AcDbLine
 10
645.499997
 20
743.500005
 30
0.0
 11
645.499997
 21
648.305005
 31
0.0
  0
LINE
  5
1346
100
AcDbEntity
  8
11100_LEFT_DIM
370
    13
390
0
  6
CONTINUOUS
 62
     7
100
AcDbLine
 10
311.199997
 20
742.500005
 30
0.0
 11
645.499997
 21
742.500005
 31
0.0
  0
TEXT
  5
1347
100
AcDbEntity
  8
11100_LEFT_DIM
370
    13
390
0
  6
CONTINUOUS
 62
     7
100
AcDbText
 10
474.349997
 20
743.500005
 30
0.0
 40
2.0
  1
334.3
 72
     1
 11
478.349997
 21
743.500005
 31
0.0
100
AcDbText
  0
SOLID
  5
1348
100
AcDbEntity
  8
11100_LEFT_DIM
370
    13
390
0
  6
CONTINUOUS
 62
     7
100
AcDbTrace
 10
315.199997
 20
743.026615
 30
0.0
 11
311.199997
 21
742.500005
 31
0.0
 12
315.199997
 22
741.973395
 32
0.0
 13
311.199997
 23
742.500005
 33
0.0
  0
SOLID
  5
1349
100
AcDbEntity
  8
11100_LEFT_DIM
370
    13
390
0
  6
CONTINUOUS
 62
     7
100
AcDbTrace
 10
641.499997
 20
741.973395
 30
0.0
 11
645.499997
 21
742.500005
 31
0.0
 12
641.499997
 22
743.026615
 32
0.0
 13
645.499997
 23
742.500005
 33
0.0
  0
LINE
  5
134A
100
AcDbEntity
  8
90000_FRAME
370
    13
  6
CONTINUOUS
 62
     7
100
AcDbLine
 10
19.999863
 20
19.999906
 30
0.0
 11
19.999863
 21
1167.999906
 31
0.0
  0
LINE
  5
134B
100
AcDbEntity
  8
91000_TIP
370
    13
  6
CONTINUOUS
 62
     7
100
AcDbLine
 10
145.517706
 20
84.84027
 30
0.0
 11
185.517706
 21
94.84027
 31
0.0
  0
LINE
  5
134C
100
AcDbEntity
  8
91000_TIP
370
    13
  6
CONTINUOUS
 62
     7
100
AcDbLine
 10
140.399665
 20
74.84027
 30
0.0
 11
234.807622
 21
74.84027
 31
0.0
  0
LINE
  5
134D
100
AcDbEntity
  8
91000_TIP
370
    13
  6
CONTINUOUS
 62
     7
100
AcDbLine
 10
145.517706
 20
64.84027
 30
0.0
 11
185.517706
 21
54.84027
 31
0.0
  0
LINE
  5
134E
100
AcDbEntity
  8
91000_TIP
370
    13
  6
CONTINUOUS
 62
     7
100
AcDbLine
 10
145.517706
 20
84.84027
 30
0.0
 11
145.517706
 21
64.84027
 31
0.0
  0
LINE
  5
134F
100
AcDbEntity
  8
91000_TIP
370
    13
  6
CONTINUOUS
 62
     7
100
AcDbLine
 10
185.517706
 20
94.84027
 30
0.0
 11
185.517706
 21
54.84027
 31
0.0
  0
LINE
  5
1350
100
AcDbEntity
  8
91000_TIP
370
    13
  6
CONTINUOUS
 62
     7
100
AcDbLine
 10
211.517705
 20
51.954345
 30
0.0
 11
211.517705
 21
97.087889
 31
0.0
  0
CIRCLE
  5
1351
100
AcDbEntity
  8
91000_TIP
370
    13
  6
CONTINUOUS
 62
     7
100
AcDbCircle
 10
211.517705
 20
74.84027
 30
0.0
 40
20.0
  0
CIRCLE
  5
1352
100
AcDbEntity
  8
91000_TIP
370
    13
  6
CONTINUOUS
 62
     7
100
AcDbCircle
 10
211.517705
 20
74.84027
 30
0.0
 40
10.0
  0
TEXT
  5
1353
100
AcDbEntity
  8
90000_FRAME
370
    13
  6
CONTINUOUS
 62
     7
100
AcDbText
 10
262.238025
 20
119.110722
 30
0.0
 40
8.8
  1
All dimensions are in millimeters (mm)
 41
0.961374
100
AcDbText
  0
TEXT
  5
1354
100
AcDbEntity
  8
90000_FRAME
370
    13
  6
CONTINUOUS
 62
     7
100
AcDbText
 10
262.238025
 20
131.626812
 30
0.0
 40
8.8
  1
Alle Bemassungswerte sind in Millimeter (mm) angegeben.
 41
0.825144
100
AcDbText
  0
LINE
  5
1355
100
AcDbEntity
  8
90000_FRAME
370
    13
  6
CONTINUOUS
 62
     7
100
AcDbLine
 10
819.999863
 20
19.999906
 30
0.0
 11
819.999863
 21
1167.999906
 31
0.0
  0
LINE
  5
1356
100
AcDbEntity
  8
90000_FRAME
370
    13
  6
CONTINUOUS
 62
     7
100
AcDbLine
 10
819.999863
 20
19.999906
 30
0.0
 11
19.999863
 21
19.999906
 31
0.0
  0
TEXT
  5
1357
100
AcDbEntity
  8
90000_FRAME
370
    13
  6
CONTINUOUS
 62
     7
100
AcDbText
 10
465.792196
 20
90.812473
 30
0.0
 40
12.0
  1
3RV2936-2C
 41
0.784213
100
AcDbText
  0
TEXT
  5
1358
100
AcDbEntity
  8
90000_FRAME
370
    13
  6
CONTINUOUS
 62
     7
100
AcDbText
 10
632.639863
 20
47.599906
 30
0.0
 40
8.8
  1
Massstab/Scale: 1:4
 41
0.9
100
AcDbText
  0
TEXT
  5
1359
100
AcDbEntity
  8
90000_FRAME
370
    13
  6
CONTINUOUS
 62
     7
100
AcDbText
 10
465.183575
 20
47.599906
 30
0.0
 40
8.8
  1
Format/Size: DIN A4
 41
0.803258
100
AcDbText
  0
LINE
  5
135A
100
AcDbEntity
  8
90000_FRAME
370
    13
  6
CONTINUOUS
 62
     7
100
AcDbLine
 10
799.999863
 20
39.999906
 30
0.0
 11
799.999863
 21
111.999906
 31
0.0
  0
LINE
  5
135B
100
AcDbEntity
  8
90000_FRAME
370
    13
  6
CONTINUOUS
 62
     7
100
AcDbLine
 10
629.999863
 20
39.999906
 30
0.0
 11
629.999863
 21
63.999906
 31
0.0
  0
LINE
  5
135C
100
AcDbEntity
  8
90000_FRAME
370
    13
  6
CONTINUOUS
 62
     7
100
AcDbLine
 10
459.999863
 20
39.999906
 30
0.0
 11
459.999863
 21
111.999906
 31
0.0
  0
LINE
  5
135D
100
AcDbEntity
  8
90000_FRAME
370
    13
  6
CONTINUOUS
 62
     7
100
AcDbLine
 10
259.999863
 20
111.999906
 30
0.0
 11
799.999863
 21
111.999906
 31
0.0
  0
LINE
  5
135E
100
AcDbEntity
  8
90000_FRAME
370
    13
  6
CONTINUOUS
 62
     7
100
AcDbLine
 10
459.999863
 20
63.999906
 30
0.0
 11
799.999863
 21
63.999906
 31
0.0
  0
LINE
  5
135F
100
AcDbEntity
  8
90000_FRAME
370
    13
  6
CONTINUOUS
 62
     7
100
AcDbLine
 10
259.999863
 20
39.999906
 30
0.0
 11
259.999863
 21
111.999906
 31
0.0
  0
LINE
  5
1360
100
AcDbEntity
  8
90000_FRAME
370
    13
  6
CONTINUOUS
 62
     7
100
AcDbLine
 10
259.999863
 20
39.999906
 30
0.0
 11
799.999863
 21
39.999906
 31
0.0
  0
LINE
  5
1361
100
AcDbEntity
  8
90000_FRAME
370
    13
  6
CONTINUOUS
 62
     7
100
AcDbLine
 10
316.744665
 20
85.658097
 30
0.0
 11
316.744665
 21
66.645021
 31
0.0
  0
LINE
  5
1362
100
AcDbEntity
  8
90000_FRAME
370
    13
  6
CONTINUOUS
 62
     7
100
AcDbLine
 10
322.448588
 20
85.658097
 30
0.0
 11
322.448588
 21
66.645021
 31
0.0
  0
LINE
  5
1363
100
AcDbEntity
  8
90000_FRAME
370
    13
  6
CONTINUOUS
 62
     7
100
AcDbLine
 10
316.744665
 20
66.645021
 30
0.0
 11
322.448588
 21
66.645021
 31
0.0
  0
LINE
  5
1364
100
AcDbEntity
  8
90000_FRAME
370
    13
  6
CONTINUOUS
 62
     7
100
AcDbLine
 10
316.744665
 20
85.658097
 30
0.0
 11
322.448588
 21
85.658097
 31
0.0
  0
LINE
  5
1365
100
AcDbEntity
  8
90000_FRAME
370
    13
  6
CONTINUOUS
 62
     7
100
AcDbLine
 10
326.821596
 20
85.658097
 30
0.0
 11
326.821596
 21
66.645021
 31
0.0
  0
LINE
  5
1366
100
AcDbEntity
  8
90000_FRAME
370
    13
  6
CONTINUOUS
 62
     7
100
AcDbLine
 10
326.821596
 20
66.645021
 30
0.0
 11
341.081403
 21
66.645021
 31
0.0
  0
LINE
  5
1367
100
AcDbEntity
  8
90000_FRAME
370
    13
  6
CONTINUOUS
 62
     7
100
AcDbLine
 10
341.081403
 20
70.257506
 30
0.0
 11
332.335388
 21
70.257506
 31
0.0
  0
LINE
  5
1368
100
AcDbEntity
  8
90000_FRAME
370
    13
  6
CONTINUOUS
 62
     7
100
AcDbLine
 10
341.081403
 20
70.257506
 30
0.0
 11
341.081403
 21
66.645021
 31
0.0
  0
LINE
  5
1369
100
AcDbEntity
  8
90000_FRAME
370
    13
  6
CONTINUOUS
 62
     7
100
AcDbLine
 10
340.891272
 20
85.658097
 30
0.0
 11
326.821596
 21
85.658097
 31
0.0
  0
LINE
  5
136A
100
AcDbEntity
  8
90000_FRAME
370
    13
  6
CONTINUOUS
 62
     7
100
AcDbLine
 10
340.891272
 20
82.140678
 30
0.0
 11
332.335388
 21
82.140678
 31
0.0
  0
LINE
  5
136B
100
AcDbEntity
  8
90000_FRAME
370
    13
  6
CONTINUOUS
 62
     7
100
AcDbLine
 10
340.891272
 20
85.658097
 30
0.0
 11
340.891272
 21
82.140678
 31
0.0
  0
LINE
  5
136C
100
AcDbEntity
  8
90000_FRAME
370
    13
  6
CONTINUOUS
 62
     7
100
AcDbLine
 10
339.750487
 20
74.725579
 30
0.0
 11
332.335388
 21
74.725579
 31
0.0
  0
LINE
  5
136D
100
AcDbEntity
  8
90000_FRAME
370
    13
  6
CONTINUOUS
 62
     7
100
AcDbLine
 10
339.750487
 20
77.862736
 30
0.0
 11
339.750487
 21
74.725579
 31
0.0
  0
LINE
  5
136E
100
AcDbEntity
  8
90000_FRAME
370
    13
  6
CONTINUOUS
 62
     7
100
AcDbLine
 10
339.750487
 20
77.862736
 30
0.0
 11
332.335388
 21
77.862736
 31
0.0
  0
LINE
  5
136F
100
AcDbEntity
  8
90000_FRAME
370
    13
  6
CONTINUOUS
 62
     7
100
AcDbLine
 10
332.335388
 20
82.140678
 30
0.0
 11
332.335388
 21
77.862736
 31
0.0
  0
LINE
  5
1370
100
AcDbEntity
  8
90000_FRAME
370
    13
  6
CONTINUOUS
 62
     7
100
AcDbLine
 10
332.335388
 20
74.725579
 30
0.0
 11
332.335388
 21
70.257506
 31
0.0
  0
LINE
  5
1371
100
AcDbEntity
  8
90000_FRAME
370
    13
  6
CONTINUOUS
 62
     7
100
AcDbLine
 10
344.313626
 20
66.645021
 30
0.0
 11
344.313626
 21
85.658097
 31
0.0
  0
LINE
  5
1372
100
AcDbEntity
  8
90000_FRAME
370
    13
  6
CONTINUOUS
 62
     7
100
AcDbLine
 10
344.313626
 20
66.645021
 30
0.0
 11
348.116241
 21
66.645021
 31
0.0
  0
LINE
  5
1373
100
AcDbEntity
  8
90000_FRAME
370
    13
  6
CONTINUOUS
 62
     7
100
AcDbLine
 10
367.69971
 20
85.658097
 30
0.0
 11
367.69971
 21
66.645021
 31
0.0
  0
LINE
  5
1374
100
AcDbEntity
  8
90000_FRAME
370
    13
  6
CONTINUOUS
 62
     7
100
AcDbLine
 10
367.69971
 20
66.645021
 30
0.0
 11
362.185918
 21
66.645021
 31
0.0
  0
LINE
  5
1375
100
AcDbEntity
  8
90000_FRAME
370
    13
  6
CONTINUOUS
 62
     7
100
AcDbLine
 10
353.439902
 20
66.45489
 30
0.0
 11
356.862256
 21
66.45489
 31
0.0
  0
LINE
  5
1376
100
AcDbEntity
  8
90000_FRAME
370
    13
  6
CONTINUOUS
 62
     7
100
AcDbLine
 10
353.439902
 20
66.45489
 30
0.0
 11
348.116241
 21
78.81339
 31
0.0
  0
LINE
  5
1377
100
AcDbEntity
  8
90000_FRAME
370
    13
  6
CONTINUOUS
 62
     7
100
AcDbLine
 10
348.116241
 20
66.645021
 30
0.0
 11
348.116241
 21
78.81339
 31
0.0
  0
LINE
  5
1378
100
AcDbEntity
  8
90000_FRAME
370
    13
  6
CONTINUOUS
 62
     7
100
AcDbLine
 10
362.185918
 20
79.003521
 30
0.0
 11
356.862256
 21
66.45489
 31
0.0
  0
LINE
  5
1379
100
AcDbEntity
  8
90000_FRAME
370
    13
  6
CONTINUOUS
 62
     7
100
AcDbLine
 10
351.158333
 20
85.658097
 30
0.0
 11
344.313626
 21
85.658097
 31
0.0
  0
LINE
  5
137A
100
AcDbEntity
  8
90000_FRAME
370
    13
  6
CONTINUOUS
 62
     7
100
AcDbLine
 10
367.69971
 20
85.658097
 30
0.0
 11
360.855002
 21
85.658097
 31
0.0
  0
LINE
  5
137B
100
AcDbEntity
  8
90000_FRAME
370
    13
  6
CONTINUOUS
 62
     7
100
AcDbLine
 10
351.158333
 20
85.658097
 30
0.0
 11
356.101733
 21
74.060121
 31
0.0
  0
LINE
  5
137C
100
AcDbEntity
  8
90000_FRAME
370
    13
  6
CONTINUOUS
 62
     7
100
AcDbLine
 10
360.855002
 20
85.658097
 30
0.0
 11
356.101733
 21
74.060121
 31
0.0
  0
LINE
  5
137D
100
AcDbEntity
  8
90000_FRAME
370
    13
  6
CONTINUOUS
 62
     7
100
AcDbLine
 10
362.185918
 20
79.003521
 30
0.0
 11
362.185918
 21
66.645021
 31
0.0
  0
LINE
  5
137E
100
AcDbEntity
  8
90000_FRAME
370
    13
  6
CONTINUOUS
 62
     7
100
AcDbLine
 10
372.072717
 20
85.658097
 30
0.0
 11
372.072717
 21
66.645021
 31
0.0
  0
LINE
  5
137F
100
AcDbEntity
  8
90000_FRAME
370
    13
  6
CONTINUOUS
 62
     7
100
AcDbLine
 10
372.072717
 20
66.645021
 30
0.0
 11
386.332524
 21
66.645021
 31
0.0
  0
LINE
  5
1380
100
AcDbEntity
  8
90000_FRAME
370
    13
  6
CONTINUOUS
 62
     7
100
AcDbLine
 10
386.332524
 20
70.257506
 30
0.0
 11
377.586509
 21
70.257506
 31
0.0
  0
LINE
  5
1381
100
AcDbEntity
  8
90000_FRAME
370
    13
  6
CONTINUOUS
 62
     7
100
AcDbLine
 10
386.332524
 20
70.257506
 30
0.0
 11
386.332524
 21
66.645021
 31
0.0
  0
LINE
  5
1382
100
AcDbEntity
  8
90000_FRAME
370
    13
  6
CONTINUOUS
 62
     7
100
AcDbLine
 10
386.142394
 20
85.658097
 30
0.0
 11
372.072717
 21
85.658097
 31
0.0
  0
LINE
  5
1383
100
AcDbEntity
  8
90000_FRAME
370
    13
  6
CONTINUOUS
 62
     7
100
AcDbLine
 10
386.142394
 20
82.140678
 30
0.0
 11
377.586509
 21
82.140678
 31
0.0
  0
LINE
  5
1384
100
AcDbEntity
  8
90000_FRAME
370
    13
  6
CONTINUOUS
 62
     7
100
AcDbLine
 10
386.142394
 20
85.658097
 30
0.0
 11
386.142394
 21
82.140678
 31
0.0
  0
LINE
  5
1385
100
AcDbEntity
  8
90000_FRAME
370
    13
  6
CONTINUOUS
 62
     7
100
AcDbLine
 10
385.001609
 20
74.725579
 30
0.0
 11
377.586509
 21
74.725579
 31
0.0
  0
LINE
  5
1386
100
AcDbEntity
  8
90000_FRAME
370
    13
  6
CONTINUOUS
 62
     7
100
AcDbLine
 10
385.001609
 20
77.862736
 30
0.0
 11
385.001609
 21
74.725579
 31
0.0
  0
LINE
  5
1387
100
AcDbEntity
  8
90000_FRAME
370
    13
  6
CONTINUOUS
 62
     7
100
AcDbLine
 10
385.001609
 20
77.862736
 30
0.0
 11
377.586509
 21
77.862736
 31
0.0
  0
LINE
  5
1388
100
AcDbEntity
  8
90000_FRAME
370
    13
  6
CONTINUOUS
 62
     7
100
AcDbLine
 10
377.586509
 20
82.140678
 30
0.0
 11
377.586509
 21
77.862736
 31
0.0
  0
LINE
  5
1389
100
AcDbEntity
  8
90000_FRAME
370
    13
  6
CONTINUOUS
 62
     7
100
AcDbLine
 10
377.586509
 20
74.725579
 30
0.0
 11
377.586509
 21
70.257506
 31
0.0
  0
LINE
  5
138A
100
AcDbEntity
  8
90000_FRAME
370
    13
  6
CONTINUOUS
 62
     7
100
AcDbLine
 10
389.469682
 20
66.645021
 30
0.0
 11
389.469682
 21
85.658097
 31
0.0
  0
LINE
  5
138B
100
AcDbEntity
  8
90000_FRAME
370
    13
  6
CONTINUOUS
 62
     7
100
AcDbLine
 10
406.201189
 20
85.658097
 30
0.0
 11
406.201189
 21
66.645021
 31
0.0
  0
LINE
  5
138C
100
AcDbEntity
  8
90000_FRAME
370
    13
  6
CONTINUOUS
 62
     7
100
AcDbLine
 10
389.469682
 20
66.645021
 30
0.0
 11
393.272297
 21
66.645021
 31
0.0
  0
LINE
  5
138D
100
AcDbEntity
  8
90000_FRAME
370
    13
  6
CONTINUOUS
 62
     7
100
AcDbLine
 10
406.201189
 20
85.658097
 30
0.0
 11
402.398574
 21
85.658097
 31
0.0
  0
LINE
  5
138E
100
AcDbEntity
  8
90000_FRAME
370
    13
  6
CONTINUOUS
 62
     7
100
AcDbLine
 10
395.648932
 20
85.658097
 30
0.0
 11
389.469682
 21
85.658097
 31
0.0
  0
LINE
  5
138F
100
AcDbEntity
  8
90000_FRAME
370
    13
  6
CONTINUOUS
 62
     7
100
AcDbLine
 10
406.201189
 20
66.645021
 30
0.0
 11
400.117005
 21
66.645021
 31
0.0
  0
LINE
  5
1390
100
AcDbEntity
  8
90000_FRAME
370
    13
  6
CONTINUOUS
 62
     7
100
AcDbLine
 10
400.117005
 20
66.645021
 30
0.0
 11
393.272297
 21
78.81339
 31
0.0
  0
LINE
  5
1391
100
AcDbEntity
  8
90000_FRAME
370
    13
  6
CONTINUOUS
 62
     7
100
AcDbLine
 10
395.648932
 20
85.658097
 30
0.0
 11
402.398574
 21
73.86999
 31
0.0
  0
LINE
  5
1392
100
AcDbEntity
  8
90000_FRAME
370
    13
  6
CONTINUOUS
 62
     7
100
AcDbLine
 10
402.398574
 20
85.658097
 30
0.0
 11
402.398574
 21
73.86999
 31
0.0
  0
LINE
  5
1393
100
AcDbEntity
  8
90000_FRAME
370
    13
  6
CONTINUOUS
 62
     7
100
AcDbLine
 10
393.272297
 20
66.645021
 30
0.0
 11
393.272297
 21
78.81339
 31
0.0
  0
LINE
  5
1394
100
AcDbEntity
  8
90000_FRAME
370
    13
  6
CONTINUOUS
 62
     7
100
AcDbLine
 10
409.433412
 20
67.025283
 30
0.0
 11
409.433412
 21
70.827898
 31
0.0
  0
LINE
  5
1395
100
AcDbEntity
  8
90000_FRAME
370
    13
  6
CONTINUOUS
 62
     7
100
AcDbLine
 10
422.742566
 20
81.665351
 30
0.0
 11
422.742566
 21
85.467967
 31
0.0
  0
ARC
  5
1396
100
AcDbEntity
  8
90000_FRAME
370
    13
  6
CONTINUOUS
 62
     7
100
AcDbCircle
 10
416.251977
 20
74.473655
 30
0.0
 40
4.446477
100
AcDbArc
 50
277.709996
 51
295.688493
  0
ARC
  5
1397
100
AcDbEntity
  8
90000_FRAME
370
    13
  6
CONTINUOUS
 62
     7
100
AcDbCircle
 10
417.389217
 20
71.574352
 30
0.0
 40
1.360676
100
AcDbArc
 50
305.503221
 51
72.46529
  0
ARC
  5
1398
100
AcDbEntity
  8
90000_FRAME
370
    13
  6
CONTINUOUS
 62
     7
100
AcDbCircle
 10
415.125241
 20
85.18118
 30
0.0
 40
19.027179
100
AcDbArc
 50
252.59392
 51
280.98166
  0
ARC
  5
1399
100
AcDbEntity
  8
90000_FRAME
370
    13
  6
CONTINUOUS
 62
     7
100
AcDbCircle
 10
416.944583
 20
74.709125
 30
0.0
 40
8.402906
100
AcDbArc
 50
282.405836
 51
311.864443
  0
ARC
  5
139A
100
AcDbEntity
  8
90000_FRAME
370
    13
  6
CONTINUOUS
 62
     7
100
AcDbCircle
 10
415.850325
 20
81.142492
 30
0.0
 40
1.211851
100
AcDbArc
 50
154.440035
 51
221.82017
  0
ARC
  5
139B
100
AcDbEntity
  8
90000_FRAME
370
    13
  6
CONTINUOUS
 62
     7
100
AcDbCircle
 10
416.16721
 20
80.825607
 30
0.0
 40
1.641236
100
AcDbArc
 50
102.828783
 51
149.225964
  0
ARC
  5
139C
100
AcDbEntity
  8
90000_FRAME
370
    13
  6
CONTINUOUS
 62
     7
100
AcDbCircle
 10
417.835317
 20
73.856266
 30
0.0
 40
8.807346
100
AcDbArc
 50
84.040006
 51
103.342766
  0
ARC
  5
139D
100
AcDbEntity
  8
90000_FRAME
370
    13
  6
CONTINUOUS
 62
     7
100
AcDbCircle
 10
416.471462
 20
64.18681
 30
0.0
 40
18.569495
100
AcDbArc
 50
70.262586
 51
82.952419
  0
ARC
  5
139E
100
AcDbEntity
  8
90000_FRAME
370
    13
  6
CONTINUOUS
 62
     7
100
AcDbCircle
 10
414.415389
 20
82.873302
 30
0.0
 40
13.035024
100
AcDbArc
 50
247.530021
 51
280.757952
  0
ARC
  5
139F
100
AcDbEntity
  8
90000_FRAME
370
    13
  6
CONTINUOUS
 62
     7
100
AcDbCircle
 10
388.875523
 20
9.867222
 30
0.0
 40
69.326434
100
AcDbArc
 50
65.341467
 51
67.399777
  0
ARC
  5
13A0
100
AcDbEntity
  8
90000_FRAME
370
    13
  6
CONTINUOUS
 62
     7
100
AcDbCircle
 10
432.058973
 20
113.036927
 30
0.0
 40
42.516657
100
AcDbArc
 50
242.86201
 51
247.104203
  0
ARC
  5
13A1
100
AcDbEntity
  8
90000_FRAME
370
    13
  6
CONTINUOUS
 62
     7
100
AcDbCircle
 10
416.639368
 20
82.901201
 30
0.0
 40
8.665167
100
AcDbArc
 50
227.311928
 51
242.704032
  0
ARC
  5
13A2
100
AcDbEntity
  8
90000_FRAME
370
    13
  6
CONTINUOUS
 62
     7
100
AcDbCircle
 10
414.223245
 20
80.078491
 30
0.0
 40
4.954087
100
AcDbArc
 50
194.795219
 51
225.717655
  0
ARC
  5
13A3
100
AcDbEntity
  8
90000_FRAME
370
    13
  6
CONTINUOUS
 62
     7
100
AcDbCircle
 10
414.471877
 20
80.239371
 30
0.0
 40
5.236368
100
AcDbArc
 50
164.197486
 51
195.802514
  0
ARC
  5
13A4
100
AcDbEntity
  8
90000_FRAME
370
    13
  6
CONTINUOUS
 62
     7
100
AcDbCircle
 10
416.699972
 20
76.686302
 30
0.0
 40
9.467699
100
AcDbArc
 50
86.221802
 51
120.42726
  0
ARC
  5
13A5
100
AcDbEntity
  8
90000_FRAME
370
    13
  6
CONTINUOUS
 62
     7
100
AcDbCircle
 10
415.624545
 20
49.901631
 30
0.0
 40
36.271621
100
AcDbArc
 50
78.682705
 51
87.31476
  0
ARC
  5
13A6
100
AcDbEntity
  8
90000_FRAME
370
    13
  6
CONTINUOUS
 62
     7
100
AcDbCircle
 10
413.800268
 20
80.669402
 30
0.0
 40
4.47899
100
AcDbArc
 50
142.813918
 51
167.152295
  0
ARC
  5
13A7
100
AcDbEntity
  8
90000_FRAME
370
    13
  6
CONTINUOUS
 62
     7
100
AcDbCircle
 10
415.181506
 20
79.443075
 30
0.0
 40
6.322187
100
AcDbArc
 50
121.214095
 51
141.525477
  0
ARC
  5
13A8
100
AcDbEntity
  8
90000_FRAME
370
    13
  6
CONTINUOUS
 62
     7
100
AcDbCircle
 10
417.490203
 20
82.687304
 30
0.0
 40
3.46451
100
AcDbArc
 50
222.776039
 51
239.036243
  0
ARC
  5
13A9
100
AcDbEntity
  8
90000_FRAME
370
    13
  6
CONTINUOUS
 62
     7
100
AcDbCircle
 10
407.463365
 20
53.366216
 30
0.0
 40
27.435094
100
AcDbArc
 50
59.902027
 51
68.203648
  0
ARC
  5
13AA
100
AcDbEntity
  8
90000_FRAME
370
    13
  6
CONTINUOUS
 62
     7
100
AcDbCircle
 10
421.097343
 20
89.069762
 30
0.0
 40
10.794964
100
AcDbArc
 50
240.0482
 51
251.377967
  0
ARC
  5
13AB
100
AcDbEntity
  8
90000_FRAME
370
    13
  6
CONTINUOUS
 62
     7
100
AcDbCircle
 10
418.435514
 20
72.442167
 30
0.0
 40
5.73379
100
AcDbArc
 50
315.890455
 51
333.522926
  0
ARC
  5
13AC
100
AcDbEntity
  8
90000_FRAME
370
    13
  6
CONTINUOUS
 62
     7
100
AcDbCircle
 10
418.454067
 20
72.228538
 30
0.0
 40
5.624915
100
AcDbArc
 50
335.386797
 51
24.391512
  0
ARC
  5
13AD
100
AcDbEntity
  8
90000_FRAME
370
    13
  6
CONTINUOUS
 62
     7
100
AcDbCircle
 10
418.165248
 20
71.917112
 30
0.0
 40
6.01881
100
AcDbArc
 50
25.956292
 51
59.483483
  0
LINE
  5
13AE
100
AcDbEntity
  8
90000_FRAME
370
    13
  6
CONTINUOUS
 62
     7
100
AcDbLine
 10
299.062504
 20
67.025283
 30
0.0
 11
299.062504
 21
70.827898
 31
0.0
  0
LINE
  5
13AF
100
AcDbEntity
  8
90000_FRAME
370
    13
  6
CONTINUOUS
 62
     7
100
AcDbLine
 10
312.371658
 20
81.665351
 30
0.0
 11
312.371658
 21
85.467967
 31
0.0
  0
ARC
  5
13B0
100
AcDbEntity
  8
90000_FRAME
370
    13
  6
CONTINUOUS
 62
     7
100
AcDbCircle
 10
305.881069
 20
74.473655
 30
0.0
 40
4.446477
100
AcDbArc
 50
277.709996
 51
295.688493
  0
ARC
  5
13B1
100
AcDbEntity
  8
90000_FRAME
370
    13
  6
CONTINUOUS
 62
     7
100
AcDbCircle
 10
307.018309
 20
71.574352
 30
0.0
 40
1.360676
100
AcDbArc
 50
305.503221
 51
72.46529
  0
ARC
  5
13B2
100
AcDbEntity
  8
90000_FRAME
370
    13
  6
CONTINUOUS
 62
     7
100
AcDbCircle
 10
304.754333
 20
85.18118
 30
0.0
 40
19.027179
100
AcDbArc
 50
252.59392
 51
280.98166
  0
ARC
  5
13B3
100
AcDbEntity
  8
90000_FRAME
370
    13
  6
CONTINUOUS
 62
     7
100
AcDbCircle
 10
306.573675
 20
74.709125
 30
0.0
 40
8.402906
100
AcDbArc
 50
282.405836
 51
311.864443
  0
ARC
  5
13B4
100
AcDbEntity
  8
90000_FRAME
370
    13
  6
CONTINUOUS
 62
     7
100
AcDbCircle
 10
305.479417
 20
81.142492
 30
0.0
 40
1.211851
100
AcDbArc
 50
154.440035
 51
221.82017
  0
ARC
  5
13B5
100
AcDbEntity
  8
90000_FRAME
370
    13
  6
CONTINUOUS
 62
     7
100
AcDbCircle
 10
305.796302
 20
80.825607
 30
0.0
 40
1.641236
100
AcDbArc
 50
102.828783
 51
149.225964
  0
ARC
  5
13B6
100
AcDbEntity
  8
90000_FRAME
370
    13
  6
CONTINUOUS
 62
     7
100
AcDbCircle
 10
307.464409
 20
73.856266
 30
0.0
 40
8.807346
100
AcDbArc
 50
84.040006
 51
103.342766
  0
ARC
  5
13B7
100
AcDbEntity
  8
90000_FRAME
370
    13
  6
CONTINUOUS
 62
     7
100
AcDbCircle
 10
306.100554
 20
64.18681
 30
0.0
 40
18.569495
100
AcDbArc
 50
70.262586
 51
82.952419
  0
ARC
  5
13B8
100
AcDbEntity
  8
90000_FRAME
370
    13
  6
CONTINUOUS
 62
     7
100
AcDbCircle
 10
304.044481
 20
82.873302
 30
0.0
 40
13.035024
100
AcDbArc
 50
247.530021
 51
280.757952
  0
ARC
  5
13B9
100
AcDbEntity
  8
90000_FRAME
370
    13
  6
CONTINUOUS
 62
     7
100
AcDbCircle
 10
278.504615
 20
9.867222
 30
0.0
 40
69.326434
100
AcDbArc
 50
65.341467
 51
67.399777
  0
ARC
  5
13BA
100
AcDbEntity
  8
90000_FRAME
370
    13
  6
CONTINUOUS
 62
     7
100
AcDbCircle
 10
321.688065
 20
113.036927
 30
0.0
 40
42.516657
100
AcDbArc
 50
242.86201
 51
247.104203
  0
ARC
  5
13BB
100
AcDbEntity
  8
90000_FRAME
370
    13
  6
CONTINUOUS
 62
     7
100
AcDbCircle
 10
306.26846
 20
82.901201
 30
0.0
 40
8.665167
100
AcDbArc
 50
227.311928
 51
242.704032
  0
ARC
  5
13BC
100
AcDbEntity
  8
90000_FRAME
370
    13
  6
CONTINUOUS
 62
     7
100
AcDbCircle
 10
303.852337
 20
80.078491
 30
0.0
 40
4.954087
100
AcDbArc
 50
194.795219
 51
225.717655
  0
ARC
  5
13BD
100
AcDbEntity
  8
90000_FRAME
370
    13
  6
CONTINUOUS
 62
     7
100
AcDbCircle
 10
306.329064
 20
76.686302
 30
0.0
 40
9.467699
100
AcDbArc
 50
86.221802
 51
120.42726
  0
ARC
  5
13BE
100
AcDbEntity
  8
90000_FRAME
370
    13
  6
CONTINUOUS
 62
     7
100
AcDbCircle
 10
305.253637
 20
49.901631
 30
0.0
 40
36.271621
100
AcDbArc
 50
78.682705
 51
87.31476
  0
ARC
  5
13BF
100
AcDbEntity
  8
90000_FRAME
370
    13
  6
CONTINUOUS
 62
     7
100
AcDbCircle
 10
304.810598
 20
79.443075
 30
0.0
 40
6.322187
100
AcDbArc
 50
121.214095
 51
141.525477
  0
ARC
  5
13C0
100
AcDbEntity
  8
90000_FRAME
370
    13
  6
CONTINUOUS
 62
     7
100
AcDbCircle
 10
307.119295
 20
82.687304
 30
0.0
 40
3.46451
100
AcDbArc
 50
222.776039
 51
239.036243
  0
ARC
  5
13C1
100
AcDbEntity
  8
90000_FRAME
370
    13
  6
CONTINUOUS
 62
     7
100
AcDbCircle
 10
297.092457
 20
53.366216
 30
0.0
 40
27.435094
100
AcDbArc
 50
59.902027
 51
68.203648
  0
ARC
  5
13C2
100
AcDbEntity
  8
90000_FRAME
370
    13
  6
CONTINUOUS
 62
     7
100
AcDbCircle
 10
310.726435
 20
89.069762
 30
0.0
 40
10.794964
100
AcDbArc
 50
240.0482
 51
251.377967
  0
ARC
  5
13C3
100
AcDbEntity
  8
90000_FRAME
370
    13
  6
CONTINUOUS
 62
     7
100
AcDbCircle
 10
308.064606
 20
72.442167
 30
0.0
 40
5.73379
100
AcDbArc
 50
315.890455
 51
333.522926
  0
ARC
  5
13C4
100
AcDbEntity
  8
90000_FRAME
370
    13
  6
CONTINUOUS
 62
     7
100
AcDbCircle
 10
308.083159
 20
72.228538
 30
0.0
 40
5.624915
100
AcDbArc
 50
335.386797
 51
24.391512
  0
ARC
  5
13C5
100
AcDbEntity
  8
90000_FRAME
370
    13
  6
CONTINUOUS
 62
     7
100
AcDbCircle
 10
307.79434
 20
71.917112
 30
0.0
 40
6.01881
100
AcDbArc
 50
25.956292
 51
59.483483
  0
LINE
  5
13C6
100
AcDbEntity
  8
90000_FRAME
370
    13
  6
CONTINUOUS
 62
     7
100
AcDbLine
 10
299.829818
 20
83.334875
 30
0.0
 11
300.926082
 21
84.431168
 31
0.0
  0
ARC
  5
13C7
100
AcDbEntity
  8
90000_FRAME
370
    13
  6
CONTINUOUS
 62
     7
100
AcDbCircle
 10
304.100969
 20
80.239371
 30
0.0
 40
5.236368
100
AcDbArc
 50
164.197486
 51
195.802514
  0
ARC
  5
13C8
100
AcDbEntity
  8
90000_FRAME
370
    13
  6
CONTINUOUS
 62
     7
100
AcDbCircle
 10
303.42936
 20
80.669402
 30
0.0
 40
4.47899
100
AcDbArc
 50
142.813918
 51
167.152295
  0
LINE
  5
13C9
100
AcDbEntity
  8
90000_FRAME
370
    13
  6
CONTINUOUS
 62
     7
100
AcDbLine
 10
819.999863
 20
1167.999906
 30
0.0
 11
19.999863
 21
1167.999906
 31
0.0
  0
LINE
  5
13CA
100
AcDbEntity
  8
90000_FRAME
370
    13
  6
CONTINUOUS
 62
     7
100
AcDbLine
 10
839.999863
 20
1187.999906
 30
0.0
 11
-0.000137
 21
1187.999906
 31
0.0
  0
LINE
  5
13CB
100
AcDbEntity
  8
90000_FRAME
370
    13
  6
CONTINUOUS
 62
     7
100
AcDbLine
 10
839.999863
 20
-0.000094
 30
0.0
 11
-0.000137
 21
-0.000094
 31
0.0
  0
LINE
  5
13CC
100
AcDbEntity
  8
90000_FRAME
370
    13
  6
CONTINUOUS
 62
     7
100
AcDbLine
 10
-0.000137
 20
-0.000094
 30
0.0
 11
-0.000137
 21
1187.999906
 31
0.0
  0
LINE
  5
13CD
100
AcDbEntity
  8
90000_FRAME
370
    13
  6
CONTINUOUS
 62
     7
100
AcDbLine
 10
839.999863
 20
-0.000094
 30
0.0
 11
839.999863
 21
1187.999906
 31
0.0
  0
ENDSEC
  0
SECTION
  2
OBJECTS
  0
DICTIONARY
  5
10CF
100
AcDbDictionary
280
     0
281
     1
  3
ACAD_GROUP
350
10D0
  3
ACAD_MLINESTYLE
350
10D1
  0
DICTIONARY
  5
10D0
102
{ACAD_REACTORS
330
10CF
102
}
100
AcDbDictionary
280
     0
281
     1
  0
DICTIONARY
  5
10D1
102
{ACAD_REACTORS
330
10CF
102
}
100
AcDbDictionary
280
     0
281
     1
  3
Standard
350
10D2
  0
MLINESTYLE
  5
10D2
102
{ACAD_REACTORS
330
10D1
102
}
100
AcDbMlineStyle
  2
Standard
 70
     0
  3

 62
     0
 51
90.0
 52
90.0
 71
     2
 49
0.5
 62
   256
  6
ByLayer
 49
-0.5
 62
   256
  6
ByLayer
  0
ENDSEC
  0
EOF
