  0
SECTION
  2
HEADER
  9
$ACADVER
  1
AC1015
  9
$ACADMAINTVER
 70
     6
  9
$DWGCODEPAGE
  3
ANSI_1252
  9
$INSBASE
 10
0.0
 20
0.0
 30
0.0
  9
$EXTMIN
 10
69.395417
 20
287.976483
 30
-1.0
  9
$EXTMAX
 10
1026.514554
 20
492.804657
 30
0.7
  9
$LIMMIN
 10
0.0
 20
0.0
  9
$LIMMAX
 10
12.0
 20
9.0
  9
$ORTHOMODE
 70
     0
  9
$REGENMODE
 70
     1
  9
$FILLMODE
 70
     1
  9
$QTEXTMODE
 70
     0
  9
$MIRRTEXT
 70
     0
  9
$LTSCALE
 40
80.0
  9
$ATTMODE
 70
     1
  9
$TEXTSIZE
 40
0.2
  9
$TRACEWID
 40
0.05
  9
$TEXTSTYLE
  7
STANDARD
  9
$CLAYER
  8
0
  9
$CELTYPE
  6
ByLayer
  9
$CECOLOR
 62
   256
  9
$CELTSCALE
 40
1.0
  9
$DISPSILH
 70
     0
  9
$DIMSCALE
 40
1.0
  9
$DIMASZ
 40
0.18
  9
$DIMEXO
 40
0.0625
  9
$DIMDLI
 40
0.38
  9
$DIMRND
 40
0.0
  9
$DIMDLE
 40
0.0
  9
$DIMEXE
 40
0.18
  9
$DIMTP
 40
0.0
  9
$DIMTM
 40
0.0
  9
$DIMTXT
 40
0.18
  9
$DIMCEN
 40
0.09
  9
$DIMTSZ
 40
0.0
  9
$DIMTOL
 70
     0
  9
$DIMLIM
 70
     0
  9
$DIMTIH
 70
     1
  9
$DIMTOH
 70
     1
  9
$DIMSE1
 70
     0
  9
$DIMSE2
 70
     0
  9
$DIMTAD
 70
     0
  9
$DIMZIN
 70
     0
  9
$DIMBLK
  1

  9
$DIMASO
 70
     1
  9
$DIMSHO
 70
     1
  9
$DIMPOST
  1

  9
$DIMAPOST
  1

  9
$DIMALT
 70
     0
  9
$DIMALTD
 70
     2
  9
$DIMALTF
 40
25.4
  9
$DIMLFAC
 40
1.0
  9
$DIMTOFL
 70
     0
  9
$DIMTVP
 40
0.0
  9
$DIMTIX
 70
     0
  9
$DIMSOXD
 70
     0
  9
$DIMSAH
 70
     0
  9
$DIMBLK1
  1

  9
$DIMBLK2
  1

  9
$DIMSTYLE
  2
STANDARD
  9
$DIMCLRD
 70
     0
  9
$DIMCLRE
 70
     0
  9
$DIMCLRT
 70
     0
  9
$DIMTFAC
 40
1.0
  9
$DIMGAP
 40
0.09
  9
$DIMJUST
 70
     0
  9
$DIMSD1
 70
     0
  9
$DIMSD2
 70
     0
  9
$DIMTOLJ
 70
     1
  9
$DIMTZIN
 70
     0
  9
$DIMALTZ
 70
     0
  9
$DIMALTTZ
 70
     0
  9
$DIMUPT
 70
     0
  9
$DIMDEC
 70
     4
  9
$DIMTDEC
 70
     4
  9
$DIMALTU
 70
     2
  9
$DIMALTTD
 70
     2
  9
$DIMTXSTY
  7
STANDARD
  9
$DIMAUNIT
 70
     0
  9
$DIMADEC
 70
     0
  9
$DIMALTRND
 40
0.0
  9
$DIMAZIN
 70
     0
  9
$DIMDSEP
 70
     0
  9
$DIMATFIT
 70
     3
  9
$DIMFRAC
 70
     0
  9
$DIMLDRBLK
  1

  9
$DIMLUNIT
 70
     2
  9
$DIMLWD
 70
     0
  9
$DIMLWE
 70
     0
  9
$DIMTMOVE
 70
     0
  9
$LUNITS
 70
     2
  9
$LUPREC
 70
     4
  9
$SKETCHINC
 40
0.1
  9
$FILLETRAD
 40
0.0
  9
$AUNITS
 70
     0
  9
$AUPREC
 70
     0
  9
$MENU
  1
.
  9
$ELEVATION
 40
0.0
  9
$PELEVATION
 40
0.0
  9
$THICKNESS
 40
0.0
  9
$LIMCHECK
 70
     0
  9
$CHAMFERA
 40
0.0
  9
$CHAMFERB
 40
0.0
  9
$CHAMFERC
 40
0.0
  9
$CHAMFERD
 40
0.0
  9
$SKPOLY
 70
     0
  9
$TDCREATE
 40
2453353.758792454
  9
$TDUCREATE
 40
0.000000000
  9
$TDUPDATE
 40
0.000000000
  9
$TDUUPDATE
 40
2447892.958333334
  9
$TDINDWG
 40
78332576.0667047050
  9
$TDUSRTIMER
 40
0.0000000000
  9
$USRTIMER
 70
     1
  9
$ANGBASE
 50
0.0
  9
$ANGDIR
 70
     0
  9
$PDMODE
 70
     0
  9
$PDSIZE
 40
0.0
  9
$PLINEWID
 40
0.0
  9
$SPLFRAME
 70
     0
  9
$SPLINETYPE
 70
     6
  9
$SPLINESEGS
 70
     8
  9
$HANDSEED
  5
14D0
  9
$SURFTAB1
 70
     6
  9
$SURFTAB2
 70
     6
  9
$SURFTYPE
 70
     6
  9
$SURFU
 70
     6
  9
$SURFV
 70
     6
  9
$UCSBASE
  2

  9
$UCSNAME
  2

  9
$UCSORG
 10
0.0
 20
0.0
 30
0.0
  9
$UCSXDIR
 10
1.0
 20
0.0
 30
0.0
  9
$UCSYDIR
 10
0.0
 20
1.0
 30
0.0
  9
$UCSORTHOREF
  2

  9
$UCSORTHOVIEW
 70
     0
  9
$UCSORGTOP
 10
0.0
 20
0.0
 30
0.0
  9
$UCSORGBOTTOM
 10
0.0
 20
0.0
 30
0.0
  9
$UCSORGLEFT
 10
0.0
 20
0.0
 30
0.0
  9
$UCSORGRIGHT
 10
0.0
 20
0.0
 30
0.0
  9
$UCSORGFRONT
 10
0.0
 20
0.0
 30
0.0
  9
$UCSORGBACK
 10
0.0
 20
0.0
 30
0.0
  9
$PUCSBASE
  2

  9
$PUCSNAME
  2

  9
$PUCSORG
 10
0.0
 20
0.0
 30
0.0
  9
$PUCSXDIR
 10
1.0
 20
0.0
 30
0.0
  9
$PUCSYDIR
 10
0.0
 20
1.0
 30
0.0
  9
$PUCSORTHOREF
  2

  9
$PUCSORTHOVIEW
 70
     0
  9
$PUCSORGTOP
 10
0.0
 20
0.0
 30
0.0
  9
$PUCSORGBOTTOM
 10
0.0
 20
0.0
 30
0.0
  9
$PUCSORGLEFT
 10
0.0
 20
0.0
 30
0.0
  9
$PUCSORGRIGHT
 10
0.0
 20
0.0
 30
0.0
  9
$PUCSORGFRONT
 10
0.0
 20
0.0
 30
0.0
  9
$PUCSORGBACK
 10
0.0
 20
0.0
 30
0.0
  9
$USERI1
 70
     0
  9
$USERI2
 70
     0
  9
$USERI3
 70
     0
  9
$USERI4
 70
     0
  9
$USERI5
 70
     0
  9
$USERR1
 40
0.0
  9
$USERR2
 40
0.0
  9
$USERR3
 40
0.0
  9
$USERR4
 40
0.0
  9
$USERR5
 40
0.0
  9
$WORLDVIEW
 70
     1
  9
$SHADEDGE
 70
     3
  9
$SHADEDIF
 70
    70
  9
$TILEMODE
 70
     1
  9
$MAXACTVP
 70
    64
  9
$PINSBASE
 10
0.0
 20
0.0
 30
0.0
  9
$PLIMCHECK
 70
     0
  9
$PEXTMIN
 10
0.0
 20
0.0
 30
0.0
  9
$PEXTMAX
 10
0.0
 20
0.0
 30
0.0
  9
$PLIMMIN
 10
0.0
 20
0.0
  9
$PLIMMAX
 10
0.0
 20
0.0
  9
$UNITMODE
 70
     0
  9
$VISRETAIN
 70
     1
  9
$PLINEGEN
 70
     0
  9
$PSLTSCALE
 70
     1
  9
$TREEDEPTH
 70
  3020
  9
$CMLSTYLE
  2
Standard
  9
$CMLJUST
 70
     0
  9
$CMLSCALE
 40
1.0
  9
$PROXYGRAPHICS
 70
     0
  9
$MEASUREMENT
 70
     0
  9
$CELWEIGHT
370
     0
  9
$ENDCAPS
280
     0
  9
$JOINSTYLE
280
     0
  9
$LWDISPLAY
290
     0
  9
$INSUNITS
 70
     0
  9
$HYPERLINKBASE
  1

  9
$STYLESHEET
  1

  9
$XEDIT
290
     1
  9
$CEPSNTYPE
380
     0
  9
$PSTYLEMODE
290
     1
  9
$FINGERPRINTGUID
  2

  9
$VERSIONGUID
  2

  9
$EXTNAMES
290
     1
  9
$PSVPSCALE
 40
0.0
  0
ENDSEC
  0
SECTION
  2
CLASSES
  0
CLASS
  1
LWPOLYLINE
  2
AcDbPolyline
  3
AutoCAD 2000
 90
        0
280
     0
281
     1
  0
CLASS
  1
IMAGE
  2
AcDbRasterImage
  3
ISM
 90
      127
280
     0
281
     1
  0
CLASS
  1
OLE2FRAME
  2
AcDbOle2Frame
  3
AutoCAD 2000
 90
        0
280
     0
281
     1
  0
CLASS
  1
HATCH
  2
AcDbHatch
  3
AutoCAD 2000
 90
        0
280
     0
281
     1
  0
CLASS
  1
DICTIONARYVAR
  2
AcDbDictionaryVar
  3
AutoCAD 2000
 90
        0
280
     0
281
     0
  0
CLASS
  1
RASTERVARIABLES
  2
AcDbRasterVariables
  3
ISM
 90
        0
280
     0
281
     0
  0
CLASS
  1
IMAGEDEF
  2
AcDbRasterImageDef
  3
ISM
 90
        0
280
     0
281
     0
  0
CLASS
  1
IMAGEDEF_REACTOR
  2
AcDbRasterImageDefReactor
  3
ISM
 90
        1
280
     0
281
     0
  0
CLASS
  1
IDBUFFER
  2
AcDbIdBuffer
  3
AutoCAD 2000
 90
        0
280
     0
281
     0
  0
CLASS
  1
SPATIAL_FILTER
  2
AcDbSpatialFilter
  3
AutoCAD 2000
 90
        0
280
     0
281
     0
  0
CLASS
  1
XRECORD
  2
AcDbXrecord
  3
AutoCAD 2000
 90
        0
280
     0
281
     0
  0
CLASS
  1
SORTENTSTABLE
  2
AcDbSortentsTable
  3
AutoCAD 2000
 90
        0
280
     0
281
     0
  0
CLASS
  1
LAYER_INDEX
  2
AcDbLayerIndex
  3
AutoCAD 2000
 90
        0
280
     0
281
     0
  0
CLASS
  1
SPATIAL_INDEX
  2
AcDbSpatialIndex
  3
AutoCAD 2000
 90
        0
280
     0
281
     0
  0
CLASS
  1
OBJECT_PTR
  2
CAseDLPNTableRecord
  3
"ASE-LPNTableRecord"
 90
        1
280
     0
281
     0
  0
CLASS
  1
LAYOUT
  2
AcDbLayout
  3
AutoCAD 2000
 90
        0
280
     0
281
     0
  0
CLASS
  1
PLOTSETTINGS
  2
AcDbPlotSettings
  3
AutoCAD 2000
 90
        0
280
     0
281
     0
  0
CLASS
  1
ACDBDICTIONARYWDFLT
  2
AcDbDictionaryWithDefault
  3
AutoCAD 2000
 90
        0
280
     0
281
     0
  0
CLASS
  1
ACDBPLACEHOLDER
  2
AcDbPlaceHolder
  3
AutoCAD 2000
 90
        0
280
     0
281
     0
  0
CLASS
  1
VBA_PROJECT
  2
AcDbVbaProject
  3
acadvba
 90
        0
280
     0
281
     0
  0
CLASS
  1
WIPEOUT
  2
AcDbWipeout
  3
WipeOut|AutoCAD Express Tool|expresstools@autodesk.com
 90
      127
280
     0
281
     1
  0
CLASS
  1
WIPEOUTVARIABLES
  2
AcDbWipeoutVariables
  3
WipeOut|AutoCAD Express Tool|expresstools@autodesk.com
 90
        0
280
     0
281
     0
  0
CLASS
  1
RTEXT
  2
RText
  3
RText|AutoCAD Express Tool|expresstools@autodesk.com
 90
        0
280
     0
281
     1
  0
CLASS
  1
ARCALIGNEDTEXT
  2
AcDbArcAlignedText
  3
ATEXT|AutoCAD Express Tool|expresstools@autodesk.com
 90
        0
280
     0
281
     1
  0
ENDSEC
  0
SECTION
  2
TABLES
  0
TABLE
  2
VPORT
  5
1094
100
AcDbSymbolTable
 70
     1
  0
VPORT
  5
10BB
100
AcDbSymbolTableRecord
100
AcDbViewportTableRecord
  2
*ACTIVE
 70
     0
 10
0.0
 20
0.0
 11
1.0
 21
1.0
 12
450.328833
 22
266.374849
 13
0.0
 23
0.0
 14
0.5
 24
0.5
 15
0.5
 25
0.5
 16
0.0
 26
0.0
 36
1.0
 17
0.0
 27
0.0
 37
0.0
 40
620.078606
 41
1.701534
 42
50.0
 43
0.0
 44
0.0
 50
0.0
 51
0.0
 71
    16
 72
  1000
 73
     1
 74
     3
 75
     0
 76
     0
 77
     0
 78
     0
281
     0
 65
     0
110
0.0
120
0.0
130
0.0
111
1.0
121
0.0
131
0.0
112
0.0
122
1.0
132
0.0
345
0
346
0
 79
     0
146
0.0
  0
ENDTAB
  0
TABLE
  2
LTYPE
  5
1091
100
AcDbSymbolTable
 70
     6
  0
LTYPE
  5
109A
100
AcDbSymbolTableRecord
100
AcDbLinetypeTableRecord
  2
ByBlock
 70
    64
  3

 72
    65
 73
     0
 40
0.0
  0
LTYPE
  5
109B
100
AcDbSymbolTableRecord
100
AcDbLinetypeTableRecord
  2
ByLayer
 70
    64
  3

 72
    65
 73
     0
 40
0.0
  0
LTYPE
  5
109C
100
AcDbSymbolTableRecord
100
AcDbLinetypeTableRecord
  2
CONTINUOUS
 70
     0
  3
Solid line
 72
    65
 73
     0
 40
0.0
  0
LTYPE
  5
109D
100
AcDbSymbolTableRecord
100
AcDbLinetypeTableRecord
  2
CENTER
 70
     0
  3
____ _ ____ _ ____ _ ____ _ ____ _ ____ _ ____
 72
    65
 73
     4
 40
0.6
 49
0.375
 74
     0
 49
-0.075
 74
     0
 49
0.075
 74
     0
 49
-0.075
 74
     0
  0
LTYPE
  5
109E
100
AcDbSymbolTableRecord
100
AcDbLinetypeTableRecord
  2
ACAD_ISO02W100
 70
     0
  3
ISO Strichlinie __ __ __ __ __ __ __ __ __ __ _
 72
    65
 73
     2
 40
15.0
 49
12.0
 74
     0
 49
-3.0
 74
     0
  0
LTYPE
  5
109F
100
AcDbSymbolTableRecord
100
AcDbLinetypeTableRecord
  2
DASHED
 70
     0
  3
_ _ _ _ _ _ _ _ _ _ _ _ _ _ _ _ _ _ _ _ _ _ _ _
 72
    65
 73
     2
 40
0.375
 49
0.25
 74
     0
 49
-0.125
 74
     0
  0
ENDTAB
  0
TABLE
  2
LAYER
  5
108F
100
AcDbSymbolTable
 70
    10
  0
LAYER
  5
10A0
100
AcDbSymbolTableRecord
100
AcDbLayerTableRecord
  2
0
 70
     0
 62
     7
  6
CONTINUOUS
290
     1
370
    -3
390
0
  0
LAYER
  5
10A1
100
AcDbSymbolTableRecord
100
AcDbLayerTableRecord
  2
90000_FRAME
 70
     0
 62
     7
  6
CONTINUOUS
290
     1
370
    -3
390
0
  0
LAYER
  5
10A2
100
AcDbSymbolTableRecord
100
AcDbLayerTableRecord
  2
91000_TIP
 70
     0
 62
     7
  6
CONTINUOUS
290
     1
370
    -3
390
0
  0
LAYER
  5
10A3
100
AcDbSymbolTableRecord
100
AcDbLayerTableRecord
  2
10000_FRONT
 70
     0
 62
     7
  6
CONTINUOUS
290
     1
370
    -3
390
0
  0
LAYER
  5
10A4
100
AcDbSymbolTableRecord
100
AcDbLayerTableRecord
  2
11000_LEFT
 70
     0
 62
     7
  6
CONTINUOUS
290
     1
370
    -3
390
0
  0
LAYER
  5
10A7
100
AcDbSymbolTableRecord
100
AcDbLayerTableRecord
  2
DEFPOINTS
 70
     0
 62
     7
  6
CONTINUOUS
290
     0
370
    -3
390
0
  0
LAYER
  5
10A8
100
AcDbSymbolTableRecord
100
AcDbLayerTableRecord
  2
10100_FRONT_DIM
 70
     0
 62
     7
  6
CONTINUOUS
290
     1
370
    -3
390
0
  0
LAYER
  5
10A9
100
AcDbSymbolTableRecord
100
AcDbLayerTableRecord
  2
11100_LEFT_DIM
 70
     0
 62
     7
  6
CONTINUOUS
290
     1
370
    -3
390
0
  0
LAYER
  5
10AD
100
AcDbSymbolTableRecord
100
AcDbLayerTableRecord
  2
13000_TOP
 70
     0
 62
     7
  6
CONTINUOUS
290
     1
370
    -3
390
0
  0
LAYER
  5
10AE
100
AcDbSymbolTableRecord
100
AcDbLayerTableRecord
  2
13100_TOP_DIM
 70
     0
 62
     7
  6
CONTINUOUS
290
     1
370
    -3
390
0
  0
ENDTAB
  0
TABLE
  2
STYLE
  5
1090
100
AcDbSymbolTable
 70
     1
  0
STYLE
  5
10C0
100
AcDbSymbolTableRecord
100
AcDbTextStyleTableRecord
  2
STANDARD
 70
     0
 40
0.0
 41
1.0
 50
0.0
 71
     0
 42
0.2
  3
txt.shx
  4

  0
ENDTAB
  0
TABLE
  2
VIEW
  5
1092
100
AcDbSymbolTable
 70
     0
  0
ENDTAB
  0
TABLE
  2
UCS
  5
1093
100
AcDbSymbolTable
 70
     0
  0
ENDTAB
  0
TABLE
  2
APPID
  5
1095
100
AcDbSymbolTable
 70
     4
  0
APPID
  5
10BC
100
AcDbSymbolTableRecord
100
AcDbRegAppTableRecord
  2
ACAD
 70
     0
  0
APPID
  5
10BD
100
AcDbSymbolTableRecord
100
AcDbRegAppTableRecord
  2
AUSTER_ANSICHT
 70
     0
  0
APPID
  5
10BE
100
AcDbSymbolTableRecord
100
AcDbRegAppTableRecord
  2
AUSTER_FOLIE
 70
     0
  0
APPID
  5
10BF
100
AcDbSymbolTableRecord
100
AcDbRegAppTableRecord
  2
ACAECLAYERSTANDARD
 70
     0
  0
ENDTAB
  0
TABLE
  2
DIMSTYLE
  5
1096
100
AcDbSymbolTable
 70
     3
100
AcDbDimStyleTable
 71
     0
  0
DIMSTYLE
105
10CA
100
AcDbSymbolTableRecord
100
AcDbDimStyleTableRecord
  2
STANDARD
 70
     0
  3

  4

 40
1.0
 41
0.18
 42
0.0625
 43
0.38
 44
0.18
 45
0.0
 46
0.0
 47
0.0
 48
0.0
 71
     0
 72
     0
 73
     1
 74
     1
 75
     0
 76
     0
 77
     0
 78
     0
 79
     0
140
0.18
141
0.09
142
0.0
143
25.4
144
1.0
145
0.0
146
1.0
147
0.09
148
0.0
170
     0
171
     2
172
     0
173
     0
174
     0
175
     0
176
     0
177
     0
178
     0
179
     0
271
     4
272
     4
273
     2
274
     2
275
     0
276
     0
277
     2
278
    46
279
     0
280
     0
281
     0
282
     0
283
     1
284
     0
285
     0
286
     0
288
     0
289
     3
340
10C0
341
0
342
0
343
0
344
0
371
    -2
372
    -2
  0
DIMSTYLE
105
10CB
100
AcDbSymbolTableRecord
100
AcDbDimStyleTableRecord
  2
DSTYLE1
 70
     0
  3

  4

 40
1.0
 41
3.0
 42
0.0
 43
0.38
 44
1.0
 45
0.0
 46
0.0
 47
0.0
 48
0.0
 71
     0
 72
     0
 73
     0
 74
     0
 75
     0
 76
     0
 77
     1
 78
     3
 79
     0
140
2.5
141
0.09
142
0.0
143
0.03937
144
1.0
145
0.0
146
1.0
147
1.0
148
0.0
170
     0
171
     2
172
     0
173
     0
174
     0
175
     0
176
     0
177
     0
178
     0
179
     0
271
     4
272
     4
273
     2
274
     2
275
     0
276
     0
277
     2
278
    46
279
     0
280
     0
281
     0
282
     0
283
     1
284
     0
285
     0
286
     0
288
     0
289
     3
340
10C0
341
0
342
0
343
0
344
0
371
    -2
372
    -2
  0
DIMSTYLE
105
10CC
100
AcDbSymbolTableRecord
100
AcDbDimStyleTableRecord
  2
H035
 70
     0
  3

  4

 40
0.0
 41
3.5
 42
0.0
 43
3.75
 44
2.0
 45
0.0
 46
0.0
 47
0.0
 48
0.0
 71
     0
 72
     0
 73
     0
 74
     0
 75
     0
 76
     0
 77
     1
 78
     8
 79
     0
140
3.5
141
2.5
142
0.0
143
0.039
144
1.0
145
0.0
146
1.0
147
0.5
148
0.0
170
     0
171
     4
172
     1
173
     0
174
     0
175
     0
176
   256
177
     7
178
     7
179
     0
271
     4
272
     4
273
     2
274
     2
275
     0
276
     0
277
     2
278
    46
279
     0
280
     0
281
     0
282
     0
283
     1
284
     0
285
     0
286
     0
288
     0
289
     3
340
10C0
341
0
342
0
343
0
344
0
371
    -2
372
    -2
  0
ENDTAB
  0
TABLE
  2
BLOCK_RECORD
  5
10C5
100
AcDbSymbolTable
 70
     2
  0
BLOCK_RECORD
  5
10C3
100
AcDbSymbolTableRecord
100
AcDbBlockTableRecord
  2
*Model_Space
340
0
  0
BLOCK_RECORD
  5
10C4
100
AcDbSymbolTableRecord
100
AcDbBlockTableRecord
  2
*Paper_Space
340
0
  0
BLOCK_RECORD
  5
10C1
100
AcDbSymbolTableRecord
100
AcDbBlockTableRecord
  2
$MODEL_SPACE
340
0
  0
BLOCK_RECORD
  5
10C2
100
AcDbSymbolTableRecord
100
AcDbBlockTableRecord
  2
$PAPER_SPACE
340
0
  0
ENDTAB
  0
ENDSEC
  0
SECTION
  2
BLOCKS
  0
BLOCK
  5
10C6
100
AcDbEntity
  8
0
390
0
100
AcDbBlockBegin
  2
*Model_Space
 70
     0
 10
0.0
 20
0.0
 30
0.0
  3
*Model_Space
  1

  0
ENDBLK
  5
10C7
100
AcDbEntity
  8
0
390
0
100
AcDbBlockEnd
  0
BLOCK
  5
10C8
100
AcDbEntity
 67
     1
  8
0
390
0
100
AcDbBlockBegin
  2
*Paper_Space
 70
     0
 10
0.0
 20
0.0
 30
0.0
  3
*Paper_Space
  1

  0
ENDBLK
  5
10C9
100
AcDbEntity
 67
     1
  8
0
390
0
100
AcDbBlockEnd
  0
BLOCK
  5
10CD
100
AcDbEntity
  8
0
100
AcDbBlockBegin
  2
$MODEL_SPACE
 70
     0
 10
0.0
 20
0.0
 30
0.0
  3
$MODEL_SPACE
  1

  0
ENDBLK
  5
21
100
AcDbEntity
  8
0
100
AcDbBlockEnd
  0
BLOCK
  5
10CE
100
AcDbEntity
  8
0
100
AcDbBlockBegin
  2
$PAPER_SPACE
 70
     0
 10
0.0
 20
0.0
 30
0.0
  3
$PAPER_SPACE
  1

  0
ENDBLK
  5
76
100
AcDbEntity
  8
0
100
AcDbBlockEnd
  0
ENDSEC
  0
SECTION
  2
ENTITIES
  0
LINE
  5
10D4
100
AcDbEntity
  8
10000_FRONT
370
    25
390
0
  6
CONTINUOUS
 62
     7
100
AcDbLine
 10
599.166666
 20
2067.5
 30
0.0
 11
1123.166666
 21
2067.5
 31
0.0
  0
LINE
  5
10D5
100
AcDbEntity
  8
10000_FRONT
370
    25
390
0
  6
CONTINUOUS
 62
     7
100
AcDbLine
 10
1157.166666
 20
2067.5
 30
0.0
 11
1160.166666
 21
2067.5
 31
0.0
  0
LINE
  5
10D6
100
AcDbEntity
  8
10000_FRONT
370
    25
390
0
  6
CONTINUOUS
 62
     7
100
AcDbLine
 10
1123.666666
 20
2067.5
 30
0.0
 11
1157.166666
 21
2067.5
 31
0.0
  0
LINE
  5
10D7
100
AcDbEntity
  8
10000_FRONT
370
    25
390
0
  6
CONTINUOUS
 62
     7
100
AcDbLine
 10
565.166666
 20
2067.5
 30
0.0
 11
598.666666
 21
2067.5
 31
0.0
  0
LINE
  5
10D8
100
AcDbEntity
  8
10000_FRONT
370
    25
390
0
  6
CONTINUOUS
 62
     7
100
AcDbLine
 10
562.166666
 20
2067.5
 30
0.0
 11
565.166666
 21
2067.5
 31
0.0
  0
LINE
  5
10D9
100
AcDbEntity
  8
10000_FRONT
370
    25
390
0
  6
CONTINUOUS
 62
     7
100
AcDbLine
 10
1123.166666
 20
2070.0
 30
0.0
 11
1161.166666
 21
2070.0
 31
0.0
  0
LINE
  5
10DA
100
AcDbEntity
  8
10000_FRONT
370
    25
390
0
  6
CONTINUOUS
 62
     7
100
AcDbLine
 10
598.666666
 20
2070.0
 30
0.0
 11
599.166666
 21
2070.0
 31
0.0
  0
LINE
  5
10DB
100
AcDbEntity
  8
10000_FRONT
370
    25
390
0
  6
CONTINUOUS
 62
     7
100
AcDbLine
 10
565.166666
 20
2070.0
 30
0.0
 11
598.666666
 21
2070.0
 31
0.0
  0
LINE
  5
10DC
100
AcDbEntity
  8
10000_FRONT
370
    25
390
0
  6
CONTINUOUS
 62
     7
100
AcDbLine
 10
562.166666
 20
2070.0
 30
0.0
 11
565.166666
 21
2070.0
 31
0.0
  0
LINE
  5
10DD
100
AcDbEntity
  8
10000_FRONT
370
    25
390
0
  6
CONTINUOUS
 62
     7
100
AcDbLine
 10
564.666666
 20
2070.0
 30
0.0
 11
598.666666
 21
2070.0
 31
0.0
  0
LINE
  5
10DE
100
AcDbEntity
  8
10000_FRONT
370
    25
390
0
  6
CONTINUOUS
 62
     7
100
AcDbLine
 10
561.166666
 20
2070.0
 30
0.0
 11
564.666666
 21
2070.0
 31
0.0
  0
LINE
  5
10DF
100
AcDbEntity
  8
10000_FRONT
370
    25
390
0
  6
CONTINUOUS
 62
     7
100
AcDbLine
 10
599.166666
 20
2071.0
 30
0.0
 11
1123.166666
 21
2071.0
 31
0.0
  0
LINE
  5
10E0
100
AcDbEntity
  8
10000_FRONT
370
    25
390
0
  6
CONTINUOUS
 62
     7
100
AcDbLine
 10
1123.166666
 20
2072.5
 30
0.0
 11
1123.666666
 21
2072.5
 31
0.0
  0
LINE
  5
10E1
100
AcDbEntity
  8
10000_FRONT
370
    25
390
0
  6
CONTINUOUS
 62
     7
100
AcDbLine
 10
598.666666
 20
2072.5
 30
0.0
 11
599.166666
 21
2072.5
 31
0.0
  0
LINE
  5
10E2
100
AcDbEntity
  8
10000_FRONT
370
    25
390
0
  6
CONTINUOUS
 62
     7
100
AcDbLine
 10
1120.666666
 20
2076.0
 30
0.0
 11
1123.666666
 21
2076.0
 31
0.0
  0
LINE
  5
10E3
100
AcDbEntity
  8
10000_FRONT
370
    25
390
0
  6
CONTINUOUS
 62
     7
100
AcDbLine
 10
598.666666
 20
2076.0
 30
0.0
 11
599.166666
 21
2076.0
 31
0.0
  0
LINE
  5
10E4
100
AcDbEntity
  8
10000_FRONT
370
    25
390
0
  6
CONTINUOUS
 62
     7
100
AcDbLine
 10
599.166666
 20
2076.0
 30
0.0
 11
601.666666
 21
2076.0
 31
0.0
  0
LINE
  5
10E5
100
AcDbEntity
  8
10000_FRONT
370
    25
390
0
  6
CONTINUOUS
 62
     7
100
AcDbLine
 10
561.166666
 20
2077.679289
 30
0.0
 11
561.167002
 21
2077.679289
 31
0.0
  0
LINE
  5
10E6
100
AcDbEntity
  8
10000_FRONT
370
    25
390
0
  6
CONTINUOUS
 62
     7
100
AcDbLine
 10
561.166666
 20
2078.0
 30
0.0
 11
561.167002
 21
2078.0
 31
0.0
  0
LINE
  5
10E7
100
AcDbEntity
  8
10000_FRONT
370
    25
390
0
  6
CONTINUOUS
 62
     7
100
AcDbLine
 10
561.166666
 20
2098.613001
 30
0.0
 11
561.166727
 21
2098.613001
 31
0.0
  0
LINE
  5
10E8
100
AcDbEntity
  8
10000_FRONT
370
    25
390
0
  6
CONTINUOUS
 62
     7
100
AcDbLine
 10
1120.666666
 20
2134.0
 30
0.0
 11
1123.666666
 21
2134.0
 31
0.0
  0
LINE
  5
10E9
100
AcDbEntity
  8
10000_FRONT
370
    25
390
0
  6
CONTINUOUS
 62
     7
100
AcDbLine
 10
598.666666
 20
2134.0
 30
0.0
 11
599.166666
 21
2134.0
 31
0.0
  0
LINE
  5
10EA
100
AcDbEntity
  8
10000_FRONT
370
    25
390
0
  6
CONTINUOUS
 62
     7
100
AcDbLine
 10
599.166666
 20
2134.0
 30
0.0
 11
601.666666
 21
2134.0
 31
0.0
  0
LINE
  5
10EB
100
AcDbEntity
  8
10000_FRONT
370
    25
390
0
  6
CONTINUOUS
 62
     7
100
AcDbLine
 10
1123.666666
 20
2137.0
 30
0.0
 11
1127.166666
 21
2137.0
 31
0.0
  0
LINE
  5
10EC
100
AcDbEntity
  8
10000_FRONT
370
    25
390
0
  6
CONTINUOUS
 62
     7
100
AcDbLine
 10
595.166666
 20
2137.0
 30
0.0
 11
598.666666
 21
2137.0
 31
0.0
  0
LINE
  5
10ED
100
AcDbEntity
  8
10000_FRONT
370
    25
390
0
  6
CONTINUOUS
 62
     7
100
AcDbLine
 10
599.166666
 20
2139.0
 30
0.0
 11
1123.166666
 21
2139.0
 31
0.0
  0
LINE
  5
10EE
100
AcDbEntity
  8
10000_FRONT
370
    25
390
0
  6
CONTINUOUS
 62
     7
100
AcDbLine
 10
599.166666
 20
2142.5
 30
0.0
 11
1123.166666
 21
2142.5
 31
0.0
  0
LINE
  5
10EF
100
AcDbEntity
  8
10000_FRONT
370
    25
390
0
  6
CONTINUOUS
 62
     7
100
AcDbLine
 10
1123.666666
 20
2142.5
 30
0.0
 11
1123.666727
 21
2142.5
 31
0.0
  0
LINE
  5
10F0
100
AcDbEntity
  8
10000_FRONT
370
    25
390
0
  6
CONTINUOUS
 62
     7
100
AcDbLine
 10
1123.666666
 20
2143.0
 30
0.0
 11
1123.666727
 21
2143.0
 31
0.0
  0
LINE
  5
10F1
100
AcDbEntity
  8
10000_FRONT
370
    25
390
0
  6
CONTINUOUS
 62
     7
100
AcDbLine
 10
599.166666
 20
3992.5
 30
0.0
 11
1123.166666
 21
3992.5
 31
0.0
  0
LINE
  5
10F2
100
AcDbEntity
  8
10000_FRONT
370
    25
390
0
  6
CONTINUOUS
 62
     7
100
AcDbLine
 10
1123.666666
 20
3995.0
 30
0.0
 11
1123.666727
 21
3995.0
 31
0.0
  0
LINE
  5
10F3
100
AcDbEntity
  8
10000_FRONT
370
    25
390
0
  6
CONTINUOUS
 62
     7
100
AcDbLine
 10
599.166666
 20
3996.0
 30
0.0
 11
1123.166666
 21
3996.0
 31
0.0
  0
LINE
  5
10F4
100
AcDbEntity
  8
10000_FRONT
370
    25
390
0
  6
CONTINUOUS
 62
     7
100
AcDbLine
 10
1123.666666
 20
3998.0
 30
0.0
 11
1127.166666
 21
3998.0
 31
0.0
  0
LINE
  5
10F5
100
AcDbEntity
  8
10000_FRONT
370
    25
390
0
  6
CONTINUOUS
 62
     7
100
AcDbLine
 10
595.166666
 20
3998.0
 30
0.0
 11
598.666666
 21
3998.0
 31
0.0
  0
LINE
  5
10F6
100
AcDbEntity
  8
10000_FRONT
370
    25
390
0
  6
CONTINUOUS
 62
     7
100
AcDbLine
 10
598.520761
 20
3998.0
 30
0.0
 11
598.666666
 21
3998.0
 31
0.0
  0
LINE
  5
10F7
100
AcDbEntity
  8
10000_FRONT
370
    25
390
0
  6
CONTINUOUS
 62
     7
100
AcDbLine
 10
598.666666
 20
4001.0
 30
0.0
 11
601.666666
 21
4001.0
 31
0.0
  0
LINE
  5
10F8
100
AcDbEntity
  8
10000_FRONT
370
    25
390
0
  6
CONTINUOUS
 62
     7
100
AcDbLine
 10
1123.166666
 20
4001.0
 30
0.0
 11
1123.666666
 21
4001.0
 31
0.0
  0
LINE
  5
10F9
100
AcDbEntity
  8
10000_FRONT
370
    25
390
0
  6
CONTINUOUS
 62
     7
100
AcDbLine
 10
1120.666666
 20
4001.0
 30
0.0
 11
1123.166666
 21
4001.0
 31
0.0
  0
LINE
  5
10FA
100
AcDbEntity
  8
10000_FRONT
370
    25
390
0
  6
CONTINUOUS
 62
     7
100
AcDbLine
 10
1060.166666
 20
4025.5
 30
0.0
 11
1106.166666
 21
4025.5
 31
0.0
  0
LINE
  5
10FB
100
AcDbEntity
  8
10000_FRONT
370
    25
390
0
  6
CONTINUOUS
 62
     7
100
AcDbLine
 10
616.166666
 20
4025.5
 30
0.0
 11
662.166666
 21
4025.5
 31
0.0
  0
LINE
  5
10FC
100
AcDbEntity
  8
10000_FRONT
370
    25
390
0
  6
CONTINUOUS
 62
     7
100
AcDbLine
 10
561.166666
 20
4057.0
 30
0.0
 11
561.167002
 21
4057.0
 31
0.0
  0
LINE
  5
10FD
100
AcDbEntity
  8
10000_FRONT
370
    25
390
0
  6
CONTINUOUS
 62
     7
100
AcDbLine
 10
1060.166666
 20
4058.5
 30
0.0
 11
1106.166666
 21
4058.5
 31
0.0
  0
LINE
  5
10FE
100
AcDbEntity
  8
10000_FRONT
370
    25
390
0
  6
CONTINUOUS
 62
     7
100
AcDbLine
 10
616.166666
 20
4058.5
 30
0.0
 11
662.166666
 21
4058.5
 31
0.0
  0
LINE
  5
10FF
100
AcDbEntity
  8
10000_FRONT
370
    25
390
0
  6
CONTINUOUS
 62
     7
100
AcDbLine
 10
598.666666
 20
4059.0
 30
0.0
 11
601.666666
 21
4059.0
 31
0.0
  0
LINE
  5
1100
100
AcDbEntity
  8
10000_FRONT
370
    25
390
0
  6
CONTINUOUS
 62
     7
100
AcDbLine
 10
1123.166666
 20
4059.0
 30
0.0
 11
1123.666666
 21
4059.0
 31
0.0
  0
LINE
  5
1101
100
AcDbEntity
  8
10000_FRONT
370
    25
390
0
  6
CONTINUOUS
 62
     7
100
AcDbLine
 10
1120.666666
 20
4059.0
 30
0.0
 11
1123.166666
 21
4059.0
 31
0.0
  0
LINE
  5
1102
100
AcDbEntity
  8
10000_FRONT
370
    25
390
0
  6
CONTINUOUS
 62
     7
100
AcDbLine
 10
598.666666
 20
4062.5
 30
0.0
 11
599.166666
 21
4062.5
 31
0.0
  0
LINE
  5
1103
100
AcDbEntity
  8
10000_FRONT
370
    25
390
0
  6
CONTINUOUS
 62
     7
100
AcDbLine
 10
1123.166666
 20
4062.5
 30
0.0
 11
1123.666666
 21
4062.5
 31
0.0
  0
LINE
  5
1104
100
AcDbEntity
  8
10000_FRONT
370
    25
390
0
  6
CONTINUOUS
 62
     7
100
AcDbLine
 10
599.166666
 20
4064.0
 30
0.0
 11
1123.166666
 21
4064.0
 31
0.0
  0
LINE
  5
1105
100
AcDbEntity
  8
10000_FRONT
370
    25
390
0
  6
CONTINUOUS
 62
     7
100
AcDbLine
 10
561.166666
 20
4065.0
 30
0.0
 11
599.166666
 21
4065.0
 31
0.0
  0
LINE
  5
1106
100
AcDbEntity
  8
10000_FRONT
370
    25
390
0
  6
CONTINUOUS
 62
     7
100
AcDbLine
 10
1123.166666
 20
4065.0
 30
0.0
 11
1123.666666
 21
4065.0
 31
0.0
  0
LINE
  5
1107
100
AcDbEntity
  8
10000_FRONT
370
    25
390
0
  6
CONTINUOUS
 62
     7
100
AcDbLine
 10
1123.666666
 20
4065.0
 30
0.0
 11
1157.666666
 21
4065.0
 31
0.0
  0
LINE
  5
1108
100
AcDbEntity
  8
10000_FRONT
370
    25
390
0
  6
CONTINUOUS
 62
     7
100
AcDbLine
 10
1157.666666
 20
4065.0
 30
0.0
 11
1161.166666
 21
4065.0
 31
0.0
  0
LINE
  5
1109
100
AcDbEntity
  8
10000_FRONT
370
    25
390
0
  6
CONTINUOUS
 62
     7
100
AcDbLine
 10
599.166666
 20
4067.5
 30
0.0
 11
1123.166666
 21
4067.5
 31
0.0
  0
LINE
  5
110A
100
AcDbEntity
  8
10000_FRONT
370
    25
390
0
  6
CONTINUOUS
 62
     7
100
AcDbLine
 10
1123.666666
 20
4067.5
 30
0.0
 11
1157.166666
 21
4067.5
 31
0.0
  0
LINE
  5
110B
100
AcDbEntity
  8
10000_FRONT
370
    25
390
0
  6
CONTINUOUS
 62
     7
100
AcDbLine
 10
1157.166666
 20
4067.5
 30
0.0
 11
1160.166666
 21
4067.5
 31
0.0
  0
LINE
  5
110C
100
AcDbEntity
  8
10000_FRONT
370
    25
390
0
  6
CONTINUOUS
 62
     7
100
AcDbLine
 10
562.166666
 20
4067.5
 30
0.0
 11
565.166666
 21
4067.5
 31
0.0
  0
LINE
  5
110D
100
AcDbEntity
  8
10000_FRONT
370
    25
390
0
  6
CONTINUOUS
 62
     7
100
AcDbLine
 10
565.166666
 20
4067.5
 30
0.0
 11
598.666666
 21
4067.5
 31
0.0
  0
LINE
  5
110E
100
AcDbEntity
  8
10000_FRONT
370
    25
390
0
  6
CONTINUOUS
 62
     7
100
AcDbLine
 10
561.166666
 20
2070.0
 30
0.0
 11
561.166666
 21
4065.0
 31
0.0
  0
LINE
  5
110F
100
AcDbEntity
  8
10000_FRONT
370
    25
390
0
  6
CONTINUOUS
 62
     7
100
AcDbLine
 10
562.166666
 20
4065.0
 30
0.0
 11
562.166666
 21
4067.5
 31
0.0
  0
LINE
  5
1110
100
AcDbEntity
  8
10000_FRONT
370
    25
390
0
  6
CONTINUOUS
 62
     7
100
AcDbLine
 10
562.166666
 20
2067.5
 30
0.0
 11
562.166666
 21
2070.0
 31
0.0
  0
LINE
  5
1111
100
AcDbEntity
  8
10000_FRONT
370
    25
390
0
  6
CONTINUOUS
 62
     7
100
AcDbLine
 10
564.666666
 20
2070.0
 30
0.0
 11
564.666666
 21
4065.0
 31
0.0
  0
LINE
  5
1112
100
AcDbEntity
  8
10000_FRONT
370
    25
390
0
  6
CONTINUOUS
 62
     7
100
AcDbLine
 10
565.166666
 20
4065.0
 30
0.0
 11
565.166666
 21
4067.5
 31
0.0
  0
LINE
  5
1113
100
AcDbEntity
  8
10000_FRONT
370
    25
390
0
  6
CONTINUOUS
 62
     7
100
AcDbLine
 10
565.166666
 20
2067.5
 30
0.0
 11
565.166666
 21
2070.0
 31
0.0
  0
LINE
  5
1114
100
AcDbEntity
  8
10000_FRONT
370
    25
390
0
  6
CONTINUOUS
 62
     7
100
AcDbLine
 10
595.166666
 20
2137.0
 30
0.0
 11
595.166666
 21
3998.0
 31
0.0
  0
LINE
  5
1115
100
AcDbEntity
  8
10000_FRONT
370
    25
390
0
  6
CONTINUOUS
 62
     7
100
AcDbLine
 10
598.666666
 20
2067.5
 30
0.0
 11
598.666666
 21
4067.5
 31
0.0
  0
LINE
  5
1116
100
AcDbEntity
  8
10000_FRONT
370
    25
390
0
  6
CONTINUOUS
 62
     7
100
AcDbLine
 10
599.166666
 20
3992.5
 30
0.0
 11
599.166666
 21
4067.5
 31
0.0
  0
LINE
  5
1117
100
AcDbEntity
  8
10000_FRONT
370
    25
390
0
  6
CONTINUOUS
 62
     7
100
AcDbLine
 10
599.166666
 20
2076.0
 30
0.0
 11
599.166666
 21
2134.0
 31
0.0
  0
LINE
  5
1118
100
AcDbEntity
  8
10000_FRONT
370
    25
390
0
  6
CONTINUOUS
 62
     7
100
AcDbLine
 10
599.166666
 20
2134.0
 30
0.0
 11
599.166666
 21
2139.0
 31
0.0
  0
LINE
  5
1119
100
AcDbEntity
  8
10000_FRONT
370
    25
390
0
  6
CONTINUOUS
 62
     7
100
AcDbLine
 10
599.166666
 20
2071.0
 30
0.0
 11
599.166666
 21
2076.0
 31
0.0
  0
LINE
  5
111A
100
AcDbEntity
  8
10000_FRONT
370
    25
390
0
  6
CONTINUOUS
 62
     7
100
AcDbLine
 10
599.166666
 20
2067.5
 30
0.0
 11
599.166666
 21
2071.0
 31
0.0
  0
LINE
  5
111B
100
AcDbEntity
  8
10000_FRONT
370
    25
390
0
  6
CONTINUOUS
 62
     7
100
AcDbLine
 10
599.166666
 20
2139.0
 30
0.0
 11
599.166666
 21
2142.5
 31
0.0
  0
LINE
  5
111C
100
AcDbEntity
  8
10000_FRONT
370
    25
390
0
  6
CONTINUOUS
 62
     7
100
AcDbLine
 10
601.666666
 20
4001.0
 30
0.0
 11
601.666666
 21
4059.0
 31
0.0
  0
LINE
  5
111D
100
AcDbEntity
  8
10000_FRONT
370
    25
390
0
  6
CONTINUOUS
 62
     7
100
AcDbLine
 10
601.666666
 20
2076.0
 30
0.0
 11
601.666666
 21
2134.0
 31
0.0
  0
LINE
  5
111E
100
AcDbEntity
  8
10000_FRONT
370
    25
390
0
  6
CONTINUOUS
 62
     7
100
AcDbLine
 10
614.166666
 20
4027.5
 30
0.0
 11
614.166666
 21
4056.5
 31
0.0
  0
LINE
  5
111F
100
AcDbEntity
  8
10000_FRONT
370
    25
390
0
  6
CONTINUOUS
 62
     7
100
AcDbLine
 10
664.166666
 20
4027.5
 30
0.0
 11
664.166666
 21
4056.5
 31
0.0
  0
LINE
  5
1120
100
AcDbEntity
  8
10000_FRONT
370
    25
390
0
  6
CONTINUOUS
 62
     7
100
AcDbLine
 10
1058.166666
 20
4027.5
 30
0.0
 11
1058.166666
 21
4056.5
 31
0.0
  0
LINE
  5
1121
100
AcDbEntity
  8
10000_FRONT
370
    25
390
0
  6
CONTINUOUS
 62
     7
100
AcDbLine
 10
1108.166666
 20
4027.5
 30
0.0
 11
1108.166666
 21
4056.5
 31
0.0
  0
LINE
  5
1122
100
AcDbEntity
  8
10000_FRONT
370
    25
390
0
  6
CONTINUOUS
 62
     7
100
AcDbLine
 10
1120.666666
 20
4001.0
 30
0.0
 11
1120.666666
 21
4059.0
 31
0.0
  0
LINE
  5
1123
100
AcDbEntity
  8
10000_FRONT
370
    25
390
0
  6
CONTINUOUS
 62
     7
100
AcDbLine
 10
1120.666666
 20
2076.0
 30
0.0
 11
1120.666666
 21
2134.0
 31
0.0
  0
LINE
  5
1124
100
AcDbEntity
  8
10000_FRONT
370
    25
390
0
  6
CONTINUOUS
 62
     7
100
AcDbLine
 10
1123.166666
 20
3992.5
 30
0.0
 11
1123.166666
 21
4067.5
 31
0.0
  0
LINE
  5
1125
100
AcDbEntity
  8
10000_FRONT
370
    25
390
0
  6
CONTINUOUS
 62
     7
100
AcDbLine
 10
1123.166666
 20
2076.0
 30
0.0
 11
1123.166666
 21
2134.0
 31
0.0
  0
LINE
  5
1126
100
AcDbEntity
  8
10000_FRONT
370
    25
390
0
  6
CONTINUOUS
 62
     7
100
AcDbLine
 10
1123.166666
 20
2071.0
 30
0.0
 11
1123.166666
 21
2076.0
 31
0.0
  0
LINE
  5
1127
100
AcDbEntity
  8
10000_FRONT
370
    25
390
0
  6
CONTINUOUS
 62
     7
100
AcDbLine
 10
1123.166666
 20
2067.5
 30
0.0
 11
1123.166666
 21
2071.0
 31
0.0
  0
LINE
  5
1128
100
AcDbEntity
  8
10000_FRONT
370
    25
390
0
  6
CONTINUOUS
 62
     7
100
AcDbLine
 10
1123.166666
 20
2134.0
 30
0.0
 11
1123.166666
 21
2139.0
 31
0.0
  0
LINE
  5
1129
100
AcDbEntity
  8
10000_FRONT
370
    25
390
0
  6
CONTINUOUS
 62
     7
100
AcDbLine
 10
1123.166666
 20
2139.0
 30
0.0
 11
1123.166666
 21
2142.5
 31
0.0
  0
LINE
  5
112A
100
AcDbEntity
  8
10000_FRONT
370
    25
390
0
  6
CONTINUOUS
 62
     7
100
AcDbLine
 10
1123.666666
 20
2067.5
 30
0.0
 11
1123.666666
 21
4067.5
 31
0.0
  0
LINE
  5
112B
100
AcDbEntity
  8
10000_FRONT
370
    25
390
0
  6
CONTINUOUS
 62
     7
100
AcDbLine
 10
1127.166666
 20
2137.0
 30
0.0
 11
1127.166666
 21
3998.0
 31
0.0
  0
LINE
  5
112C
100
AcDbEntity
  8
10000_FRONT
370
    25
390
0
  6
CONTINUOUS
 62
     7
100
AcDbLine
 10
1157.166666
 20
4065.0
 30
0.0
 11
1157.166666
 21
4067.5
 31
0.0
  0
LINE
  5
112D
100
AcDbEntity
  8
10000_FRONT
370
    25
390
0
  6
CONTINUOUS
 62
     7
100
AcDbLine
 10
1157.166666
 20
2067.5
 30
0.0
 11
1157.166666
 21
2070.0
 31
0.0
  0
LINE
  5
112E
100
AcDbEntity
  8
10000_FRONT
370
    25
390
0
  6
CONTINUOUS
 62
     7
100
AcDbLine
 10
1157.666666
 20
2070.0
 30
0.0
 11
1157.666666
 21
4065.0
 31
0.0
  0
LINE
  5
112F
100
AcDbEntity
  8
10000_FRONT
370
    25
390
0
  6
CONTINUOUS
 62
     7
100
AcDbLine
 10
1160.166666
 20
4065.0
 30
0.0
 11
1160.166666
 21
4067.5
 31
0.0
  0
LINE
  5
1130
100
AcDbEntity
  8
10000_FRONT
370
    25
390
0
  6
CONTINUOUS
 62
     7
100
AcDbLine
 10
1160.166666
 20
2067.5
 30
0.0
 11
1160.166666
 21
2070.0
 31
0.0
  0
LINE
  5
1131
100
AcDbEntity
  8
10000_FRONT
370
    25
390
0
  6
CONTINUOUS
 62
     7
100
AcDbLine
 10
1161.166666
 20
2070.0
 30
0.0
 11
1161.166666
 21
4065.0
 31
0.0
  0
LINE
  5
1132
100
AcDbEntity
  8
10000_FRONT
370
    25
390
0
  6
CONTINUOUS
 62
     7
100
AcDbLine
 10
561.166666
 20
2075.982025
 30
0.0
 11
561.166666
 21
2075.981096
 31
0.0
  0
LINE
  5
1133
100
AcDbEntity
  8
10000_FRONT
370
    25
390
0
  6
CONTINUOUS
 62
     7
100
AcDbLine
 10
561.166666
 20
4031.769165
 30
0.0
 11
561.166685
 21
4031.762207
 31
0.0
  0
LINE
  5
1134
100
AcDbEntity
  8
10000_FRONT
370
    25
390
0
  6
CONTINUOUS
 62
     7
100
AcDbLine
 10
561.166666
 20
4059.018921
 30
0.0
 11
561.166666
 21
4059.017945
 31
0.0
  0
ARC
  5
1135
100
AcDbEntity
  8
10000_FRONT
370
    25
390
0
  6
CONTINUOUS
 62
     7
100
AcDbCircle
 10
564.666666
 20
2071.0
 30
0.0
 40
3.5
100
AcDbArc
 50
196.603634
 51
224.415308
  0
ARC
  5
1136
100
AcDbEntity
  8
10000_FRONT
370
    25
390
0
  6
CONTINUOUS
 62
     7
100
AcDbCircle
 10
564.666666
 20
2111.050253
 30
0.0
 40
3.5
100
AcDbArc
 50
179.767782
 51
180.0
  0
ARC
  5
1137
100
AcDbEntity
  8
10000_FRONT
370
    25
390
0
  6
CONTINUOUS
 62
     7
100
AcDbCircle
 10
564.666666
 20
2111.550253
 30
0.0
 40
3.5
100
AcDbArc
 50
179.221715
 51
180.0
  0
ARC
  5
1138
100
AcDbEntity
  8
10000_FRONT
370
    25
390
0
  6
CONTINUOUS
 62
     7
100
AcDbCircle
 10
564.666666
 20
4023.449747
 30
0.0
 40
3.5
100
AcDbArc
 50
180.000662
 51
180.778035
  0
ARC
  5
1139
100
AcDbEntity
  8
10000_FRONT
370
    25
390
0
  6
CONTINUOUS
 62
     7
100
AcDbCircle
 10
564.666666
 20
4023.949747
 30
0.0
 40
3.5
100
AcDbArc
 50
180.000662
 51
180.232468
  0
ARC
  5
113A
100
AcDbEntity
  8
10000_FRONT
370
    25
390
0
  6
CONTINUOUS
 62
     7
100
AcDbCircle
 10
564.666666
 20
4064.0
 30
0.0
 40
3.5
100
AcDbArc
 50
179.904081
 51
180.0
  0
ARC
  5
113B
100
AcDbEntity
  8
10000_FRONT
370
    25
390
0
  6
CONTINUOUS
 62
     7
100
AcDbCircle
 10
564.666666
 20
4064.0
 30
0.0
 40
3.5
100
AcDbArc
 50
135.585005
 51
163.396362
  0
CIRCLE
  5
113C
100
AcDbEntity
  8
10000_FRONT
370
    25
390
0
  6
CONTINUOUS
 62
     7
100
AcDbCircle
 10
573.266666
 20
2180.0
 30
0.0
 40
2.7
  0
CIRCLE
  5
113D
100
AcDbEntity
  8
10000_FRONT
370
    25
390
0
  6
CONTINUOUS
 62
     7
100
AcDbCircle
 10
573.266666
 20
2205.0
 30
0.0
 40
2.7
  0
CIRCLE
  5
113E
100
AcDbEntity
  8
10000_FRONT
370
    25
390
0
  6
CONTINUOUS
 62
     7
100
AcDbCircle
 10
573.266666
 20
3055.0
 30
0.0
 40
2.7
  0
CIRCLE
  5
113F
100
AcDbEntity
  8
10000_FRONT
370
    25
390
0
  6
CONTINUOUS
 62
     7
100
AcDbCircle
 10
573.266666
 20
3080.0
 30
0.0
 40
2.7
  0
CIRCLE
  5
1140
100
AcDbEntity
  8
10000_FRONT
370
    25
390
0
  6
CONTINUOUS
 62
     7
100
AcDbCircle
 10
573.266666
 20
3930.0
 30
0.0
 40
2.7
  0
CIRCLE
  5
1141
100
AcDbEntity
  8
10000_FRONT
370
    25
390
0
  6
CONTINUOUS
 62
     7
100
AcDbCircle
 10
573.266666
 20
3955.0
 30
0.0
 40
2.7
  0
CIRCLE
  5
1142
100
AcDbEntity
  8
10000_FRONT
370
    25
390
0
  6
CONTINUOUS
 62
     7
100
AcDbCircle
 10
579.916666
 20
2085.0
 30
0.0
 40
5.75
  0
CIRCLE
  5
1143
100
AcDbEntity
  8
10000_FRONT
370
    25
390
0
  6
CONTINUOUS
 62
     7
100
AcDbCircle
 10
579.916666
 20
2125.0
 30
0.0
 40
5.75
  0
CIRCLE
  5
1144
100
AcDbEntity
  8
10000_FRONT
370
    25
390
0
  6
CONTINUOUS
 62
     7
100
AcDbCircle
 10
579.916666
 20
4010.0
 30
0.0
 40
5.75
  0
CIRCLE
  5
1145
100
AcDbEntity
  8
10000_FRONT
370
    25
390
0
  6
CONTINUOUS
 62
     7
100
AcDbCircle
 10
579.916666
 20
4050.0
 30
0.0
 40
5.75
  0
CIRCLE
  5
1146
100
AcDbEntity
  8
10000_FRONT
370
    25
390
0
  6
CONTINUOUS
 62
     7
100
AcDbCircle
 10
591.166666
 20
2167.5
 30
0.0
 40
2.7
  0
CIRCLE
  5
1147
100
AcDbEntity
  8
10000_FRONT
370
    25
390
0
  6
CONTINUOUS
 62
     7
100
AcDbCircle
 10
591.166666
 20
2567.5
 30
0.0
 40
2.7
  0
CIRCLE
  5
1148
100
AcDbEntity
  8
10000_FRONT
370
    25
390
0
  6
CONTINUOUS
 62
     7
100
AcDbCircle
 10
591.166666
 20
3067.5
 30
0.0
 40
2.7
  0
CIRCLE
  5
1149
100
AcDbEntity
  8
10000_FRONT
370
    25
390
0
  6
CONTINUOUS
 62
     7
100
AcDbCircle
 10
591.166666
 20
3567.5
 30
0.0
 40
2.7
  0
CIRCLE
  5
114A
100
AcDbEntity
  8
10000_FRONT
370
    25
390
0
  6
CONTINUOUS
 62
     7
100
AcDbCircle
 10
591.166666
 20
3967.5
 30
0.0
 40
2.7
  0
CIRCLE
  5
114B
100
AcDbEntity
  8
10000_FRONT
370
    25
390
0
  6
CONTINUOUS
 62
     7
100
AcDbCircle
 10
611.166666
 20
2115.5
 30
0.0
 40
2.7
  0
CIRCLE
  5
114C
100
AcDbEntity
  8
10000_FRONT
370
    25
390
0
  6
CONTINUOUS
 62
     7
100
AcDbCircle
 10
611.166666
 20
4019.5
 30
0.0
 40
2.7
  0
ARC
  5
114D
100
AcDbEntity
  8
10000_FRONT
370
    25
390
0
  6
CONTINUOUS
 62
     7
100
AcDbCircle
 10
616.166666
 20
4027.5
 30
0.0
 40
2.0
100
AcDbArc
 50
180.0
 51
270.0
  0
ARC
  5
114E
100
AcDbEntity
  8
10000_FRONT
370
    25
390
0
  6
CONTINUOUS
 62
     7
100
AcDbCircle
 10
616.166666
 20
4056.5
 30
0.0
 40
2.0
100
AcDbArc
 50
90.0
 51
180.0
  0
CIRCLE
  5
114F
100
AcDbEntity
  8
10000_FRONT
370
    25
390
0
  6
CONTINUOUS
 62
     7
100
AcDbCircle
 10
636.166666
 20
2115.5
 30
0.0
 40
2.7
  0
CIRCLE
  5
1150
100
AcDbEntity
  8
10000_FRONT
370
    25
390
0
  6
CONTINUOUS
 62
     7
100
AcDbCircle
 10
636.166666
 20
4019.5
 30
0.0
 40
2.7
  0
ARC
  5
1151
100
AcDbEntity
  8
10000_FRONT
370
    25
390
0
  6
CONTINUOUS
 62
     7
100
AcDbCircle
 10
662.166666
 20
4027.5
 30
0.0
 40
2.0
100
AcDbArc
 50
270.0
 51
0.0
  0
ARC
  5
1152
100
AcDbEntity
  8
10000_FRONT
370
    25
390
0
  6
CONTINUOUS
 62
     7
100
AcDbCircle
 10
662.166666
 20
4056.5
 30
0.0
 40
2.0
100
AcDbArc
 50
0.0
 51
90.0
  0
CIRCLE
  5
1153
100
AcDbEntity
  8
10000_FRONT
370
    25
390
0
  6
CONTINUOUS
 62
     7
100
AcDbCircle
 10
686.166666
 20
2117.5
 30
0.0
 40
4.6
  0
CIRCLE
  5
1154
100
AcDbEntity
  8
10000_FRONT
370
    25
390
0
  6
CONTINUOUS
 62
     7
100
AcDbCircle
 10
686.166666
 20
4017.5
 30
0.0
 40
4.6
  0
CIRCLE
  5
1155
100
AcDbEntity
  8
10000_FRONT
370
    25
390
0
  6
CONTINUOUS
 62
     7
100
AcDbCircle
 10
861.166666
 20
2097.5
 30
0.0
 40
2.7
  0
CIRCLE
  5
1156
100
AcDbEntity
  8
10000_FRONT
370
    25
390
0
  6
CONTINUOUS
 62
     7
100
AcDbCircle
 10
861.166666
 20
4037.5
 30
0.0
 40
2.7
  0
CIRCLE
  5
1157
100
AcDbEntity
  8
10000_FRONT
370
    25
390
0
  6
CONTINUOUS
 62
     7
100
AcDbCircle
 10
1036.166666
 20
2117.5
 30
0.0
 40
4.6
  0
CIRCLE
  5
1158
100
AcDbEntity
  8
10000_FRONT
370
    25
390
0
  6
CONTINUOUS
 62
     7
100
AcDbCircle
 10
1036.166666
 20
4017.5
 30
0.0
 40
4.6
  0
ARC
  5
1159
100
AcDbEntity
  8
10000_FRONT
370
    25
390
0
  6
CONTINUOUS
 62
     7
100
AcDbCircle
 10
1060.166666
 20
4027.5
 30
0.0
 40
2.0
100
AcDbArc
 50
180.0
 51
270.0
  0
ARC
  5
115A
100
AcDbEntity
  8
10000_FRONT
370
    25
390
0
  6
CONTINUOUS
 62
     7
100
AcDbCircle
 10
1060.166666
 20
4056.5
 30
0.0
 40
2.0
100
AcDbArc
 50
90.0
 51
180.0
  0
CIRCLE
  5
115B
100
AcDbEntity
  8
10000_FRONT
370
    25
390
0
  6
CONTINUOUS
 62
     7
100
AcDbCircle
 10
1086.166666
 20
2115.5
 30
0.0
 40
2.7
  0
CIRCLE
  5
115C
100
AcDbEntity
  8
10000_FRONT
370
    25
390
0
  6
CONTINUOUS
 62
     7
100
AcDbCircle
 10
1086.166666
 20
4019.5
 30
0.0
 40
2.7
  0
ARC
  5
115D
100
AcDbEntity
  8
10000_FRONT
370
    25
390
0
  6
CONTINUOUS
 62
     7
100
AcDbCircle
 10
1106.166666
 20
4027.5
 30
0.0
 40
2.0
100
AcDbArc
 50
270.0
 51
0.0
  0
ARC
  5
115E
100
AcDbEntity
  8
10000_FRONT
370
    25
390
0
  6
CONTINUOUS
 62
     7
100
AcDbCircle
 10
1106.166666
 20
4056.5
 30
0.0
 40
2.0
100
AcDbArc
 50
0.0
 51
90.0
  0
CIRCLE
  5
115F
100
AcDbEntity
  8
10000_FRONT
370
    25
390
0
  6
CONTINUOUS
 62
     7
100
AcDbCircle
 10
1111.166666
 20
2115.5
 30
0.0
 40
2.7
  0
CIRCLE
  5
1160
100
AcDbEntity
  8
10000_FRONT
370
    25
390
0
  6
CONTINUOUS
 62
     7
100
AcDbCircle
 10
1111.166666
 20
4019.5
 30
0.0
 40
2.7
  0
CIRCLE
  5
1161
100
AcDbEntity
  8
10000_FRONT
370
    25
390
0
  6
CONTINUOUS
 62
     7
100
AcDbCircle
 10
1131.166666
 20
2167.5
 30
0.0
 40
2.7
  0
CIRCLE
  5
1162
100
AcDbEntity
  8
10000_FRONT
370
    25
390
0
  6
CONTINUOUS
 62
     7
100
AcDbCircle
 10
1131.166666
 20
2567.5
 30
0.0
 40
2.7
  0
CIRCLE
  5
1163
100
AcDbEntity
  8
10000_FRONT
370
    25
390
0
  6
CONTINUOUS
 62
     7
100
AcDbCircle
 10
1131.166666
 20
3067.5
 30
0.0
 40
2.7
  0
CIRCLE
  5
1164
100
AcDbEntity
  8
10000_FRONT
370
    25
390
0
  6
CONTINUOUS
 62
     7
100
AcDbCircle
 10
1131.166666
 20
3567.5
 30
0.0
 40
2.7
  0
CIRCLE
  5
1165
100
AcDbEntity
  8
10000_FRONT
370
    25
390
0
  6
CONTINUOUS
 62
     7
100
AcDbCircle
 10
1131.166666
 20
3967.5
 30
0.0
 40
2.7
  0
CIRCLE
  5
1166
100
AcDbEntity
  8
10000_FRONT
370
    25
390
0
  6
CONTINUOUS
 62
     7
100
AcDbCircle
 10
1142.416666
 20
2085.0
 30
0.0
 40
5.75
  0
CIRCLE
  5
1167
100
AcDbEntity
  8
10000_FRONT
370
    25
390
0
  6
CONTINUOUS
 62
     7
100
AcDbCircle
 10
1142.416666
 20
2125.0
 30
0.0
 40
5.75
  0
CIRCLE
  5
1168
100
AcDbEntity
  8
10000_FRONT
370
    25
390
0
  6
CONTINUOUS
 62
     7
100
AcDbCircle
 10
1142.416666
 20
4010.0
 30
0.0
 40
5.75
  0
CIRCLE
  5
1169
100
AcDbEntity
  8
10000_FRONT
370
    25
390
0
  6
CONTINUOUS
 62
     7
100
AcDbCircle
 10
1142.416666
 20
4050.0
 30
0.0
 40
5.75
  0
CIRCLE
  5
116A
100
AcDbEntity
  8
10000_FRONT
370
    25
390
0
  6
CONTINUOUS
 62
     7
100
AcDbCircle
 10
1149.066666
 20
2180.0
 30
0.0
 40
2.7
  0
CIRCLE
  5
116B
100
AcDbEntity
  8
10000_FRONT
370
    25
390
0
  6
CONTINUOUS
 62
     7
100
AcDbCircle
 10
1149.066666
 20
2205.0
 30
0.0
 40
2.7
  0
CIRCLE
  5
116C
100
AcDbEntity
  8
10000_FRONT
370
    25
390
0
  6
CONTINUOUS
 62
     7
100
AcDbCircle
 10
1149.066666
 20
3055.0
 30
0.0
 40
2.7
  0
CIRCLE
  5
116D
100
AcDbEntity
  8
10000_FRONT
370
    25
390
0
  6
CONTINUOUS
 62
     7
100
AcDbCircle
 10
1149.066666
 20
3080.0
 30
0.0
 40
2.7
  0
CIRCLE
  5
116E
100
AcDbEntity
  8
10000_FRONT
370
    25
390
0
  6
CONTINUOUS
 62
     7
100
AcDbCircle
 10
1149.066666
 20
3930.0
 30
0.0
 40
2.7
  0
CIRCLE
  5
116F
100
AcDbEntity
  8
10000_FRONT
370
    25
390
0
  6
CONTINUOUS
 62
     7
100
AcDbCircle
 10
1149.066666
 20
3955.0
 30
0.0
 40
2.7
  0
ARC
  5
1170
100
AcDbEntity
  8
10000_FRONT
370
    25
390
0
  6
CONTINUOUS
 62
     7
100
AcDbCircle
 10
1157.666666
 20
2071.0
 30
0.0
 40
1.0
100
AcDbArc
 50
270.0
 51
270.220315
  0
ARC
  5
1171
100
AcDbEntity
  8
10000_FRONT
370
    25
390
0
  6
CONTINUOUS
 62
     7
100
AcDbCircle
 10
1157.666666
 20
2071.0
 30
0.0
 40
3.5
100
AcDbArc
 50
315.584692
 51
343.39637
  0
ARC
  5
1172
100
AcDbEntity
  8
10000_FRONT
370
    25
390
0
  6
CONTINUOUS
 62
     7
100
AcDbCircle
 10
1157.666666
 20
4064.0
 30
0.0
 40
3.5
100
AcDbArc
 50
16.603638
 51
44.414995
  0
LINE
  5
1173
100
AcDbEntity
  8
10000_FRONT
370
    13
390
0
  6
CENTER
 62
     7
100
AcDbLine
 10
527.833332
 20
3067.5
 30
0.0
 11
1194.5
 21
3067.5
 31
0.0
  0
LINE
  5
1174
100
AcDbEntity
  8
10000_FRONT
370
    13
390
0
  6
CENTER
 62
     7
100
AcDbLine
 10
861.166666
 20
2034.166666
 30
0.0
 11
861.166666
 21
4100.833334
 31
0.0
  0
LINE
  5
1175
100
AcDbEntity
  8
10100_FRONT_DIM
370
    13
390
0
  6
CONTINUOUS
 62
     7
100
AcDbLine
 10
561.166666
 20
2067.5
 30
0.0
 11
561.166666
 21
1839.833331
 31
0.0
  0
LINE
  5
1176
100
AcDbEntity
  8
10100_FRONT_DIM
370
    13
390
0
  6
CONTINUOUS
 62
     7
100
AcDbLine
 10
1161.166666
 20
1839.833331
 30
0.0
 11
1161.166666
 21
2067.5
 31
0.0
  0
LINE
  5
1177
100
AcDbEntity
  8
10100_FRONT_DIM
370
    13
390
0
  6
CONTINUOUS
 62
     7
100
AcDbLine
 10
561.166666
 20
1853.166665
 30
0.0
 11
1161.166666
 21
1853.166665
 31
0.0
  0
TEXT
  5
1178
100
AcDbEntity
  8
10100_FRONT_DIM
370
    13
390
0
  6
CONTINUOUS
 62
     7
100
AcDbText
 10
830.055555
 20
1866.499998
 30
0.0
 40
26.666667
  1
600
 72
     1
 11
861.166666
 21
1866.499998
 31
0.0
100
AcDbText
  0
LINE
  5
1179
100
AcDbEntity
  8
10100_FRONT_DIM
370
    13
390
0
  6
CONTINUOUS
 62
     7
100
AcDbLine
 10
598.666666
 20
2067.5
 30
0.0
 11
598.666666
 21
1933.166665
 31
0.0
  0
LINE
  5
117A
100
AcDbEntity
  8
10100_FRONT_DIM
370
    13
390
0
  6
CONTINUOUS
 62
     7
100
AcDbLine
 10
1123.666666
 20
1933.166665
 30
0.0
 11
1123.666666
 21
2067.5
 31
0.0
  0
LINE
  5
117B
100
AcDbEntity
  8
10100_FRONT_DIM
370
    13
390
0
  6
CONTINUOUS
 62
     7
100
AcDbLine
 10
598.666666
 20
1946.499999
 30
0.0
 11
1123.666666
 21
1946.499999
 31
0.0
  0
TEXT
  5
117C
100
AcDbEntity
  8
10100_FRONT_DIM
370
    13
390
0
  6
CONTINUOUS
 62
     7
100
AcDbText
 10
825.61111
 20
1959.833332
 30
0.0
 40
26.666667
  1
525
 72
     1
 11
861.166666
 21
1959.833332
 31
0.0
100
AcDbText
  0
LINE
  5
117D
100
AcDbEntity
  8
10100_FRONT_DIM
370
    13
390
0
  6
CONTINUOUS
 62
     7
100
AcDbLine
 10
561.166666
 20
2067.5
 30
0.0
 11
333.499997
 21
2067.5
 31
0.0
  0
LINE
  5
117E
100
AcDbEntity
  8
10100_FRONT_DIM
370
    13
390
0
  6
CONTINUOUS
 62
     7
100
AcDbLine
 10
333.499997
 20
4067.5
 30
0.0
 11
561.166666
 21
4067.5
 31
0.0
  0
LINE
  5
117F
100
AcDbEntity
  8
10100_FRONT_DIM
370
    13
390
0
  6
CONTINUOUS
 62
     7
100
AcDbLine
 10
346.833331
 20
2067.5
 30
0.0
 11
346.833331
 21
4067.5
 31
0.0
  0
TEXT
  5
1180
100
AcDbEntity
  8
10100_FRONT_DIM
370
    13
390
0
  6
CONTINUOUS
 62
     7
100
AcDbText
 10
333.499997
 20
3025.277777
 30
0.0
 40
26.666667
  1
2000
 50
90.0
 72
     1
 11
333.499997
 21
3067.5
 31
0.0
100
AcDbText
  0
LINE
  5
1181
100
AcDbEntity
  8
10100_FRONT_DIM
370
    13
390
0
  6
CONTINUOUS
 62
     7
100
AcDbLine
 10
598.666666
 20
2142.5
 30
0.0
 11
426.833331
 21
2142.5
 31
0.0
  0
LINE
  5
1182
100
AcDbEntity
  8
10100_FRONT_DIM
370
    13
390
0
  6
CONTINUOUS
 62
     7
100
AcDbLine
 10
426.833331
 20
3992.5
 30
0.0
 11
598.666666
 21
3992.5
 31
0.0
  0
LINE
  5
1183
100
AcDbEntity
  8
10100_FRONT_DIM
370
    13
390
0
  6
CONTINUOUS
 62
     7
100
AcDbLine
 10
440.166665
 20
2142.5
 30
0.0
 11
440.166665
 21
3992.5
 31
0.0
  0
TEXT
  5
1184
100
AcDbEntity
  8
10100_FRONT_DIM
370
    13
390
0
  6
CONTINUOUS
 62
     7
100
AcDbText
 10
426.833331
 20
3025.277777
 30
0.0
 40
26.666667
  1
1850
 50
90.0
 72
     1
 11
426.833331
 21
3067.5
 31
0.0
100
AcDbText
  0
SOLID
  5
1185
100
AcDbEntity
  8
10100_FRONT_DIM
370
    13
390
0
  6
CONTINUOUS
 62
     7
100
AcDbTrace
 10
627.833333
 20
1861.943498
 30
0.0
 11
561.166666
 21
1853.166665
 31
0.0
 12
627.833333
 22
1844.389831
 32
0.0
 13
561.166666
 23
1853.166665
 33
0.0
  0
SOLID
  5
1186
100
AcDbEntity
  8
10100_FRONT_DIM
370
    13
390
0
  6
CONTINUOUS
 62
     7
100
AcDbTrace
 10
1094.499999
 20
1844.389831
 30
0.0
 11
1161.166666
 21
1853.166665
 31
0.0
 12
1094.499999
 22
1861.943498
 32
0.0
 13
1161.166666
 23
1853.166665
 33
0.0
  0
SOLID
  5
1187
100
AcDbEntity
  8
10100_FRONT_DIM
370
    13
390
0
  6
CONTINUOUS
 62
     7
100
AcDbTrace
 10
665.333333
 20
1955.276832
 30
0.0
 11
598.666666
 21
1946.499999
 31
0.0
 12
665.333333
 22
1937.723166
 32
0.0
 13
598.666666
 23
1946.499999
 33
0.0
  0
SOLID
  5
1188
100
AcDbEntity
  8
10100_FRONT_DIM
370
    13
390
0
  6
CONTINUOUS
 62
     7
100
AcDbTrace
 10
1056.999999
 20
1937.723166
 30
0.0
 11
1123.666666
 21
1946.499999
 31
0.0
 12
1056.999999
 22
1955.276832
 32
0.0
 13
1123.666666
 23
1946.499999
 33
0.0
  0
SOLID
  5
1189
100
AcDbEntity
  8
10100_FRONT_DIM
370
    13
390
0
  6
CONTINUOUS
 62
     7
100
AcDbTrace
 10
338.056497
 20
2134.166667
 30
0.0
 11
346.833331
 21
2067.5
 31
0.0
 12
355.610164
 22
2134.166667
 32
0.0
 13
346.833331
 23
2067.5
 33
0.0
  0
SOLID
  5
118A
100
AcDbEntity
  8
10100_FRONT_DIM
370
    13
390
0
  6
CONTINUOUS
 62
     7
100
AcDbTrace
 10
355.610164
 20
4000.833333
 30
0.0
 11
346.833331
 21
4067.5
 31
0.0
 12
338.056497
 22
4000.833333
 32
0.0
 13
346.833331
 23
4067.5
 33
0.0
  0
SOLID
  5
118B
100
AcDbEntity
  8
10100_FRONT_DIM
370
    13
390
0
  6
CONTINUOUS
 62
     7
100
AcDbTrace
 10
431.389832
 20
2209.166667
 30
0.0
 11
440.166665
 21
2142.5
 31
0.0
 12
448.943498
 22
2209.166667
 32
0.0
 13
440.166665
 23
2142.5
 33
0.0
  0
SOLID
  5
118C
100
AcDbEntity
  8
10100_FRONT_DIM
370
    13
390
0
  6
CONTINUOUS
 62
     7
100
AcDbTrace
 10
448.943498
 20
3925.833333
 30
0.0
 11
440.166665
 21
3992.5
 31
0.0
 12
431.389832
 22
3925.833333
 32
0.0
 13
440.166665
 23
3992.5
 33
0.0
  0
LINE
  5
118D
100
AcDbEntity
  8
11000_LEFT
370
    25
390
0
  6
CONTINUOUS
 62
     7
100
AcDbLine
 10
2559.563236
 20
4031.90918
 30
0.0
 11
2559.527653
 21
4031.944824
 31
0.0
  0
LINE
  5
118E
100
AcDbEntity
  8
11000_LEFT
370
    25
390
0
  6
CONTINUOUS
 62
     7
100
AcDbLine
 10
2980.314659
 20
4031.769165
 30
0.0
 11
2980.139031
 21
4031.944824
 31
0.0
  0
LINE
  5
118F
100
AcDbEntity
  8
11000_LEFT
370
    25
390
0
  6
CONTINUOUS
 62
     7
100
AcDbLine
 10
3009.708336
 20
4056.875
 30
0.0
 11
3009.332909
 21
4057.250488
 31
0.0
  0
LINE
  5
1190
100
AcDbEntity
  8
11000_LEFT
370
    25
390
0
  6
CONTINUOUS
 62
     7
100
AcDbLine
 10
2982.083122
 20
4030.00061
 30
0.0
 11
2980.314659
 21
4031.769165
 31
0.0
  0
LINE
  5
1191
100
AcDbEntity
  8
11000_LEFT
370
    25
390
0
  6
CONTINUOUS
 62
     7
100
AcDbLine
 10
2982.047966
 20
4029.9646
 30
0.0
 11
2980.103447
 21
4031.90918
 31
0.0
  0
LINE
  5
1192
100
AcDbEntity
  8
11000_LEFT
370
    25
390
0
  6
CONTINUOUS
 62
     7
100
AcDbLine
 10
2573.085259
 20
4013.748047
 30
0.0
 11
2570.497551
 21
4016.335815
 31
0.0
  0
LINE
  5
1193
100
AcDbEntity
  8
11000_LEFT
370
    25
390
0
  6
CONTINUOUS
 62
     7
100
AcDbLine
 10
2557.583538
 20
2104.999344
 30
0.0
 11
2557.208111
 21
2105.374775
 31
0.0
  0
LINE
  5
1194
100
AcDbEntity
  8
11000_LEFT
370
    25
390
0
  6
CONTINUOUS
 62
     7
100
AcDbLine
 10
2976.033074
 20
2111.050251
 30
0.0
 11
2973.55822
 21
2113.525127
 31
0.0
  0
LINE
  5
1195
100
AcDbEntity
  8
11000_LEFT
370
    25
390
0
  6
CONTINUOUS
 62
     7
100
AcDbLine
 10
2976.283074
 20
2111.550251
 30
0.0
 11
2973.80822
 21
2114.025127
 31
0.0
  0
LINE
  5
1196
100
AcDbEntity
  8
11000_LEFT
370
    25
390
0
  6
CONTINUOUS
 62
     7
100
AcDbLine
 10
2575.833336
 20
4011.75
 30
0.0
 11
2570.747551
 21
4016.835815
 31
0.0
  0
LINE
  5
1197
100
AcDbEntity
  8
11000_LEFT
370
    25
390
0
  6
CONTINUOUS
 62
     7
100
AcDbLine
 10
2569.790444
 20
4017.042847
 30
0.0
 11
2565.858463
 21
4020.974854
 31
0.0
  0
LINE
  5
1198
100
AcDbEntity
  8
11000_LEFT
370
    25
390
0
  6
CONTINUOUS
 62
     7
100
AcDbLine
 10
2570.040444
 20
4017.542847
 30
0.0
 11
2566.108463
 21
4021.474854
 31
0.0
  0
LINE
  5
1199
100
AcDbEntity
  8
11000_LEFT
370
    25
390
0
  6
CONTINUOUS
 62
     7
100
AcDbLine
 10
2557.583538
 20
4030.00061
 30
0.0
 11
2530.333766
 21
4057.250488
 31
0.0
  0
LINE
  5
119A
100
AcDbEntity
  8
11000_LEFT
370
    25
390
0
  6
CONTINUOUS
 62
     7
100
AcDbLine
 10
2973.55822
 20
2113.525127
 30
0.0
 11
2969.626244
 21
2117.457108
 31
0.0
  0
LINE
  5
119B
100
AcDbEntity
  8
11000_LEFT
370
    25
390
0
  6
CONTINUOUS
 62
     7
100
AcDbLine
 10
2973.80822
 20
2114.025127
 30
0.0
 11
2969.876244
 21
2117.957108
 31
0.0
  0
LINE
  5
119C
100
AcDbEntity
  8
11000_LEFT
370
    25
390
0
  6
CONTINUOUS
 62
     7
100
AcDbLine
 10
2563.383587
 20
4023.449707
 30
0.0
 11
2529.833336
 21
4057.0
 31
0.0
  0
LINE
  5
119D
100
AcDbEntity
  8
11000_LEFT
370
    25
390
0
  6
CONTINUOUS
 62
     7
100
AcDbLine
 10
2532.242524
 20
2075.770101
 30
0.0
 11
2530.333336
 21
2077.679289
 31
0.0
  0
LINE
  5
119E
100
AcDbEntity
  8
11000_LEFT
370
    25
390
0
  6
CONTINUOUS
 62
     7
100
AcDbLine
 10
2532.27788
 20
2075.805456
 30
0.0
 11
2532.10224
 21
2075.981096
 31
0.0
  0
LINE
  5
119F
100
AcDbEntity
  8
11000_LEFT
370
    25
390
0
  6
CONTINUOUS
 62
     7
100
AcDbLine
 10
3007.564446
 20
2075.981096
 30
0.0
 11
2980.314659
 21
2103.230869
 31
0.0
  0
LINE
  5
11A0
100
AcDbEntity
  8
11000_LEFT
370
    25
390
0
  6
CONTINUOUS
 62
     7
100
AcDbLine
 10
2532.10224
 20
2075.981096
 30
0.0
 11
2530.333766
 21
2077.74957
 31
0.0
  0
LINE
  5
11A1
100
AcDbEntity
  8
11000_LEFT
370
    25
390
0
  6
CONTINUOUS
 62
     7
100
AcDbLine
 10
3009.332909
 20
2077.74957
 30
0.0
 11
2982.083122
 21
2104.999344
 31
0.0
  0
LINE
  5
11A2
100
AcDbEntity
  8
11000_LEFT
370
    25
390
0
  6
CONTINUOUS
 62
     7
100
AcDbLine
 10
2530.333766
 20
2077.74957
 30
0.0
 11
2529.958336
 21
2078.125
 31
0.0
  0
LINE
  5
11A3
100
AcDbEntity
  8
11000_LEFT
370
    25
390
0
  6
CONTINUOUS
 62
     7
100
AcDbLine
 10
3009.833336
 20
2078.0
 30
0.0
 11
2976.283074
 21
2111.550251
 31
0.0
  0
LINE
  5
11A4
100
AcDbEntity
  8
11000_LEFT
370
    25
390
0
  6
CONTINUOUS
 62
     7
100
AcDbLine
 10
2980.139031
 20
2103.055229
 30
0.0
 11
2980.103447
 21
2103.090813
 31
0.0
  0
LINE
  5
11A5
100
AcDbEntity
  8
11000_LEFT
370
    25
390
0
  6
CONTINUOUS
 62
     7
100
AcDbLine
 10
2559.527653
 20
2103.055229
 30
0.0
 11
2557.583538
 21
2104.999344
 31
0.0
  0
LINE
  5
11A6
100
AcDbEntity
  8
11000_LEFT
370
    25
390
0
  6
CONTINUOUS
 62
     7
100
AcDbLine
 10
2982.047966
 20
2105.035355
 30
0.0
 11
2976.033074
 21
2111.050251
 31
0.0
  0
LINE
  5
11A7
100
AcDbEntity
  8
11000_LEFT
370
    25
390
0
  6
CONTINUOUS
 62
     7
100
AcDbLine
 10
2968.919121
 20
2118.164215
 30
0.0
 11
2963.833336
 21
2123.25
 31
0.0
  0
LINE
  5
11A8
100
AcDbEntity
  8
11000_LEFT
370
    25
390
0
  6
CONTINUOUS
 62
     7
100
AcDbLine
 10
2969.169121
 20
2118.664215
 30
0.0
 11
2966.581413
 21
2121.251923
 31
0.0
  0
LINE
  5
11A9
100
AcDbEntity
  8
11000_LEFT
370
    25
390
0
  6
CONTINUOUS
 62
     7
100
AcDbLine
 10
2563.633587
 20
4023.949707
 30
0.0
 11
2557.618691
 21
4029.9646
 31
0.0
  0
LINE
  5
11AA
100
AcDbEntity
  8
11000_LEFT
370
    25
390
0
  6
CONTINUOUS
 62
     7
100
AcDbLine
 10
2559.352013
 20
4031.769165
 30
0.0
 11
2532.10224
 21
4059.018921
 31
0.0
  0
LINE
  5
11AB
100
AcDbEntity
  8
11000_LEFT
370
    25
390
0
  6
CONTINUOUS
 62
     7
100
AcDbLine
 10
3009.333336
 20
4057.320679
 30
0.0
 11
3007.424156
 21
4059.229858
 31
0.0
  0
LINE
  5
11AC
100
AcDbEntity
  8
11000_LEFT
370
    25
390
0
  6
CONTINUOUS
 62
     7
100
AcDbLine
 10
2559.563236
 20
2103.090813
 30
0.0
 11
2557.618691
 21
2105.035355
 31
0.0
  0
LINE
  5
11AD
100
AcDbEntity
  8
11000_LEFT
370
    25
390
0
  6
CONTINUOUS
 62
     7
100
AcDbLine
 10
3007.564446
 20
4059.018921
 30
0.0
 11
3007.388786
 21
4059.19458
 31
0.0
  0
LINE
  5
11AE
100
AcDbEntity
  8
11000_LEFT
370
    25
390
0
  6
CONTINUOUS
 62
     7
100
AcDbLine
 10
2565.858463
 20
4020.974854
 30
0.0
 11
2563.383587
 21
4023.449707
 31
0.0
  0
LINE
  5
11AF
100
AcDbEntity
  8
11000_LEFT
370
    25
390
0
  6
CONTINUOUS
 62
     7
100
AcDbLine
 10
2566.108463
 20
4021.474854
 30
0.0
 11
2563.633587
 21
4023.949707
 31
0.0
  0
LINE
  5
11B0
100
AcDbEntity
  8
11000_LEFT
370
    25
390
0
  6
CONTINUOUS
 62
     7
100
AcDbLine
 10
3009.332909
 20
4057.250488
 30
0.0
 11
3007.564446
 21
4059.018921
 31
0.0
  0
LINE
  5
11B1
100
AcDbEntity
  8
11000_LEFT
370
    25
390
0
  6
CONTINUOUS
 62
     7
100
AcDbLine
 10
2969.626244
 20
2117.457108
 30
0.0
 11
2968.919121
 21
2118.164215
 31
0.0
  0
LINE
  5
11B2
100
AcDbEntity
  8
11000_LEFT
370
    25
390
0
  6
CONTINUOUS
 62
     7
100
AcDbLine
 10
2969.876244
 20
2117.957108
 30
0.0
 11
2969.169121
 21
2118.664215
 31
0.0
  0
LINE
  5
11B3
100
AcDbEntity
  8
11000_LEFT
370
    25
390
0
  6
CONTINUOUS
 62
     7
100
AcDbLine
 10
2570.497551
 20
4016.335815
 30
0.0
 11
2569.790444
 21
4017.042847
 31
0.0
  0
LINE
  5
11B4
100
AcDbEntity
  8
11000_LEFT
370
    25
390
0
  6
CONTINUOUS
 62
     7
100
AcDbLine
 10
2570.747551
 20
4016.835815
 30
0.0
 11
2570.040444
 21
4017.542847
 31
0.0
  0
LINE
  5
11B5
100
AcDbEntity
  8
11000_LEFT
370
    25
390
0
  6
CONTINUOUS
 62
     7
100
AcDbLine
 10
2982.45855
 20
4029.625244
 30
0.0
 11
2982.083122
 21
4030.00061
 31
0.0
  0
LINE
  5
11B6
100
AcDbEntity
  8
11000_LEFT
370
    25
390
0
  6
CONTINUOUS
 62
     7
100
AcDbLine
 10
3007.424156
 20
2075.770101
 30
0.0
 11
3007.388786
 21
2075.805456
 31
0.0
  0
LINE
  5
11B7
100
AcDbEntity
  8
11000_LEFT
370
    25
390
0
  6
CONTINUOUS
 62
     7
100
AcDbLine
 10
2532.27788
 20
4059.19458
 30
0.0
 11
2532.242524
 21
4059.229858
 31
0.0
  0
LINE
  5
11B8
100
AcDbEntity
  8
11000_LEFT
370
    25
390
0
  6
CONTINUOUS
 62
     7
100
AcDbLine
 10
2520.833336
 20
2067.5
 30
0.0
 11
3018.833336
 21
2067.5
 31
0.0
  0
LINE
  5
11B9
100
AcDbEntity
  8
11000_LEFT
370
    25
390
0
  6
CONTINUOUS
 62
     7
100
AcDbLine
 10
3009.333336
 20
2070.0
 30
0.0
 11
3019.833336
 21
2070.0
 31
0.0
  0
LINE
  5
11BA
100
AcDbEntity
  8
11000_LEFT
370
    25
390
0
  6
CONTINUOUS
 62
     7
100
AcDbLine
 10
2523.833336
 20
2070.0
 30
0.0
 11
2530.333336
 21
2070.0
 31
0.0
  0
LINE
  5
11BB
100
AcDbEntity
  8
11000_LEFT
370
    25
390
0
  6
CONTINUOUS
 62
     7
100
AcDbLine
 10
2520.833336
 20
2070.0
 30
0.0
 11
2523.833336
 21
2070.0
 31
0.0
  0
LINE
  5
11BC
100
AcDbEntity
  8
11000_LEFT
370
    25
390
0
  6
CONTINUOUS
 62
     7
100
AcDbLine
 10
2523.333336
 20
2070.0
 30
0.0
 11
2529.833336
 21
2070.0
 31
0.0
  0
LINE
  5
11BD
100
AcDbEntity
  8
11000_LEFT
370
    25
390
0
  6
CONTINUOUS
 62
     7
100
AcDbLine
 10
2519.833336
 20
2070.0
 30
0.0
 11
2523.333336
 21
2070.0
 31
0.0
  0
LINE
  5
11BE
100
AcDbEntity
  8
11000_LEFT
370
    25
390
0
  6
CONTINUOUS
 62
     7
100
AcDbLine
 10
2530.333336
 20
2071.0
 30
0.0
 11
3009.333336
 21
2071.0
 31
0.0
  0
LINE
  5
11BF
100
AcDbEntity
  8
11000_LEFT
370
    25
390
0
  6
CONTINUOUS
 62
     7
100
AcDbLine
 10
3009.333367
 20
2072.5
 30
0.0
 11
3009.833367
 21
2072.5
 31
0.0
  0
LINE
  5
11C0
100
AcDbEntity
  8
11000_LEFT
370
    25
390
0
  6
CONTINUOUS
 62
     7
100
AcDbLine
 10
2529.833357
 20
2072.5
 30
0.0
 11
2530.333357
 21
2072.5
 31
0.0
  0
LINE
  5
11C1
100
AcDbEntity
  8
11000_LEFT
370
    25
390
0
  6
CONTINUOUS
 62
     7
100
AcDbLine
 10
2617.588349
 20
2089.0
 30
0.0
 11
2622.078369
 21
2089.0
 31
0.0
  0
LINE
  5
11C2
100
AcDbEntity
  8
11000_LEFT
370
    25
390
0
  6
CONTINUOUS
 62
     7
100
AcDbLine
 10
2717.588356
 20
2089.0
 30
0.0
 11
2722.078377
 21
2089.0
 31
0.0
  0
LINE
  5
11C3
100
AcDbEntity
  8
11000_LEFT
370
    25
390
0
  6
CONTINUOUS
 62
     7
100
AcDbLine
 10
2817.588341
 20
2089.0
 30
0.0
 11
2822.078362
 21
2089.0
 31
0.0
  0
LINE
  5
11C4
100
AcDbEntity
  8
11000_LEFT
370
    25
390
0
  6
CONTINUOUS
 62
     7
100
AcDbLine
 10
2917.588341
 20
2089.0
 30
0.0
 11
2922.078362
 21
2089.0
 31
0.0
  0
LINE
  5
11C5
100
AcDbEntity
  8
11000_LEFT
370
    25
390
0
  6
CONTINUOUS
 62
     7
100
AcDbLine
 10
2563.633587
 20
2111.050251
 30
0.0
 11
2976.033074
 21
2111.050251
 31
0.0
  0
LINE
  5
11C6
100
AcDbEntity
  8
11000_LEFT
370
    25
390
0
  6
CONTINUOUS
 62
     7
100
AcDbLine
 10
2566.108463
 20
2113.525127
 30
0.0
 11
2973.55822
 21
2113.525127
 31
0.0
  0
LINE
  5
11C7
100
AcDbEntity
  8
11000_LEFT
370
    25
390
0
  6
CONTINUOUS
 62
     7
100
AcDbLine
 10
2570.040444
 20
2117.457108
 30
0.0
 11
2969.626244
 21
2117.457108
 31
0.0
  0
LINE
  5
11C8
100
AcDbEntity
  8
11000_LEFT
370
    25
390
0
  6
CONTINUOUS
 62
     7
100
AcDbLine
 10
2570.747551
 20
2118.164215
 30
0.0
 11
2968.919121
 21
2118.164215
 31
0.0
  0
LINE
  5
11C9
100
AcDbEntity
  8
11000_LEFT
370
    25
390
0
  6
CONTINUOUS
 62
     7
100
AcDbLine
 10
2519.833336
 20
2134.0
 30
0.0
 11
2519.833361
 21
2134.0
 31
0.0
  0
LINE
  5
11CA
100
AcDbEntity
  8
11000_LEFT
370
    25
390
0
  6
CONTINUOUS
 62
     7
100
AcDbLine
 10
2949.833336
 20
2135.5
 30
0.0
 11
2955.833336
 21
2135.5
 31
0.0
  0
LINE
  5
11CB
100
AcDbEntity
  8
11000_LEFT
370
    25
390
0
  6
CONTINUOUS
 62
     7
100
AcDbLine
 10
2583.833336
 20
2135.5
 30
0.0
 11
2589.833336
 21
2135.5
 31
0.0
  0
LINE
  5
11CC
100
AcDbEntity
  8
11000_LEFT
370
    25
390
0
  6
CONTINUOUS
 62
     7
100
AcDbLine
 10
2583.833336
 20
2138.248077
 30
0.0
 11
2589.333336
 21
2138.248077
 31
0.0
  0
LINE
  5
11CD
100
AcDbEntity
  8
11000_LEFT
370
    25
390
0
  6
CONTINUOUS
 62
     7
100
AcDbLine
 10
2950.333336
 20
2138.248077
 30
0.0
 11
2955.833336
 21
2138.248077
 31
0.0
  0
LINE
  5
11CE
100
AcDbEntity
  8
11000_LEFT
370
    25
390
0
  6
CONTINUOUS
 62
     7
100
AcDbLine
 10
2589.833336
 20
2139.0
 30
0.0
 11
2949.833336
 21
2139.0
 31
0.0
  0
LINE
  5
11CF
100
AcDbEntity
  8
11000_LEFT
370
    25
390
0
  6
CONTINUOUS
 62
     7
100
AcDbLine
 10
2589.833336
 20
2142.5
 30
0.0
 11
2949.833336
 21
2142.5
 31
0.0
  0
LINE
  5
11D0
100
AcDbEntity
  8
11000_LEFT
370
    25
390
0
  6
CONTINUOUS
 62
     7
100
AcDbLine
 10
2589.333336
 20
2143.0
 30
0.0
 11
2594.833336
 21
2143.0
 31
0.0
  0
LINE
  5
11D1
100
AcDbEntity
  8
11000_LEFT
370
    25
390
0
  6
CONTINUOUS
 62
     7
100
AcDbLine
 10
2948.333336
 20
2143.0
 30
0.0
 11
2950.333336
 21
2143.0
 31
0.0
  0
LINE
  5
11D2
100
AcDbEntity
  8
11000_LEFT
370
    25
390
0
  6
CONTINUOUS
 62
     7
100
AcDbLine
 10
2944.833336
 20
2143.0
 30
0.0
 11
2948.333336
 21
2143.0
 31
0.0
  0
LINE
  5
11D3
100
AcDbEntity
  8
11000_LEFT
370
    25
390
0
  6
CONTINUOUS
 62
     7
100
AcDbLine
 10
2589.333336
 20
3992.0
 30
0.0
 11
2594.833336
 21
3992.0
 31
0.0
  0
LINE
  5
11D4
100
AcDbEntity
  8
11000_LEFT
370
    25
390
0
  6
CONTINUOUS
 62
     7
100
AcDbLine
 10
2944.833336
 20
3992.0
 30
0.0
 11
2948.333336
 21
3992.0
 31
0.0
  0
LINE
  5
11D5
100
AcDbEntity
  8
11000_LEFT
370
    25
390
0
  6
CONTINUOUS
 62
     7
100
AcDbLine
 10
2948.333336
 20
3992.0
 30
0.0
 11
2950.333336
 21
3992.0
 31
0.0
  0
LINE
  5
11D6
100
AcDbEntity
  8
11000_LEFT
370
    25
390
0
  6
CONTINUOUS
 62
     7
100
AcDbLine
 10
2589.833336
 20
3992.5
 30
0.0
 11
2949.833336
 21
3992.5
 31
0.0
  0
LINE
  5
11D7
100
AcDbEntity
  8
11000_LEFT
370
    25
390
0
  6
CONTINUOUS
 62
     7
100
AcDbLine
 10
2589.833336
 20
3996.0
 30
0.0
 11
2949.833336
 21
3996.0
 31
0.0
  0
LINE
  5
11D8
100
AcDbEntity
  8
11000_LEFT
370
    25
390
0
  6
CONTINUOUS
 62
     7
100
AcDbLine
 10
2583.833336
 20
3996.751953
 30
0.0
 11
2589.333336
 21
3996.751953
 31
0.0
  0
LINE
  5
11D9
100
AcDbEntity
  8
11000_LEFT
370
    25
390
0
  6
CONTINUOUS
 62
     7
100
AcDbLine
 10
2950.333336
 20
3996.751953
 30
0.0
 11
2955.833336
 21
3996.751953
 31
0.0
  0
LINE
  5
11DA
100
AcDbEntity
  8
11000_LEFT
370
    25
390
0
  6
CONTINUOUS
 62
     7
100
AcDbLine
 10
2583.833336
 20
3999.5
 30
0.0
 11
2589.833336
 21
3999.5
 31
0.0
  0
LINE
  5
11DB
100
AcDbEntity
  8
11000_LEFT
370
    25
390
0
  6
CONTINUOUS
 62
     7
100
AcDbLine
 10
2949.833336
 20
3999.5
 30
0.0
 11
2955.833336
 21
3999.5
 31
0.0
  0
LINE
  5
11DC
100
AcDbEntity
  8
11000_LEFT
370
    25
390
0
  6
CONTINUOUS
 62
     7
100
AcDbLine
 10
2570.747551
 20
4016.835815
 30
0.0
 11
2968.919121
 21
4016.835815
 31
0.0
  0
LINE
  5
11DD
100
AcDbEntity
  8
11000_LEFT
370
    25
390
0
  6
CONTINUOUS
 62
     7
100
AcDbLine
 10
2570.040444
 20
4017.542847
 30
0.0
 11
2969.626244
 21
4017.542847
 31
0.0
  0
LINE
  5
11DE
100
AcDbEntity
  8
11000_LEFT
370
    25
390
0
  6
CONTINUOUS
 62
     7
100
AcDbLine
 10
2568.272675
 20
4019.310669
 30
0.0
 11
2568.27351
 21
4019.310669
 31
0.0
  0
LINE
  5
11DF
100
AcDbEntity
  8
11000_LEFT
370
    25
390
0
  6
CONTINUOUS
 62
     7
100
AcDbLine
 10
2566.108463
 20
4021.474854
 30
0.0
 11
2973.55822
 21
4021.474854
 31
0.0
  0
LINE
  5
11E0
100
AcDbEntity
  8
11000_LEFT
370
    25
390
0
  6
CONTINUOUS
 62
     7
100
AcDbLine
 10
2564.340695
 20
4023.242676
 30
0.0
 11
2564.340748
 21
4023.242676
 31
0.0
  0
LINE
  5
11E1
100
AcDbEntity
  8
11000_LEFT
370
    25
390
0
  6
CONTINUOUS
 62
     7
100
AcDbLine
 10
2563.633587
 20
4023.949707
 30
0.0
 11
2976.033074
 21
4023.949707
 31
0.0
  0
LINE
  5
11E2
100
AcDbEntity
  8
11000_LEFT
370
    25
390
0
  6
CONTINUOUS
 62
     7
100
AcDbLine
 10
2519.833336
 20
4027.5
 30
0.0
 11
2519.833653
 21
4027.5
 31
0.0
  0
LINE
  5
11E3
100
AcDbEntity
  8
11000_LEFT
370
    25
390
0
  6
CONTINUOUS
 62
     7
100
AcDbLine
 10
2917.588371
 20
4046.0
 30
0.0
 11
2922.078331
 21
4046.0
 31
0.0
  0
LINE
  5
11E4
100
AcDbEntity
  8
11000_LEFT
370
    25
390
0
  6
CONTINUOUS
 62
     7
100
AcDbLine
 10
2817.588371
 20
4046.0
 30
0.0
 11
2822.078331
 21
4046.0
 31
0.0
  0
LINE
  5
11E5
100
AcDbEntity
  8
11000_LEFT
370
    25
390
0
  6
CONTINUOUS
 62
     7
100
AcDbLine
 10
2717.588387
 20
4046.0
 30
0.0
 11
2722.078346
 21
4046.0
 31
0.0
  0
LINE
  5
11E6
100
AcDbEntity
  8
11000_LEFT
370
    25
390
0
  6
CONTINUOUS
 62
     7
100
AcDbLine
 10
2617.588387
 20
4046.0
 30
0.0
 11
2622.078339
 21
4046.0
 31
0.0
  0
LINE
  5
11E7
100
AcDbEntity
  8
11000_LEFT
370
    25
390
0
  6
CONTINUOUS
 62
     7
100
AcDbLine
 10
2519.833336
 20
4056.5
 30
0.0
 11
2519.833653
 21
4056.5
 31
0.0
  0
LINE
  5
11E8
100
AcDbEntity
  8
11000_LEFT
370
    25
390
0
  6
CONTINUOUS
 62
     7
100
AcDbLine
 10
2519.833336
 20
4059.0
 30
0.0
 11
2519.833361
 21
4059.0
 31
0.0
  0
LINE
  5
11E9
100
AcDbEntity
  8
11000_LEFT
370
    25
390
0
  6
CONTINUOUS
 62
     7
100
AcDbLine
 10
3009.333367
 20
4062.5
 30
0.0
 11
3009.833367
 21
4062.5
 31
0.0
  0
LINE
  5
11EA
100
AcDbEntity
  8
11000_LEFT
370
    25
390
0
  6
CONTINUOUS
 62
     7
100
AcDbLine
 10
2529.833357
 20
4062.5
 30
0.0
 11
2530.333357
 21
4062.5
 31
0.0
  0
LINE
  5
11EB
100
AcDbEntity
  8
11000_LEFT
370
    25
390
0
  6
CONTINUOUS
 62
     7
100
AcDbLine
 10
2530.333336
 20
4064.0
 30
0.0
 11
3009.333336
 21
4064.0
 31
0.0
  0
LINE
  5
11EC
100
AcDbEntity
  8
11000_LEFT
370
    25
390
0
  6
CONTINUOUS
 62
     7
100
AcDbLine
 10
3009.333336
 20
4065.0
 30
0.0
 11
3019.833336
 21
4065.0
 31
0.0
  0
LINE
  5
11ED
100
AcDbEntity
  8
11000_LEFT
370
    25
390
0
  6
CONTINUOUS
 62
     7
100
AcDbLine
 10
2529.833357
 20
4065.0
 30
0.0
 11
2530.333357
 21
4065.0
 31
0.0
  0
LINE
  5
11EE
100
AcDbEntity
  8
11000_LEFT
370
    25
390
0
  6
CONTINUOUS
 62
     7
100
AcDbLine
 10
2529.833337
 20
4065.0
 30
0.0
 11
2530.333336
 21
4065.0
 31
0.0
  0
LINE
  5
11EF
100
AcDbEntity
  8
11000_LEFT
370
    25
390
0
  6
CONTINUOUS
 62
     7
100
AcDbLine
 10
2523.333336
 20
4065.0
 30
0.0
 11
2529.833336
 21
4065.0
 31
0.0
  0
LINE
  5
11F0
100
AcDbEntity
  8
11000_LEFT
370
    25
390
0
  6
CONTINUOUS
 62
     7
100
AcDbLine
 10
2519.833336
 20
4065.0
 30
0.0
 11
2523.333336
 21
4065.0
 31
0.0
  0
LINE
  5
11F1
100
AcDbEntity
  8
11000_LEFT
370
    25
390
0
  6
CONTINUOUS
 62
     7
100
AcDbLine
 10
2520.833336
 20
4067.5
 30
0.0
 11
3018.833336
 21
4067.5
 31
0.0
  0
LINE
  5
11F2
100
AcDbEntity
  8
11000_LEFT
370
    25
390
0
  6
CONTINUOUS
 62
     7
100
AcDbLine
 10
3007.388786
 20
4059.19458
 30
0.0
 11
3007.424156
 21
4059.229858
 31
0.0
  0
LINE
  5
11F3
100
AcDbEntity
  8
11000_LEFT
370
    25
390
0
  6
CONTINUOUS
 62
     7
100
AcDbLine
 10
2530.333058
 20
2077.750278
 30
0.0
 11
2530.333477
 21
2077.750696
 31
0.0
  0
LINE
  5
11F4
100
AcDbEntity
  8
11000_LEFT
370
    25
390
0
  6
CONTINUOUS
 62
     7
100
AcDbLine
 10
2532.101533
 20
2075.981803
 30
0.0
 11
2532.101956
 21
2075.982225
 31
0.0
  0
LINE
  5
11F5
100
AcDbEntity
  8
11000_LEFT
370
    25
390
0
  6
CONTINUOUS
 62
     7
100
AcDbLine
 10
2557.208111
 20
4029.625244
 30
0.0
 11
2557.583538
 21
4030.00061
 31
0.0
  0
LINE
  5
11F6
100
AcDbEntity
  8
11000_LEFT
370
    25
390
0
  6
CONTINUOUS
 62
     7
100
AcDbLine
 10
2969.169121
 20
4016.335815
 30
0.0
 11
2969.876244
 21
4017.042847
 31
0.0
  0
LINE
  5
11F7
100
AcDbEntity
  8
11000_LEFT
370
    25
390
0
  6
CONTINUOUS
 62
     7
100
AcDbLine
 10
2968.919121
 20
4016.835815
 30
0.0
 11
2969.626244
 21
4017.542847
 31
0.0
  0
LINE
  5
11F8
100
AcDbEntity
  8
11000_LEFT
370
    25
390
0
  6
CONTINUOUS
 62
     7
100
AcDbLine
 10
3007.388786
 20
2075.805456
 30
0.0
 11
3007.564446
 21
2075.981096
 31
0.0
  0
LINE
  5
11F9
100
AcDbEntity
  8
11000_LEFT
370
    25
390
0
  6
CONTINUOUS
 62
     7
100
AcDbLine
 10
2532.242524
 20
2075.770101
 30
0.0
 11
2532.27788
 21
2075.805456
 31
0.0
  0
LINE
  5
11FA
100
AcDbEntity
  8
11000_LEFT
370
    25
390
0
  6
CONTINUOUS
 62
     7
100
AcDbLine
 10
2530.333766
 20
4057.250488
 30
0.0
 11
2532.10224
 21
4059.018921
 31
0.0
  0
LINE
  5
11FB
100
AcDbEntity
  8
11000_LEFT
370
    25
390
0
  6
CONTINUOUS
 62
     7
100
AcDbLine
 10
2530.333336
 20
4057.320679
 30
0.0
 11
2532.242524
 21
4059.229858
 31
0.0
  0
LINE
  5
11FC
100
AcDbEntity
  8
11000_LEFT
370
    25
390
0
  6
CONTINUOUS
 62
     7
100
AcDbLine
 10
2973.55822
 20
4021.474854
 30
0.0
 11
2976.033074
 21
4023.949707
 31
0.0
  0
LINE
  5
11FD
100
AcDbEntity
  8
11000_LEFT
370
    25
390
0
  6
CONTINUOUS
 62
     7
100
AcDbLine
 10
2980.314659
 20
4031.769165
 30
0.0
 11
3007.564446
 21
4059.018921
 31
0.0
  0
LINE
  5
11FE
100
AcDbEntity
  8
11000_LEFT
370
    25
390
0
  6
CONTINUOUS
 62
     7
100
AcDbLine
 10
2532.10224
 20
2075.981096
 30
0.0
 11
2559.352013
 21
2103.230869
 31
0.0
  0
LINE
  5
11FF
100
AcDbEntity
  8
11000_LEFT
370
    25
390
0
  6
CONTINUOUS
 62
     7
100
AcDbLine
 10
2530.333766
 20
2077.74957
 30
0.0
 11
2557.583538
 21
2104.999344
 31
0.0
  0
LINE
  5
1200
100
AcDbEntity
  8
11000_LEFT
370
    25
390
0
  6
CONTINUOUS
 62
     7
100
AcDbLine
 10
2529.833336
 20
2078.0
 30
0.0
 11
2563.383587
 21
2111.550251
 31
0.0
  0
LINE
  5
1201
100
AcDbEntity
  8
11000_LEFT
370
    25
390
0
  6
CONTINUOUS
 62
     7
100
AcDbLine
 10
2557.618691
 20
2105.035355
 30
0.0
 11
2575.833336
 21
2123.25
 31
0.0
  0
LINE
  5
1202
100
AcDbEntity
  8
11000_LEFT
370
    25
390
0
  6
CONTINUOUS
 62
     7
100
AcDbLine
 10
2563.383587
 20
2111.550251
 30
0.0
 11
2573.085259
 21
2121.251923
 31
0.0
  0
LINE
  5
1203
100
AcDbEntity
  8
11000_LEFT
370
    25
390
0
  6
CONTINUOUS
 62
     7
100
AcDbLine
 10
2973.80822
 20
4020.974854
 30
0.0
 11
2976.283074
 21
4023.449707
 31
0.0
  0
LINE
  5
1204
100
AcDbEntity
  8
11000_LEFT
370
    25
390
0
  6
CONTINUOUS
 62
     7
100
AcDbLine
 10
2976.283074
 20
4023.449707
 30
0.0
 11
3009.833336
 21
4057.0
 31
0.0
  0
LINE
  5
1205
100
AcDbEntity
  8
11000_LEFT
370
    25
390
0
  6
CONTINUOUS
 62
     7
100
AcDbLine
 10
2976.033074
 20
4023.949707
 30
0.0
 11
2982.047966
 21
4029.9646
 31
0.0
  0
LINE
  5
1206
100
AcDbEntity
  8
11000_LEFT
370
    25
390
0
  6
CONTINUOUS
 62
     7
100
AcDbLine
 10
3007.424156
 20
2075.770101
 30
0.0
 11
3009.333336
 21
2077.679289
 31
0.0
  0
LINE
  5
1207
100
AcDbEntity
  8
11000_LEFT
370
    25
390
0
  6
CONTINUOUS
 62
     7
100
AcDbLine
 10
2982.083122
 20
4030.00061
 30
0.0
 11
3009.332909
 21
4057.250488
 31
0.0
  0
LINE
  5
1208
100
AcDbEntity
  8
11000_LEFT
370
    25
390
0
  6
CONTINUOUS
 62
     7
100
AcDbLine
 10
3007.564446
 20
2075.981096
 30
0.0
 11
3009.332909
 21
2077.74957
 31
0.0
  0
LINE
  5
1209
100
AcDbEntity
  8
11000_LEFT
370
    25
390
0
  6
CONTINUOUS
 62
     7
100
AcDbLine
 10
2980.314659
 20
2103.230869
 30
0.0
 11
2982.083122
 21
2104.999344
 31
0.0
  0
LINE
  5
120A
100
AcDbEntity
  8
11000_LEFT
370
    25
390
0
  6
CONTINUOUS
 62
     7
100
AcDbLine
 10
2963.833336
 20
4011.75
 30
0.0
 11
2968.919121
 21
4016.835815
 31
0.0
  0
LINE
  5
120B
100
AcDbEntity
  8
11000_LEFT
370
    25
390
0
  6
CONTINUOUS
 62
     7
100
AcDbLine
 10
2982.083122
 20
2104.999344
 30
0.0
 11
2982.45855
 21
2105.374775
 31
0.0
  0
LINE
  5
120C
100
AcDbEntity
  8
11000_LEFT
370
    25
390
0
  6
CONTINUOUS
 62
     7
100
AcDbLine
 10
2969.876244
 20
4017.042847
 30
0.0
 11
2973.80822
 21
4020.974854
 31
0.0
  0
LINE
  5
120D
100
AcDbEntity
  8
11000_LEFT
370
    25
390
0
  6
CONTINUOUS
 62
     7
100
AcDbLine
 10
2969.626244
 20
4017.542847
 30
0.0
 11
2973.55822
 21
4021.474854
 31
0.0
  0
LINE
  5
120E
100
AcDbEntity
  8
11000_LEFT
370
    25
390
0
  6
CONTINUOUS
 62
     7
100
AcDbLine
 10
2980.103447
 20
2103.090813
 30
0.0
 11
2982.047966
 21
2105.035355
 31
0.0
  0
LINE
  5
120F
100
AcDbEntity
  8
11000_LEFT
370
    25
390
0
  6
CONTINUOUS
 62
     7
100
AcDbLine
 10
3009.332909
 20
2077.74957
 30
0.0
 11
3009.708336
 21
2078.125002
 31
0.0
  0
LINE
  5
1210
100
AcDbEntity
  8
11000_LEFT
370
    25
390
0
  6
CONTINUOUS
 62
     7
100
AcDbLine
 10
2557.618691
 20
4029.9646
 30
0.0
 11
2559.563236
 21
4031.90918
 31
0.0
  0
LINE
  5
1211
100
AcDbEntity
  8
11000_LEFT
370
    25
390
0
  6
CONTINUOUS
 62
     7
100
AcDbLine
 10
2966.581413
 20
4013.748047
 30
0.0
 11
2969.169121
 21
4016.335815
 31
0.0
  0
LINE
  5
1212
100
AcDbEntity
  8
11000_LEFT
370
    25
390
0
  6
CONTINUOUS
 62
     7
100
AcDbLine
 10
2559.527653
 20
2103.055229
 30
0.0
 11
2559.563236
 21
2103.090813
 31
0.0
  0
LINE
  5
1213
100
AcDbEntity
  8
11000_LEFT
370
    25
390
0
  6
CONTINUOUS
 62
     7
100
AcDbLine
 10
2557.583538
 20
4030.00061
 30
0.0
 11
2559.352013
 21
4031.769165
 31
0.0
  0
LINE
  5
1214
100
AcDbEntity
  8
11000_LEFT
370
    25
390
0
  6
CONTINUOUS
 62
     7
100
AcDbLine
 10
2980.139031
 20
2103.055229
 30
0.0
 11
2980.314659
 21
2103.230869
 31
0.0
  0
LINE
  5
1215
100
AcDbEntity
  8
11000_LEFT
370
    25
390
0
  6
CONTINUOUS
 62
     7
100
AcDbLine
 10
2559.352013
 20
4031.769165
 30
0.0
 11
2559.527653
 21
4031.944824
 31
0.0
  0
LINE
  5
1216
100
AcDbEntity
  8
11000_LEFT
370
    25
390
0
  6
CONTINUOUS
 62
     7
100
AcDbLine
 10
2532.10224
 20
4059.018921
 30
0.0
 11
2532.27788
 21
4059.19458
 31
0.0
  0
LINE
  5
1217
100
AcDbEntity
  8
11000_LEFT
370
    25
390
0
  6
CONTINUOUS
 62
     7
100
AcDbLine
 10
2529.958338
 20
4056.875
 30
0.0
 11
2530.333766
 21
4057.250488
 31
0.0
  0
LINE
  5
1218
100
AcDbEntity
  8
11000_LEFT
370
    25
390
0
  6
CONTINUOUS
 62
     7
100
AcDbLine
 10
2980.103447
 20
4031.90918
 30
0.0
 11
2980.139031
 21
4031.944824
 31
0.0
  0
LINE
  5
1219
100
AcDbEntity
  8
11000_LEFT
370
    25
390
0
  6
CONTINUOUS
 62
     7
100
AcDbLine
 10
2519.833336
 20
2070.0
 30
0.0
 11
2519.833336
 21
4065.0
 31
0.0
  0
LINE
  5
121A
100
AcDbEntity
  8
11000_LEFT
370
    25
390
0
  6
CONTINUOUS
 62
     7
100
AcDbLine
 10
2520.833336
 20
4065.0
 30
0.0
 11
2520.833336
 21
4067.5
 31
0.0
  0
LINE
  5
121B
100
AcDbEntity
  8
11000_LEFT
370
    25
390
0
  6
CONTINUOUS
 62
     7
100
AcDbLine
 10
2520.833336
 20
2067.5
 30
0.0
 11
2520.833336
 21
2070.0
 31
0.0
  0
LINE
  5
121C
100
AcDbEntity
  8
11000_LEFT
370
    25
390
0
  6
CONTINUOUS
 62
     7
100
AcDbLine
 10
2523.333336
 20
2070.0
 30
0.0
 11
2523.333336
 21
4065.0
 31
0.0
  0
LINE
  5
121D
100
AcDbEntity
  8
11000_LEFT
370
    25
390
0
  6
CONTINUOUS
 62
     7
100
AcDbLine
 10
2523.833336
 20
4065.0
 30
0.0
 11
2523.833336
 21
4067.5
 31
0.0
  0
LINE
  5
121E
100
AcDbEntity
  8
11000_LEFT
370
    25
390
0
  6
CONTINUOUS
 62
     7
100
AcDbLine
 10
2523.833336
 20
2067.5
 30
0.0
 11
2523.833336
 21
2070.0
 31
0.0
  0
LINE
  5
121F
100
AcDbEntity
  8
11000_LEFT
370
    25
390
0
  6
CONTINUOUS
 62
     7
100
AcDbLine
 10
2528.333336
 20
2070.0
 30
0.0
 11
2528.333336
 21
2070.000021
 31
0.0
  0
LINE
  5
1220
100
AcDbEntity
  8
11000_LEFT
370
    25
390
0
  6
CONTINUOUS
 62
     7
100
AcDbLine
 10
2528.333336
 20
2067.5
 30
0.0
 11
2528.333336
 21
2067.500026
 31
0.0
  0
LINE
  5
1221
100
AcDbEntity
  8
11000_LEFT
370
    25
390
0
  6
CONTINUOUS
 62
     7
100
AcDbLine
 10
2529.833336
 20
2070.0
 30
0.0
 11
2529.833336
 21
2078.0
 31
0.0
  0
LINE
  5
1222
100
AcDbEntity
  8
11000_LEFT
370
    25
390
0
  6
CONTINUOUS
 62
     7
100
AcDbLine
 10
2529.833336
 20
4057.0
 30
0.0
 11
2529.833336
 21
4065.0
 31
0.0
  0
LINE
  5
1223
100
AcDbEntity
  8
11000_LEFT
370
    25
390
0
  6
CONTINUOUS
 62
     7
100
AcDbLine
 10
2530.333336
 20
4057.320679
 30
0.0
 11
2530.333336
 21
4067.5
 31
0.0
  0
LINE
  5
1224
100
AcDbEntity
  8
11000_LEFT
370
    25
390
0
  6
CONTINUOUS
 62
     7
100
AcDbLine
 10
2530.333336
 20
2068.55051
 30
0.0
 11
2530.333336
 21
2071.0
 31
0.0
  0
LINE
  5
1225
100
AcDbEntity
  8
11000_LEFT
370
    25
390
0
  6
CONTINUOUS
 62
     7
100
AcDbLine
 10
2530.333336
 20
2071.0
 30
0.0
 11
2530.333336
 21
2077.679289
 31
0.0
  0
LINE
  5
1226
100
AcDbEntity
  8
11000_LEFT
370
    25
390
0
  6
CONTINUOUS
 62
     7
100
AcDbLine
 10
2530.333336
 20
2067.5
 30
0.0
 11
2530.333336
 21
2068.55051
 31
0.0
  0
LINE
  5
1227
100
AcDbEntity
  8
11000_LEFT
370
    25
390
0
  6
CONTINUOUS
 62
     7
100
AcDbLine
 10
2563.383587
 20
2111.550251
 30
0.0
 11
2563.383587
 21
4023.449707
 31
0.0
  0
LINE
  5
1228
100
AcDbEntity
  8
11000_LEFT
370
    25
390
0
  6
CONTINUOUS
 62
     7
100
AcDbLine
 10
2565.858463
 20
2114.025127
 30
0.0
 11
2565.858463
 21
4020.974854
 31
0.0
  0
LINE
  5
1229
100
AcDbEntity
  8
11000_LEFT
370
    25
390
0
  6
CONTINUOUS
 62
     7
100
AcDbLine
 10
2569.790444
 20
2117.957108
 30
0.0
 11
2569.790444
 21
4017.042847
 31
0.0
  0
LINE
  5
122A
100
AcDbEntity
  8
11000_LEFT
370
    25
390
0
  6
CONTINUOUS
 62
     7
100
AcDbLine
 10
2570.497551
 20
2118.664215
 30
0.0
 11
2570.497551
 21
4016.335815
 31
0.0
  0
LINE
  5
122B
100
AcDbEntity
  8
11000_LEFT
370
    25
390
0
  6
CONTINUOUS
 62
     7
100
AcDbLine
 10
2573.085259
 20
2121.251923
 30
0.0
 11
2573.085259
 21
2127.5
 31
0.0
  0
LINE
  5
122C
100
AcDbEntity
  8
11000_LEFT
370
    25
390
0
  6
CONTINUOUS
 62
     7
100
AcDbLine
 10
2573.085259
 20
4007.5
 30
0.0
 11
2573.085259
 21
4013.748047
 31
0.0
  0
LINE
  5
122D
100
AcDbEntity
  8
11000_LEFT
370
    25
390
0
  6
CONTINUOUS
 62
     7
100
AcDbLine
 10
2575.833336
 20
4007.5
 30
0.0
 11
2575.833336
 21
4011.75
 31
0.0
  0
LINE
  5
122E
100
AcDbEntity
  8
11000_LEFT
370
    25
390
0
  6
CONTINUOUS
 62
     7
100
AcDbLine
 10
2575.833336
 20
2123.25
 30
0.0
 11
2575.833336
 21
2127.5
 31
0.0
  0
LINE
  5
122F
100
AcDbEntity
  8
11000_LEFT
370
    25
390
0
  6
CONTINUOUS
 62
     7
100
AcDbLine
 10
2589.333336
 20
2138.248077
 30
0.0
 11
2589.333336
 21
2143.0
 31
0.0
  0
LINE
  5
1230
100
AcDbEntity
  8
11000_LEFT
370
    25
390
0
  6
CONTINUOUS
 62
     7
100
AcDbLine
 10
2589.333336
 20
3992.0
 30
0.0
 11
2589.333336
 21
3996.751953
 31
0.0
  0
LINE
  5
1231
100
AcDbEntity
  8
11000_LEFT
370
    25
390
0
  6
CONTINUOUS
 62
     7
100
AcDbLine
 10
2589.833336
 20
3992.5
 30
0.0
 11
2589.833336
 21
3999.5
 31
0.0
  0
LINE
  5
1232
100
AcDbEntity
  8
11000_LEFT
370
    25
390
0
  6
CONTINUOUS
 62
     7
100
AcDbLine
 10
2589.833336
 20
2135.5
 30
0.0
 11
2589.833336
 21
2139.0
 31
0.0
  0
LINE
  5
1233
100
AcDbEntity
  8
11000_LEFT
370
    25
390
0
  6
CONTINUOUS
 62
     7
100
AcDbLine
 10
2589.833336
 20
2139.0
 30
0.0
 11
2589.833336
 21
2142.5
 31
0.0
  0
LINE
  5
1234
100
AcDbEntity
  8
11000_LEFT
370
    25
390
0
  6
CONTINUOUS
 62
     7
100
AcDbLine
 10
2591.333336
 20
2143.0
 30
0.0
 11
2591.333336
 21
3992.0
 31
0.0
  0
LINE
  5
1235
100
AcDbEntity
  8
11000_LEFT
370
    25
390
0
  6
CONTINUOUS
 62
     7
100
AcDbLine
 10
2594.833336
 20
2143.0
 30
0.0
 11
2594.833336
 21
3992.0
 31
0.0
  0
LINE
  5
1236
100
AcDbEntity
  8
11000_LEFT
370
    25
390
0
  6
CONTINUOUS
 62
     7
100
AcDbLine
 10
2944.833336
 20
2143.0
 30
0.0
 11
2944.833336
 21
3992.0
 31
0.0
  0
LINE
  5
1237
100
AcDbEntity
  8
11000_LEFT
370
    25
390
0
  6
CONTINUOUS
 62
     7
100
AcDbLine
 10
2948.333336
 20
2143.0
 30
0.0
 11
2948.333336
 21
3992.0
 31
0.0
  0
LINE
  5
1238
100
AcDbEntity
  8
11000_LEFT
370
    25
390
0
  6
CONTINUOUS
 62
     7
100
AcDbLine
 10
2949.833336
 20
3992.5
 30
0.0
 11
2949.833336
 21
3999.5
 31
0.0
  0
LINE
  5
1239
100
AcDbEntity
  8
11000_LEFT
370
    25
390
0
  6
CONTINUOUS
 62
     7
100
AcDbLine
 10
2949.833336
 20
2139.0
 30
0.0
 11
2949.833336
 21
2142.5
 31
0.0
  0
LINE
  5
123A
100
AcDbEntity
  8
11000_LEFT
370
    25
390
0
  6
CONTINUOUS
 62
     7
100
AcDbLine
 10
2949.833336
 20
2135.5
 30
0.0
 11
2949.833336
 21
2139.0
 31
0.0
  0
LINE
  5
123B
100
AcDbEntity
  8
11000_LEFT
370
    25
390
0
  6
CONTINUOUS
 62
     7
100
AcDbLine
 10
2950.333336
 20
3992.0
 30
0.0
 11
2950.333336
 21
3996.751953
 31
0.0
  0
LINE
  5
123C
100
AcDbEntity
  8
11000_LEFT
370
    25
390
0
  6
CONTINUOUS
 62
     7
100
AcDbLine
 10
2950.333336
 20
2138.248077
 30
0.0
 11
2950.333336
 21
2143.0
 31
0.0
  0
LINE
  5
123D
100
AcDbEntity
  8
11000_LEFT
370
    25
390
0
  6
CONTINUOUS
 62
     7
100
AcDbLine
 10
2953.333336
 20
2067.5
 30
0.0
 11
2953.333336
 21
2067.500024
 31
0.0
  0
LINE
  5
123E
100
AcDbEntity
  8
11000_LEFT
370
    25
390
0
  6
CONTINUOUS
 62
     7
100
AcDbLine
 10
2963.833336
 20
4007.5
 30
0.0
 11
2963.833336
 21
4011.75
 31
0.0
  0
LINE
  5
123F
100
AcDbEntity
  8
11000_LEFT
370
    25
390
0
  6
CONTINUOUS
 62
     7
100
AcDbLine
 10
2963.833336
 20
2123.25
 30
0.0
 11
2963.833336
 21
2127.5
 31
0.0
  0
LINE
  5
1240
100
AcDbEntity
  8
11000_LEFT
370
    25
390
0
  6
CONTINUOUS
 62
     7
100
AcDbLine
 10
2966.581413
 20
4007.5
 30
0.0
 11
2966.581413
 21
4013.748047
 31
0.0
  0
LINE
  5
1241
100
AcDbEntity
  8
11000_LEFT
370
    25
390
0
  6
CONTINUOUS
 62
     7
100
AcDbLine
 10
2966.581413
 20
2121.251923
 30
0.0
 11
2966.581413
 21
2127.5
 31
0.0
  0
LINE
  5
1242
100
AcDbEntity
  8
11000_LEFT
370
    25
390
0
  6
CONTINUOUS
 62
     7
100
AcDbLine
 10
2969.169121
 20
2118.664215
 30
0.0
 11
2969.169121
 21
4016.335815
 31
0.0
  0
LINE
  5
1243
100
AcDbEntity
  8
11000_LEFT
370
    25
390
0
  6
CONTINUOUS
 62
     7
100
AcDbLine
 10
2969.876244
 20
2117.957108
 30
0.0
 11
2969.876244
 21
4017.042847
 31
0.0
  0
LINE
  5
1244
100
AcDbEntity
  8
11000_LEFT
370
    25
390
0
  6
CONTINUOUS
 62
     7
100
AcDbLine
 10
2973.80822
 20
2114.025127
 30
0.0
 11
2973.80822
 21
4020.974854
 31
0.0
  0
LINE
  5
1245
100
AcDbEntity
  8
11000_LEFT
370
    25
390
0
  6
CONTINUOUS
 62
     7
100
AcDbLine
 10
2976.283074
 20
2111.550251
 30
0.0
 11
2976.283074
 21
4023.449707
 31
0.0
  0
LINE
  5
1246
100
AcDbEntity
  8
11000_LEFT
370
    25
390
0
  6
CONTINUOUS
 62
     7
100
AcDbLine
 10
3009.333336
 20
4057.320679
 30
0.0
 11
3009.333336
 21
4067.5
 31
0.0
  0
LINE
  5
1247
100
AcDbEntity
  8
11000_LEFT
370
    25
390
0
  6
CONTINUOUS
 62
     7
100
AcDbLine
 10
3009.333336
 20
2068.55051
 30
0.0
 11
3009.333336
 21
2071.0
 31
0.0
  0
LINE
  5
1248
100
AcDbEntity
  8
11000_LEFT
370
    25
390
0
  6
CONTINUOUS
 62
     7
100
AcDbLine
 10
3009.333336
 20
2071.0
 30
0.0
 11
3009.333336
 21
2077.679289
 31
0.0
  0
LINE
  5
1249
100
AcDbEntity
  8
11000_LEFT
370
    25
390
0
  6
CONTINUOUS
 62
     7
100
AcDbLine
 10
3009.333336
 20
2067.5
 30
0.0
 11
3009.333336
 21
2068.55051
 31
0.0
  0
LINE
  5
124A
100
AcDbEntity
  8
11000_LEFT
370
    25
390
0
  6
CONTINUOUS
 62
     7
100
AcDbLine
 10
3009.833336
 20
4057.0
 30
0.0
 11
3009.833336
 21
4065.0
 31
0.0
  0
LINE
  5
124B
100
AcDbEntity
  8
11000_LEFT
370
    25
390
0
  6
CONTINUOUS
 62
     7
100
AcDbLine
 10
3009.833336
 20
2070.0
 30
0.0
 11
3009.833336
 21
2078.0
 31
0.0
  0
LINE
  5
124C
100
AcDbEntity
  8
11000_LEFT
370
    25
390
0
  6
CONTINUOUS
 62
     7
100
AcDbLine
 10
3011.333336
 20
2070.0
 30
0.0
 11
3011.333336
 21
2070.000021
 31
0.0
  0
LINE
  5
124D
100
AcDbEntity
  8
11000_LEFT
370
    25
390
0
  6
CONTINUOUS
 62
     7
100
AcDbLine
 10
3015.833336
 20
4065.0
 30
0.0
 11
3015.833336
 21
4067.5
 31
0.0
  0
LINE
  5
124E
100
AcDbEntity
  8
11000_LEFT
370
    25
390
0
  6
CONTINUOUS
 62
     7
100
AcDbLine
 10
3015.833336
 20
2067.5
 30
0.0
 11
3015.833336
 21
2070.0
 31
0.0
  0
LINE
  5
124F
100
AcDbEntity
  8
11000_LEFT
370
    25
390
0
  6
CONTINUOUS
 62
     7
100
AcDbLine
 10
3016.333336
 20
2070.0
 30
0.0
 11
3016.333336
 21
4065.0
 31
0.0
  0
LINE
  5
1250
100
AcDbEntity
  8
11000_LEFT
370
    25
390
0
  6
CONTINUOUS
 62
     7
100
AcDbLine
 10
3018.833336
 20
4065.0
 30
0.0
 11
3018.833336
 21
4067.5
 31
0.0
  0
LINE
  5
1251
100
AcDbEntity
  8
11000_LEFT
370
    25
390
0
  6
CONTINUOUS
 62
     7
100
AcDbLine
 10
3018.833336
 20
2067.5
 30
0.0
 11
3018.833336
 21
2070.0
 31
0.0
  0
LINE
  5
1252
100
AcDbEntity
  8
11000_LEFT
370
    25
390
0
  6
CONTINUOUS
 62
     7
100
AcDbLine
 10
3019.833336
 20
2070.0
 30
0.0
 11
3019.833336
 21
4065.0
 31
0.0
  0
ARC
  5
1253
100
AcDbEntity
  8
11000_LEFT
370
    25
390
0
  6
CONTINUOUS
 62
     7
100
AcDbCircle
 10
2523.333336
 20
2071.0
 30
0.0
 40
1.0
100
AcDbArc
 50
269.581743
 51
270.0
  0
ARC
  5
1254
100
AcDbEntity
  8
11000_LEFT
370
    25
390
0
  6
CONTINUOUS
 62
     7
100
AcDbCircle
 10
2523.333336
 20
2071.0
 30
0.0
 40
3.5
100
AcDbArc
 50
269.77954
 51
270.0
  0
ARC
  5
1255
100
AcDbEntity
  8
11000_LEFT
370
    25
390
0
  6
CONTINUOUS
 62
     7
100
AcDbCircle
 10
2523.333336
 20
2071.0
 30
0.0
 40
3.5
100
AcDbArc
 50
196.603606
 51
224.415875
  0
ARC
  5
1256
100
AcDbEntity
  8
11000_LEFT
370
    25
390
0
  6
CONTINUOUS
 62
     7
100
AcDbCircle
 10
2523.333336
 20
2071.0
 30
0.0
 40
3.5
100
AcDbArc
 50
180.0
 51
180.214804
  0
ARC
  5
1257
100
AcDbEntity
  8
11000_LEFT
370
    25
390
0
  6
CONTINUOUS
 62
     7
100
AcDbCircle
 10
2523.333336
 20
2139.0
 30
0.0
 40
3.5
100
AcDbArc
 50
179.78518
 51
180.0
  0
ARC
  5
1258
100
AcDbEntity
  8
11000_LEFT
370
    25
390
0
  6
CONTINUOUS
 62
     7
100
AcDbCircle
 10
2523.333336
 20
3996.0
 30
0.0
 40
3.5
100
AcDbArc
 50
180.0
 51
180.213821
  0
ARC
  5
1259
100
AcDbEntity
  8
11000_LEFT
370
    25
390
0
  6
CONTINUOUS
 62
     7
100
AcDbCircle
 10
2523.333336
 20
4064.0
 30
0.0
 40
3.5
100
AcDbArc
 50
179.786179
 51
180.0
  0
ARC
  5
125A
100
AcDbEntity
  8
11000_LEFT
370
    25
390
0
  6
CONTINUOUS
 62
     7
100
AcDbCircle
 10
2523.333336
 20
4064.0
 30
0.0
 40
3.5
100
AcDbArc
 50
135.584728
 51
163.396362
  0
CIRCLE
  5
125B
100
AcDbEntity
  8
11000_LEFT
370
    25
390
0
  6
CONTINUOUS
 62
     7
100
AcDbCircle
 10
2534.833336
 20
2100.0
 30
0.0
 40
5.75
  0
CIRCLE
  5
125C
100
AcDbEntity
  8
11000_LEFT
370
    25
390
0
  6
CONTINUOUS
 62
     7
100
AcDbCircle
 10
2534.833336
 20
4035.0
 30
0.0
 40
5.75
  0
CIRCLE
  5
125D
100
AcDbEntity
  8
11000_LEFT
370
    25
390
0
  6
CONTINUOUS
 62
     7
100
AcDbCircle
 10
2549.833336
 20
2167.5
 30
0.0
 40
2.7
  0
CIRCLE
  5
125E
100
AcDbEntity
  8
11000_LEFT
370
    25
390
0
  6
CONTINUOUS
 62
     7
100
AcDbCircle
 10
2549.833336
 20
2567.5
 30
0.0
 40
2.7
  0
CIRCLE
  5
125F
100
AcDbEntity
  8
11000_LEFT
370
    25
390
0
  6
CONTINUOUS
 62
     7
100
AcDbCircle
 10
2549.833336
 20
3067.5
 30
0.0
 40
2.7
  0
CIRCLE
  5
1260
100
AcDbEntity
  8
11000_LEFT
370
    25
390
0
  6
CONTINUOUS
 62
     7
100
AcDbCircle
 10
2549.833336
 20
3567.5
 30
0.0
 40
2.7
  0
CIRCLE
  5
1261
100
AcDbEntity
  8
11000_LEFT
370
    25
390
0
  6
CONTINUOUS
 62
     7
100
AcDbCircle
 10
2549.833336
 20
3967.5
 30
0.0
 40
2.7
  0
CIRCLE
  5
1262
100
AcDbEntity
  8
11000_LEFT
370
    25
390
0
  6
CONTINUOUS
 62
     7
100
AcDbCircle
 10
2554.833336
 20
2117.5
 30
0.0
 40
4.6
  0
CIRCLE
  5
1263
100
AcDbEntity
  8
11000_LEFT
370
    25
390
0
  6
CONTINUOUS
 62
     7
100
AcDbCircle
 10
2554.833336
 20
2217.5
 30
0.0
 40
4.6
  0
CIRCLE
  5
1264
100
AcDbEntity
  8
11000_LEFT
370
    25
390
0
  6
CONTINUOUS
 62
     7
100
AcDbCircle
 10
2554.833336
 20
2317.5
 30
0.0
 40
4.6
  0
CIRCLE
  5
1265
100
AcDbEntity
  8
11000_LEFT
370
    25
390
0
  6
CONTINUOUS
 62
     7
100
AcDbCircle
 10
2554.833336
 20
2417.5
 30
0.0
 40
4.6
  0
CIRCLE
  5
1266
100
AcDbEntity
  8
11000_LEFT
370
    25
390
0
  6
CONTINUOUS
 62
     7
100
AcDbCircle
 10
2554.833336
 20
2517.5
 30
0.0
 40
4.6
  0
CIRCLE
  5
1267
100
AcDbEntity
  8
11000_LEFT
370
    25
390
0
  6
CONTINUOUS
 62
     7
100
AcDbCircle
 10
2554.833336
 20
2617.5
 30
0.0
 40
4.6
  0
CIRCLE
  5
1268
100
AcDbEntity
  8
11000_LEFT
370
    25
390
0
  6
CONTINUOUS
 62
     7
100
AcDbCircle
 10
2554.833336
 20
2717.5
 30
0.0
 40
4.6
  0
CIRCLE
  5
1269
100
AcDbEntity
  8
11000_LEFT
370
    25
390
0
  6
CONTINUOUS
 62
     7
100
AcDbCircle
 10
2554.833336
 20
2817.5
 30
0.0
 40
4.6
  0
CIRCLE
  5
126A
100
AcDbEntity
  8
11000_LEFT
370
    25
390
0
  6
CONTINUOUS
 62
     7
100
AcDbCircle
 10
2554.833336
 20
2917.5
 30
0.0
 40
4.6
  0
CIRCLE
  5
126B
100
AcDbEntity
  8
11000_LEFT
370
    25
390
0
  6
CONTINUOUS
 62
     7
100
AcDbCircle
 10
2554.833336
 20
3017.5
 30
0.0
 40
4.6
  0
CIRCLE
  5
126C
100
AcDbEntity
  8
11000_LEFT
370
    25
390
0
  6
CONTINUOUS
 62
     7
100
AcDbCircle
 10
2554.833336
 20
3117.5
 30
0.0
 40
4.6
  0
CIRCLE
  5
126D
100
AcDbEntity
  8
11000_LEFT
370
    25
390
0
  6
CONTINUOUS
 62
     7
100
AcDbCircle
 10
2554.833336
 20
3217.5
 30
0.0
 40
4.6
  0
CIRCLE
  5
126E
100
AcDbEntity
  8
11000_LEFT
370
    25
390
0
  6
CONTINUOUS
 62
     7
100
AcDbCircle
 10
2554.833336
 20
3317.5
 30
0.0
 40
4.6
  0
CIRCLE
  5
126F
100
AcDbEntity
  8
11000_LEFT
370
    25
390
0
  6
CONTINUOUS
 62
     7
100
AcDbCircle
 10
2554.833336
 20
3417.5
 30
0.0
 40
4.6
  0
CIRCLE
  5
1270
100
AcDbEntity
  8
11000_LEFT
370
    25
390
0
  6
CONTINUOUS
 62
     7
100
AcDbCircle
 10
2554.833336
 20
3517.5
 30
0.0
 40
4.6
  0
CIRCLE
  5
1271
100
AcDbEntity
  8
11000_LEFT
370
    25
390
0
  6
CONTINUOUS
 62
     7
100
AcDbCircle
 10
2554.833336
 20
3617.5
 30
0.0
 40
4.6
  0
CIRCLE
  5
1272
100
AcDbEntity
  8
11000_LEFT
370
    25
390
0
  6
CONTINUOUS
 62
     7
100
AcDbCircle
 10
2554.833336
 20
3717.5
 30
0.0
 40
4.6
  0
CIRCLE
  5
1273
100
AcDbEntity
  8
11000_LEFT
370
    25
390
0
  6
CONTINUOUS
 62
     7
100
AcDbCircle
 10
2554.833336
 20
3817.5
 30
0.0
 40
4.6
  0
CIRCLE
  5
1274
100
AcDbEntity
  8
11000_LEFT
370
    25
390
0
  6
CONTINUOUS
 62
     7
100
AcDbCircle
 10
2554.833336
 20
3917.5
 30
0.0
 40
4.6
  0
CIRCLE
  5
1275
100
AcDbEntity
  8
11000_LEFT
370
    25
390
0
  6
CONTINUOUS
 62
     7
100
AcDbCircle
 10
2554.833336
 20
4017.5
 30
0.0
 40
4.6
  0
CIRCLE
  5
1276
100
AcDbEntity
  8
11000_LEFT
370
    25
390
0
  6
CONTINUOUS
 62
     7
100
AcDbCircle
 10
2569.833336
 20
2102.5
 30
0.0
 40
4.6
  0
CIRCLE
  5
1277
100
AcDbEntity
  8
11000_LEFT
370
    25
390
0
  6
CONTINUOUS
 62
     7
100
AcDbCircle
 10
2569.833336
 20
4032.5
 30
0.0
 40
4.6
  0
CIRCLE
  5
1278
100
AcDbEntity
  8
11000_LEFT
370
    25
390
0
  6
CONTINUOUS
 62
     7
100
AcDbCircle
 10
2579.833336
 20
2167.5
 30
0.0
 40
4.6
  0
CIRCLE
  5
1279
100
AcDbEntity
  8
11000_LEFT
370
    25
390
0
  6
CONTINUOUS
 62
     7
100
AcDbCircle
 10
2579.833336
 20
2267.5
 30
0.0
 40
4.6
  0
CIRCLE
  5
127A
100
AcDbEntity
  8
11000_LEFT
370
    25
390
0
  6
CONTINUOUS
 62
     7
100
AcDbCircle
 10
2579.833336
 20
2367.5
 30
0.0
 40
4.6
  0
CIRCLE
  5
127B
100
AcDbEntity
  8
11000_LEFT
370
    25
390
0
  6
CONTINUOUS
 62
     7
100
AcDbCircle
 10
2579.833336
 20
2467.5
 30
0.0
 40
4.6
  0
CIRCLE
  5
127C
100
AcDbEntity
  8
11000_LEFT
370
    25
390
0
  6
CONTINUOUS
 62
     7
100
AcDbCircle
 10
2579.833336
 20
2567.5
 30
0.0
 40
4.6
  0
CIRCLE
  5
127D
100
AcDbEntity
  8
11000_LEFT
370
    25
390
0
  6
CONTINUOUS
 62
     7
100
AcDbCircle
 10
2579.833336
 20
2667.5
 30
0.0
 40
4.6
  0
CIRCLE
  5
127E
100
AcDbEntity
  8
11000_LEFT
370
    25
390
0
  6
CONTINUOUS
 62
     7
100
AcDbCircle
 10
2579.833336
 20
2767.5
 30
0.0
 40
4.6
  0
CIRCLE
  5
127F
100
AcDbEntity
  8
11000_LEFT
370
    25
390
0
  6
CONTINUOUS
 62
     7
100
AcDbCircle
 10
2579.833336
 20
2867.5
 30
0.0
 40
4.6
  0
CIRCLE
  5
1280
100
AcDbEntity
  8
11000_LEFT
370
    25
390
0
  6
CONTINUOUS
 62
     7
100
AcDbCircle
 10
2579.833336
 20
2967.5
 30
0.0
 40
4.6
  0
CIRCLE
  5
1281
100
AcDbEntity
  8
11000_LEFT
370
    25
390
0
  6
CONTINUOUS
 62
     7
100
AcDbCircle
 10
2579.833336
 20
3067.5
 30
0.0
 40
4.6
  0
CIRCLE
  5
1282
100
AcDbEntity
  8
11000_LEFT
370
    25
390
0
  6
CONTINUOUS
 62
     7
100
AcDbCircle
 10
2579.833336
 20
3167.5
 30
0.0
 40
4.6
  0
CIRCLE
  5
1283
100
AcDbEntity
  8
11000_LEFT
370
    25
390
0
  6
CONTINUOUS
 62
     7
100
AcDbCircle
 10
2579.833336
 20
3267.5
 30
0.0
 40
4.6
  0
CIRCLE
  5
1284
100
AcDbEntity
  8
11000_LEFT
370
    25
390
0
  6
CONTINUOUS
 62
     7
100
AcDbCircle
 10
2579.833336
 20
3367.5
 30
0.0
 40
4.6
  0
CIRCLE
  5
1285
100
AcDbEntity
  8
11000_LEFT
370
    25
390
0
  6
CONTINUOUS
 62
     7
100
AcDbCircle
 10
2579.833336
 20
3467.5
 30
0.0
 40
4.6
  0
CIRCLE
  5
1286
100
AcDbEntity
  8
11000_LEFT
370
    25
390
0
  6
CONTINUOUS
 62
     7
100
AcDbCircle
 10
2579.833336
 20
3567.5
 30
0.0
 40
4.6
  0
CIRCLE
  5
1287
100
AcDbEntity
  8
11000_LEFT
370
    25
390
0
  6
CONTINUOUS
 62
     7
100
AcDbCircle
 10
2579.833336
 20
3667.5
 30
0.0
 40
4.6
  0
CIRCLE
  5
1288
100
AcDbEntity
  8
11000_LEFT
370
    25
390
0
  6
CONTINUOUS
 62
     7
100
AcDbCircle
 10
2579.833336
 20
3767.5
 30
0.0
 40
4.6
  0
CIRCLE
  5
1289
100
AcDbEntity
  8
11000_LEFT
370
    25
390
0
  6
CONTINUOUS
 62
     7
100
AcDbCircle
 10
2579.833336
 20
3867.5
 30
0.0
 40
4.6
  0
CIRCLE
  5
128A
100
AcDbEntity
  8
11000_LEFT
370
    25
390
0
  6
CONTINUOUS
 62
     7
100
AcDbCircle
 10
2579.833336
 20
3967.5
 30
0.0
 40
4.6
  0
CIRCLE
  5
128B
100
AcDbEntity
  8
11000_LEFT
370
    25
390
0
  6
CONTINUOUS
 62
     7
100
AcDbCircle
 10
2583.833336
 20
2127.5
 30
0.0
 40
5.75
  0
ARC
  5
128C
100
AcDbEntity
  8
11000_LEFT
370
    25
390
0
  6
CONTINUOUS
 62
     7
100
AcDbCircle
 10
2583.833336
 20
2127.5
 30
0.0
 40
8.0
100
AcDbArc
 50
90.0
 51
180.0
  0
ARC
  5
128D
100
AcDbEntity
  8
11000_LEFT
370
    25
390
0
  6
CONTINUOUS
 62
     7
100
AcDbCircle
 10
2583.833336
 20
2127.5
 30
0.0
 40
10.748076
100
AcDbArc
 50
90.0
 51
180.0
  0
CIRCLE
  5
128E
100
AcDbEntity
  8
11000_LEFT
370
    25
390
0
  6
CONTINUOUS
 62
     7
100
AcDbCircle
 10
2583.833336
 20
4007.5
 30
0.0
 40
5.75
  0
ARC
  5
128F
100
AcDbEntity
  8
11000_LEFT
370
    25
390
0
  6
CONTINUOUS
 62
     7
100
AcDbCircle
 10
2583.833336
 20
4007.5
 30
0.0
 40
8.0
100
AcDbArc
 50
180.0
 51
270.0
  0
ARC
  5
1290
100
AcDbEntity
  8
11000_LEFT
370
    25
390
0
  6
CONTINUOUS
 62
     7
100
AcDbCircle
 10
2583.833336
 20
4007.5
 30
0.0
 40
10.748076
100
AcDbArc
 50
180.0
 51
270.0
  0
ARC
  5
1291
100
AcDbEntity
  8
11000_LEFT
370
    25
390
0
  6
CONTINUOUS
 62
     7
100
AcDbCircle
 10
2591.333336
 20
2071.0
 30
0.0
 40
3.5
100
AcDbArc
 50
270.0
 51
270.213071
  0
CIRCLE
  5
1292
100
AcDbEntity
  8
11000_LEFT
370
    25
390
0
  6
CONTINUOUS
 62
     7
100
AcDbCircle
 10
2619.833336
 20
2087.5
 30
0.0
 40
2.7
  0
CIRCLE
  5
1293
100
AcDbEntity
  8
11000_LEFT
370
    25
390
0
  6
CONTINUOUS
 62
     7
100
AcDbCircle
 10
2619.833336
 20
2127.5
 30
0.0
 40
4.6
  0
CIRCLE
  5
1294
100
AcDbEntity
  8
11000_LEFT
370
    25
390
0
  6
CONTINUOUS
 62
     7
100
AcDbCircle
 10
2619.833336
 20
4007.5
 30
0.0
 40
4.6
  0
CIRCLE
  5
1295
100
AcDbEntity
  8
11000_LEFT
370
    25
390
0
  6
CONTINUOUS
 62
     7
100
AcDbCircle
 10
2619.833336
 20
4047.5
 30
0.0
 40
2.7
  0
CIRCLE
  5
1296
100
AcDbEntity
  8
11000_LEFT
370
    25
390
0
  6
CONTINUOUS
 62
     7
100
AcDbCircle
 10
2669.833336
 20
2102.5
 30
0.0
 40
4.6
  0
CIRCLE
  5
1297
100
AcDbEntity
  8
11000_LEFT
370
    25
390
0
  6
CONTINUOUS
 62
     7
100
AcDbCircle
 10
2669.833336
 20
4032.5
 30
0.0
 40
4.6
  0
CIRCLE
  5
1298
100
AcDbEntity
  8
11000_LEFT
370
    25
390
0
  6
CONTINUOUS
 62
     7
100
AcDbCircle
 10
2719.833336
 20
2087.5
 30
0.0
 40
2.7
  0
CIRCLE
  5
1299
100
AcDbEntity
  8
11000_LEFT
370
    25
390
0
  6
CONTINUOUS
 62
     7
100
AcDbCircle
 10
2719.833336
 20
2127.5
 30
0.0
 40
4.6
  0
CIRCLE
  5
129A
100
AcDbEntity
  8
11000_LEFT
370
    25
390
0
  6
CONTINUOUS
 62
     7
100
AcDbCircle
 10
2719.833336
 20
4007.5
 30
0.0
 40
4.6
  0
CIRCLE
  5
129B
100
AcDbEntity
  8
11000_LEFT
370
    25
390
0
  6
CONTINUOUS
 62
     7
100
AcDbCircle
 10
2719.833336
 20
4047.5
 30
0.0
 40
2.7
  0
ARC
  5
129C
100
AcDbEntity
  8
11000_LEFT
370
    25
390
0
  6
CONTINUOUS
 62
     7
100
AcDbCircle
 10
2769.833336
 20
2097.5
 30
0.0
 40
2.7
100
AcDbArc
 50
155.655523
 51
24.344477
  0
ARC
  5
129D
100
AcDbEntity
  8
11000_LEFT
370
    25
390
0
  6
CONTINUOUS
 62
     7
100
AcDbCircle
 10
2769.833336
 20
2102.5
 30
0.0
 40
4.6
100
AcDbArc
 50
302.328127
 51
237.671873
  0
ARC
  5
129E
100
AcDbEntity
  8
11000_LEFT
370
    25
390
0
  6
CONTINUOUS
 62
     7
100
AcDbCircle
 10
2769.833336
 20
4032.5
 30
0.0
 40
4.6
100
AcDbArc
 50
122.328368
 51
57.671632
  0
ARC
  5
129F
100
AcDbEntity
  8
11000_LEFT
370
    25
390
0
  6
CONTINUOUS
 62
     7
100
AcDbCircle
 10
2769.833336
 20
4037.5
 30
0.0
 40
2.7
100
AcDbArc
 50
335.654822
 51
204.345178
  0
CIRCLE
  5
12A0
100
AcDbEntity
  8
11000_LEFT
370
    25
390
0
  6
CONTINUOUS
 62
     7
100
AcDbCircle
 10
2819.833336
 20
2087.5
 30
0.0
 40
2.7
  0
CIRCLE
  5
12A1
100
AcDbEntity
  8
11000_LEFT
370
    25
390
0
  6
CONTINUOUS
 62
     7
100
AcDbCircle
 10
2819.833336
 20
2127.5
 30
0.0
 40
4.6
  0
CIRCLE
  5
12A2
100
AcDbEntity
  8
11000_LEFT
370
    25
390
0
  6
CONTINUOUS
 62
     7
100
AcDbCircle
 10
2819.833336
 20
4007.5
 30
0.0
 40
4.6
  0
CIRCLE
  5
12A3
100
AcDbEntity
  8
11000_LEFT
370
    25
390
0
  6
CONTINUOUS
 62
     7
100
AcDbCircle
 10
2819.833336
 20
4047.5
 30
0.0
 40
2.7
  0
CIRCLE
  5
12A4
100
AcDbEntity
  8
11000_LEFT
370
    25
390
0
  6
CONTINUOUS
 62
     7
100
AcDbCircle
 10
2869.833336
 20
2102.5
 30
0.0
 40
4.6
  0
CIRCLE
  5
12A5
100
AcDbEntity
  8
11000_LEFT
370
    25
390
0
  6
CONTINUOUS
 62
     7
100
AcDbCircle
 10
2869.833336
 20
4032.5
 30
0.0
 40
4.6
  0
CIRCLE
  5
12A6
100
AcDbEntity
  8
11000_LEFT
370
    25
390
0
  6
CONTINUOUS
 62
     7
100
AcDbCircle
 10
2919.833336
 20
2087.5
 30
0.0
 40
2.7
  0
CIRCLE
  5
12A7
100
AcDbEntity
  8
11000_LEFT
370
    25
390
0
  6
CONTINUOUS
 62
     7
100
AcDbCircle
 10
2919.833336
 20
2127.5
 30
0.0
 40
4.6
  0
CIRCLE
  5
12A8
100
AcDbEntity
  8
11000_LEFT
370
    25
390
0
  6
CONTINUOUS
 62
     7
100
AcDbCircle
 10
2919.833336
 20
4007.5
 30
0.0
 40
4.6
  0
CIRCLE
  5
12A9
100
AcDbEntity
  8
11000_LEFT
370
    25
390
0
  6
CONTINUOUS
 62
     7
100
AcDbCircle
 10
2919.833336
 20
4047.5
 30
0.0
 40
2.7
  0
ARC
  5
12AA
100
AcDbEntity
  8
11000_LEFT
370
    25
390
0
  6
CONTINUOUS
 62
     7
100
AcDbCircle
 10
2948.333336
 20
2071.0
 30
0.0
 40
3.5
100
AcDbArc
 50
269.787179
 51
270.0
  0
CIRCLE
  5
12AB
100
AcDbEntity
  8
11000_LEFT
370
    25
390
0
  6
CONTINUOUS
 62
     7
100
AcDbCircle
 10
2955.833336
 20
2127.5
 30
0.0
 40
5.75
  0
ARC
  5
12AC
100
AcDbEntity
  8
11000_LEFT
370
    25
390
0
  6
CONTINUOUS
 62
     7
100
AcDbCircle
 10
2955.833336
 20
2127.5
 30
0.0
 40
8.0
100
AcDbArc
 50
0.0
 51
90.0
  0
ARC
  5
12AD
100
AcDbEntity
  8
11000_LEFT
370
    25
390
0
  6
CONTINUOUS
 62
     7
100
AcDbCircle
 10
2955.833336
 20
2127.5
 30
0.0
 40
10.748076
100
AcDbArc
 50
0.0
 51
90.0
  0
CIRCLE
  5
12AE
100
AcDbEntity
  8
11000_LEFT
370
    25
390
0
  6
CONTINUOUS
 62
     7
100
AcDbCircle
 10
2955.833336
 20
4007.5
 30
0.0
 40
5.75
  0
ARC
  5
12AF
100
AcDbEntity
  8
11000_LEFT
370
    25
390
0
  6
CONTINUOUS
 62
     7
100
AcDbCircle
 10
2955.833336
 20
4007.5
 30
0.0
 40
8.0
100
AcDbArc
 50
270.0
 51
0.0
  0
ARC
  5
12B0
100
AcDbEntity
  8
11000_LEFT
370
    25
390
0
  6
CONTINUOUS
 62
     7
100
AcDbCircle
 10
2955.833336
 20
4007.5
 30
0.0
 40
10.748076
100
AcDbArc
 50
270.0
 51
0.0
  0
CIRCLE
  5
12B1
100
AcDbEntity
  8
11000_LEFT
370
    25
390
0
  6
CONTINUOUS
 62
     7
100
AcDbCircle
 10
2959.833336
 20
2167.5
 30
0.0
 40
4.6
  0
CIRCLE
  5
12B2
100
AcDbEntity
  8
11000_LEFT
370
    25
390
0
  6
CONTINUOUS
 62
     7
100
AcDbCircle
 10
2959.833336
 20
2267.5
 30
0.0
 40
4.6
  0
CIRCLE
  5
12B3
100
AcDbEntity
  8
11000_LEFT
370
    25
390
0
  6
CONTINUOUS
 62
     7
100
AcDbCircle
 10
2959.833336
 20
2367.5
 30
0.0
 40
4.6
  0
CIRCLE
  5
12B4
100
AcDbEntity
  8
11000_LEFT
370
    25
390
0
  6
CONTINUOUS
 62
     7
100
AcDbCircle
 10
2959.833336
 20
2467.5
 30
0.0
 40
4.6
  0
CIRCLE
  5
12B5
100
AcDbEntity
  8
11000_LEFT
370
    25
390
0
  6
CONTINUOUS
 62
     7
100
AcDbCircle
 10
2959.833336
 20
2567.5
 30
0.0
 40
4.6
  0
CIRCLE
  5
12B6
100
AcDbEntity
  8
11000_LEFT
370
    25
390
0
  6
CONTINUOUS
 62
     7
100
AcDbCircle
 10
2959.833336
 20
2667.5
 30
0.0
 40
4.6
  0
CIRCLE
  5
12B7
100
AcDbEntity
  8
11000_LEFT
370
    25
390
0
  6
CONTINUOUS
 62
     7
100
AcDbCircle
 10
2959.833336
 20
2767.5
 30
0.0
 40
4.6
  0
CIRCLE
  5
12B8
100
AcDbEntity
  8
11000_LEFT
370
    25
390
0
  6
CONTINUOUS
 62
     7
100
AcDbCircle
 10
2959.833336
 20
2867.5
 30
0.0
 40
4.6
  0
CIRCLE
  5
12B9
100
AcDbEntity
  8
11000_LEFT
370
    25
390
0
  6
CONTINUOUS
 62
     7
100
AcDbCircle
 10
2959.833336
 20
2967.5
 30
0.0
 40
4.6
  0
CIRCLE
  5
12BA
100
AcDbEntity
  8
11000_LEFT
370
    25
390
0
  6
CONTINUOUS
 62
     7
100
AcDbCircle
 10
2959.833336
 20
3067.5
 30
0.0
 40
4.6
  0
CIRCLE
  5
12BB
100
AcDbEntity
  8
11000_LEFT
370
    25
390
0
  6
CONTINUOUS
 62
     7
100
AcDbCircle
 10
2959.833336
 20
3167.5
 30
0.0
 40
4.6
  0
CIRCLE
  5
12BC
100
AcDbEntity
  8
11000_LEFT
370
    25
390
0
  6
CONTINUOUS
 62
     7
100
AcDbCircle
 10
2959.833336
 20
3267.5
 30
0.0
 40
4.6
  0
CIRCLE
  5
12BD
100
AcDbEntity
  8
11000_LEFT
370
    25
390
0
  6
CONTINUOUS
 62
     7
100
AcDbCircle
 10
2959.833336
 20
3367.5
 30
0.0
 40
4.6
  0
CIRCLE
  5
12BE
100
AcDbEntity
  8
11000_LEFT
370
    25
390
0
  6
CONTINUOUS
 62
     7
100
AcDbCircle
 10
2959.833336
 20
3467.5
 30
0.0
 40
4.6
  0
CIRCLE
  5
12BF
100
AcDbEntity
  8
11000_LEFT
370
    25
390
0
  6
CONTINUOUS
 62
     7
100
AcDbCircle
 10
2959.833336
 20
3567.5
 30
0.0
 40
4.6
  0
CIRCLE
  5
12C0
100
AcDbEntity
  8
11000_LEFT
370
    25
390
0
  6
CONTINUOUS
 62
     7
100
AcDbCircle
 10
2959.833336
 20
3667.5
 30
0.0
 40
4.6
  0
CIRCLE
  5
12C1
100
AcDbEntity
  8
11000_LEFT
370
    25
390
0
  6
CONTINUOUS
 62
     7
100
AcDbCircle
 10
2959.833336
 20
3767.5
 30
0.0
 40
4.6
  0
CIRCLE
  5
12C2
100
AcDbEntity
  8
11000_LEFT
370
    25
390
0
  6
CONTINUOUS
 62
     7
100
AcDbCircle
 10
2959.833336
 20
3867.5
 30
0.0
 40
4.6
  0
CIRCLE
  5
12C3
100
AcDbEntity
  8
11000_LEFT
370
    25
390
0
  6
CONTINUOUS
 62
     7
100
AcDbCircle
 10
2959.833336
 20
3967.5
 30
0.0
 40
4.6
  0
CIRCLE
  5
12C4
100
AcDbEntity
  8
11000_LEFT
370
    25
390
0
  6
CONTINUOUS
 62
     7
100
AcDbCircle
 10
2969.833336
 20
2102.5
 30
0.0
 40
4.6
  0
CIRCLE
  5
12C5
100
AcDbEntity
  8
11000_LEFT
370
    25
390
0
  6
CONTINUOUS
 62
     7
100
AcDbCircle
 10
2969.833336
 20
4032.5
 30
0.0
 40
4.6
  0
CIRCLE
  5
12C6
100
AcDbEntity
  8
11000_LEFT
370
    25
390
0
  6
CONTINUOUS
 62
     7
100
AcDbCircle
 10
2984.833336
 20
2117.5
 30
0.0
 40
4.6
  0
CIRCLE
  5
12C7
100
AcDbEntity
  8
11000_LEFT
370
    25
390
0
  6
CONTINUOUS
 62
     7
100
AcDbCircle
 10
2984.833336
 20
2217.5
 30
0.0
 40
4.6
  0
CIRCLE
  5
12C8
100
AcDbEntity
  8
11000_LEFT
370
    25
390
0
  6
CONTINUOUS
 62
     7
100
AcDbCircle
 10
2984.833336
 20
2317.5
 30
0.0
 40
4.6
  0
CIRCLE
  5
12C9
100
AcDbEntity
  8
11000_LEFT
370
    25
390
0
  6
CONTINUOUS
 62
     7
100
AcDbCircle
 10
2984.833336
 20
2417.5
 30
0.0
 40
4.6
  0
CIRCLE
  5
12CA
100
AcDbEntity
  8
11000_LEFT
370
    25
390
0
  6
CONTINUOUS
 62
     7
100
AcDbCircle
 10
2984.833336
 20
2517.5
 30
0.0
 40
4.6
  0
CIRCLE
  5
12CB
100
AcDbEntity
  8
11000_LEFT
370
    25
390
0
  6
CONTINUOUS
 62
     7
100
AcDbCircle
 10
2984.833336
 20
2617.5
 30
0.0
 40
4.6
  0
CIRCLE
  5
12CC
100
AcDbEntity
  8
11000_LEFT
370
    25
390
0
  6
CONTINUOUS
 62
     7
100
AcDbCircle
 10
2984.833336
 20
2717.5
 30
0.0
 40
4.6
  0
CIRCLE
  5
12CD
100
AcDbEntity
  8
11000_LEFT
370
    25
390
0
  6
CONTINUOUS
 62
     7
100
AcDbCircle
 10
2984.833336
 20
2817.5
 30
0.0
 40
4.6
  0
CIRCLE
  5
12CE
100
AcDbEntity
  8
11000_LEFT
370
    25
390
0
  6
CONTINUOUS
 62
     7
100
AcDbCircle
 10
2984.833336
 20
2917.5
 30
0.0
 40
4.6
  0
CIRCLE
  5
12CF
100
AcDbEntity
  8
11000_LEFT
370
    25
390
0
  6
CONTINUOUS
 62
     7
100
AcDbCircle
 10
2984.833336
 20
3017.5
 30
0.0
 40
4.6
  0
CIRCLE
  5
12D0
100
AcDbEntity
  8
11000_LEFT
370
    25
390
0
  6
CONTINUOUS
 62
     7
100
AcDbCircle
 10
2984.833336
 20
3117.5
 30
0.0
 40
4.6
  0
CIRCLE
  5
12D1
100
AcDbEntity
  8
11000_LEFT
370
    25
390
0
  6
CONTINUOUS
 62
     7
100
AcDbCircle
 10
2984.833336
 20
3217.5
 30
0.0
 40
4.6
  0
CIRCLE
  5
12D2
100
AcDbEntity
  8
11000_LEFT
370
    25
390
0
  6
CONTINUOUS
 62
     7
100
AcDbCircle
 10
2984.833336
 20
3317.5
 30
0.0
 40
4.6
  0
CIRCLE
  5
12D3
100
AcDbEntity
  8
11000_LEFT
370
    25
390
0
  6
CONTINUOUS
 62
     7
100
AcDbCircle
 10
2984.833336
 20
3417.5
 30
0.0
 40
4.6
  0
CIRCLE
  5
12D4
100
AcDbEntity
  8
11000_LEFT
370
    25
390
0
  6
CONTINUOUS
 62
     7
100
AcDbCircle
 10
2984.833336
 20
3517.5
 30
0.0
 40
4.6
  0
CIRCLE
  5
12D5
100
AcDbEntity
  8
11000_LEFT
370
    25
390
0
  6
CONTINUOUS
 62
     7
100
AcDbCircle
 10
2984.833336
 20
3617.5
 30
0.0
 40
4.6
  0
CIRCLE
  5
12D6
100
AcDbEntity
  8
11000_LEFT
370
    25
390
0
  6
CONTINUOUS
 62
     7
100
AcDbCircle
 10
2984.833336
 20
3717.5
 30
0.0
 40
4.6
  0
CIRCLE
  5
12D7
100
AcDbEntity
  8
11000_LEFT
370
    25
390
0
  6
CONTINUOUS
 62
     7
100
AcDbCircle
 10
2984.833336
 20
3817.5
 30
0.0
 40
4.6
  0
CIRCLE
  5
12D8
100
AcDbEntity
  8
11000_LEFT
370
    25
390
0
  6
CONTINUOUS
 62
     7
100
AcDbCircle
 10
2984.833336
 20
3917.5
 30
0.0
 40
4.6
  0
CIRCLE
  5
12D9
100
AcDbEntity
  8
11000_LEFT
370
    25
390
0
  6
CONTINUOUS
 62
     7
100
AcDbCircle
 10
2984.833336
 20
4017.5
 30
0.0
 40
4.6
  0
CIRCLE
  5
12DA
100
AcDbEntity
  8
11000_LEFT
370
    25
390
0
  6
CONTINUOUS
 62
     7
100
AcDbCircle
 10
2989.833336
 20
2167.5
 30
0.0
 40
2.7
  0
CIRCLE
  5
12DB
100
AcDbEntity
  8
11000_LEFT
370
    25
390
0
  6
CONTINUOUS
 62
     7
100
AcDbCircle
 10
2989.833336
 20
2567.5
 30
0.0
 40
2.7
  0
CIRCLE
  5
12DC
100
AcDbEntity
  8
11000_LEFT
370
    25
390
0
  6
CONTINUOUS
 62
     7
100
AcDbCircle
 10
2989.833336
 20
3067.5
 30
0.0
 40
2.7
  0
CIRCLE
  5
12DD
100
AcDbEntity
  8
11000_LEFT
370
    25
390
0
  6
CONTINUOUS
 62
     7
100
AcDbCircle
 10
2989.833336
 20
3567.5
 30
0.0
 40
2.7
  0
CIRCLE
  5
12DE
100
AcDbEntity
  8
11000_LEFT
370
    25
390
0
  6
CONTINUOUS
 62
     7
100
AcDbCircle
 10
2989.833336
 20
3967.5
 30
0.0
 40
2.7
  0
CIRCLE
  5
12DF
100
AcDbEntity
  8
11000_LEFT
370
    25
390
0
  6
CONTINUOUS
 62
     7
100
AcDbCircle
 10
3004.833336
 20
2100.0
 30
0.0
 40
5.75
  0
CIRCLE
  5
12E0
100
AcDbEntity
  8
11000_LEFT
370
    25
390
0
  6
CONTINUOUS
 62
     7
100
AcDbCircle
 10
3004.833336
 20
4035.0
 30
0.0
 40
5.75
  0
ARC
  5
12E1
100
AcDbEntity
  8
11000_LEFT
370
    25
390
0
  6
CONTINUOUS
 62
     7
100
AcDbCircle
 10
3016.333336
 20
2071.0
 30
0.0
 40
1.0
100
AcDbArc
 50
270.0
 51
270.417902
  0
ARC
  5
12E2
100
AcDbEntity
  8
11000_LEFT
370
    25
390
0
  6
CONTINUOUS
 62
     7
100
AcDbCircle
 10
3016.333336
 20
2071.0
 30
0.0
 40
3.5
100
AcDbArc
 50
315.58533
 51
343.3964
  0
ARC
  5
12E3
100
AcDbEntity
  8
11000_LEFT
370
    25
390
0
  6
CONTINUOUS
 62
     7
100
AcDbCircle
 10
3016.333336
 20
2071.0
 30
0.0
 40
3.5
100
AcDbArc
 50
270.0
 51
270.220315
  0
ARC
  5
12E4
100
AcDbEntity
  8
11000_LEFT
370
    25
390
0
  6
CONTINUOUS
 62
     7
100
AcDbCircle
 10
3016.333336
 20
4064.0
 30
0.0
 40
3.5
100
AcDbArc
 50
16.603638
 51
44.414645
  0
LINE
  5
12E5
100
AcDbEntity
  8
11000_LEFT
370
    13
390
0
  6
CENTER
 62
     7
100
AcDbLine
 10
2486.500002
 20
3067.5
 30
0.0
 11
3053.16667
 21
3067.5
 31
0.0
  0
LINE
  5
12E6
100
AcDbEntity
  8
11000_LEFT
370
    13
390
0
  6
CENTER
 62
     7
100
AcDbLine
 10
2769.833336
 20
2034.166666
 30
0.0
 11
2769.833336
 21
4100.833334
 31
0.0
  0
LINE
  5
12E7
100
AcDbEntity
  8
11100_LEFT_DIM
370
    13
390
0
  6
CONTINUOUS
 62
     7
100
AcDbLine
 10
2519.833336
 20
2067.5
 30
0.0
 11
2519.833336
 21
1839.833331
 31
0.0
  0
LINE
  5
12E8
100
AcDbEntity
  8
11100_LEFT_DIM
370
    13
390
0
  6
CONTINUOUS
 62
     7
100
AcDbLine
 10
3019.833336
 20
1839.833331
 30
0.0
 11
3019.833336
 21
2067.5
 31
0.0
  0
LINE
  5
12E9
100
AcDbEntity
  8
11100_LEFT_DIM
370
    13
390
0
  6
CONTINUOUS
 62
     7
100
AcDbLine
 10
2519.833336
 20
1853.166665
 30
0.0
 11
3019.833336
 21
1853.166665
 31
0.0
  0
TEXT
  5
12EA
100
AcDbEntity
  8
11100_LEFT_DIM
370
    13
390
0
  6
CONTINUOUS
 62
     7
100
AcDbText
 10
2738.722225
 20
1866.499998
 30
0.0
 40
26.666667
  1
500
 72
     1
 11
2769.833336
 21
1866.499998
 31
0.0
100
AcDbText
  0
LINE
  5
12EB
100
AcDbEntity
  8
11100_LEFT_DIM
370
    13
390
0
  6
CONTINUOUS
 62
     7
100
AcDbLine
 10
2594.833336
 20
2142.5
 30
0.0
 11
2594.833336
 21
1933.166665
 31
0.0
  0
LINE
  5
12EC
100
AcDbEntity
  8
11100_LEFT_DIM
370
    13
390
0
  6
CONTINUOUS
 62
     7
100
AcDbLine
 10
2944.833336
 20
1933.166665
 30
0.0
 11
2944.833336
 21
2142.5
 31
0.0
  0
LINE
  5
12ED
100
AcDbEntity
  8
11100_LEFT_DIM
370
    13
390
0
  6
CONTINUOUS
 62
     7
100
AcDbLine
 10
2594.833336
 20
1946.499999
 30
0.0
 11
2944.833336
 21
1946.499999
 31
0.0
  0
TEXT
  5
12EE
100
AcDbEntity
  8
11100_LEFT_DIM
370
    13
390
0
  6
CONTINUOUS
 62
     7
100
AcDbText
 10
2736.500002
 20
1959.833332
 30
0.0
 40
26.666667
  1
350
 72
     1
 11
2769.833336
 21
1959.833332
 31
0.0
100
AcDbText
  0
LINE
  5
12EF
100
AcDbEntity
  8
11000_LEFT
370
    13
390
0
  6
CENTER
 62
     7
100
AcDbLine
 10
2504.833336
 20
4082.5
 30
0.0
 11
2804.833336
 21
4082.5
 31
0.0
  0
LINE
  5
12F0
100
AcDbEntity
  8
11000_LEFT
370
    13
390
0
  6
CENTER
 62
     7
100
AcDbLine
 10
2804.833336
 20
4082.5
 30
0.0
 11
2804.833336
 21
3532.5
 31
0.0
  0
LINE
  5
12F1
100
AcDbEntity
  8
11000_LEFT
370
    13
390
0
  6
CENTER
 62
     7
100
AcDbLine
 10
2804.833336
 20
3532.5
 30
0.0
 11
2504.833336
 21
3532.5
 31
0.0
  0
LINE
  5
12F2
100
AcDbEntity
  8
11000_LEFT
370
    13
390
0
  6
CENTER
 62
     7
100
AcDbLine
 10
2504.833336
 20
3532.5
 30
0.0
 11
2504.833336
 21
4082.5
 31
0.0
  0
LINE
  5
12F3
100
AcDbEntity
  8
11100_LEFT_DIM
370
    13
390
0
  6
CONTINUOUS
 62
     7
100
AcDbLine
 10
2504.833336
 20
4082.5
 30
0.0
 11
2454.833336
 21
4182.5
 31
0.0
  0
LINE
  5
12F4
100
AcDbEntity
  8
11100_LEFT_DIM
370
    13
390
0
  6
CONTINUOUS
 62
     7
100
AcDbLine
 10
2454.833336
 20
4182.5
 30
0.0
 11
2429.833336
 21
4182.5
 31
0.0
  0
TEXT
  5
12F5
100
AcDbEntity
  8
11100_LEFT_DIM
370
    13
390
0
  6
CONTINUOUS
 62
     7
100
AcDbText
 10
2442.333336
 20
4233.5
 30
0.0
 40
28.571429
  1
 
 72
     2
 11
2442.333336
 21
4233.5
 31
0.0
100
AcDbText
  0
TEXT
  5
12F6
100
AcDbEntity
  8
11100_LEFT_DIM
370
    13
390
0
  6
CONTINUOUS
 62
     7
100
AcDbText
 10
2423.285717
 20
4196.0
 30
0.0
 40
28.571429
  1
X
 72
     2
 11
2442.333336
 21
4196.0
 31
0.0
100
AcDbText
  0
LINE
  5
12F7
100
AcDbEntity
  8
11000_LEFT
370
    25
390
0
  6
CONTINUOUS
 62
     7
100
AcDbLine
 10
1869.833336
 20
4067.5
 30
0.0
 11
1871.833337
 21
4067.5
 31
0.0
  0
LINE
  5
12F8
100
AcDbEntity
  8
11000_LEFT
370
    25
390
0
  6
CONTINUOUS
 62
     7
100
AcDbLine
 10
1871.833337
 20
4067.5
 30
0.0
 11
1877.833337
 21
4067.5
 31
0.0
  0
LINE
  5
12F9
100
AcDbEntity
  8
11000_LEFT
370
    25
390
0
  6
CONTINUOUS
 62
     7
100
AcDbLine
 10
1877.833337
 20
4067.5
 30
0.0
 11
1890.833337
 21
4067.5
 31
0.0
  0
LINE
  5
12FA
100
AcDbEntity
  8
11000_LEFT
370
    25
390
0
  6
CONTINUOUS
 62
     7
100
AcDbLine
 10
1890.833337
 20
4067.5
 30
0.0
 11
2367.146809
 21
4067.5
 31
0.0
  0
ARC
  5
12FB
100
AcDbEntity
  8
11000_LEFT
370
    25
390
0
  6
CONTINUOUS
 62
     7
100
AcDbCircle
 10
2561.996206
 20
4060.890483
 30
0.0
 40
194.961466
100
AcDbArc
 50
178.057206
 51
211.321498
  0
ARC
  5
12FC
100
AcDbEntity
  8
11000_LEFT
370
    25
390
0
  6
CONTINUOUS
 62
     7
100
AcDbCircle
 10
2361.491557
 20
3927.853639
 30
0.0
 40
46.445194
100
AcDbArc
 50
347.119306
 51
43.021244
  0
LINE
  5
12FD
100
AcDbEntity
  8
11000_LEFT
370
    25
390
0
  6
CONTINUOUS
 62
     7
100
AcDbLine
 10
2406.768021
 20
3917.5
 30
0.0
 11
2009.833337
 21
3917.5
 31
0.0
  0
LINE
  5
12FE
100
AcDbEntity
  8
11000_LEFT
370
    25
390
0
  6
CONTINUOUS
 62
     7
100
AcDbLine
 10
2009.833337
 20
3917.5
 30
0.0
 11
2009.833337
 21
3931.5
 31
0.0
  0
LINE
  5
12FF
100
AcDbEntity
  8
11000_LEFT
370
    25
390
0
  6
CONTINUOUS
 62
     7
100
AcDbLine
 10
2009.833337
 20
3931.5
 30
0.0
 11
1997.833337
 21
3931.5
 31
0.0
  0
ARC
  5
1300
100
AcDbEntity
  8
11000_LEFT
370
    25
390
0
  6
CONTINUOUS
 62
     7
100
AcDbCircle
 10
1997.833337
 20
3947.5
 30
0.0
 40
16.0
100
AcDbArc
 50
180.0
 51
270.0
  0
LINE
  5
1301
100
AcDbEntity
  8
11000_LEFT
370
    25
390
0
  6
CONTINUOUS
 62
     7
100
AcDbLine
 10
1981.833337
 20
3947.5
 30
0.0
 11
1981.833337
 21
3956.0
 31
0.0
  0
LINE
  5
1302
100
AcDbEntity
  8
11000_LEFT
370
    25
390
0
  6
CONTINUOUS
 62
     7
100
AcDbLine
 10
1981.833337
 20
3956.0
 30
0.0
 11
1970.833337
 21
3967.0
 31
0.0
  0
LINE
  5
1303
100
AcDbEntity
  8
11000_LEFT
370
    25
390
0
  6
CONTINUOUS
 62
     7
100
AcDbLine
 10
1970.833337
 20
3967.0
 30
0.0
 11
2391.132077
 21
3967.0
 31
0.0
  0
LINE
  5
1304
100
AcDbEntity
  8
11000_LEFT
370
    25
390
0
  6
CONTINUOUS
 62
     7
100
AcDbLine
 10
2385.769078
 20
3977.5
 30
0.0
 11
1960.333337
 21
3977.5
 31
0.0
  0
LINE
  5
1305
100
AcDbEntity
  8
11000_LEFT
370
    25
390
0
  6
CONTINUOUS
 62
     7
100
AcDbLine
 10
1960.333337
 20
3977.5
 30
0.0
 11
1945.404046
 21
3992.429199
 31
0.0
  0
LINE
  5
1306
100
AcDbEntity
  8
11000_LEFT
370
    25
390
0
  6
CONTINUOUS
 62
     7
100
AcDbLine
 10
1945.404046
 20
3992.429199
 30
0.0
 11
1890.833337
 21
4047.141357
 31
0.0
  0
LINE
  5
1307
100
AcDbEntity
  8
11000_LEFT
370
    25
390
0
  6
CONTINUOUS
 62
     7
100
AcDbLine
 10
1890.833337
 20
4047.141357
 30
0.0
 11
1890.833337
 21
4067.5
 31
0.0
  0
LINE
  5
1308
100
AcDbEntity
  8
11000_LEFT
370
    25
390
0
  6
CONTINUOUS
 62
     7
100
AcDbLine
 10
1890.833337
 20
4062.5
 30
0.0
 11
1889.833337
 21
4062.5
 31
0.0
  0
LINE
  5
1309
100
AcDbEntity
  8
11000_LEFT
370
    25
390
0
  6
CONTINUOUS
 62
     7
100
AcDbLine
 10
1889.833337
 20
4062.5
 30
0.0
 11
1869.833337
 21
4062.5
 31
0.0
  0
LINE
  5
130A
100
AcDbEntity
  8
11000_LEFT
370
    25
390
0
  6
CONTINUOUS
 62
     7
100
AcDbLine
 10
1869.833337
 20
4062.5
 30
0.0
 11
1869.833337
 21
3103.573429
 31
0.0
  0
ARC
  5
130B
100
AcDbEntity
  8
11000_LEFT
370
    25
390
0
  6
CONTINUOUS
 62
     7
100
AcDbCircle
 10
1909.732376
 20
3261.363356
 30
0.0
 40
162.756243
100
AcDbArc
 50
255.809539
 51
289.701493
  0
ARC
  5
130C
100
AcDbEntity
  8
11000_LEFT
370
    25
390
0
  6
CONTINUOUS
 62
     7
100
AcDbCircle
 10
1992.217031
 20
3018.301217
 30
0.0
 40
93.982407
100
AcDbArc
 50
72.91168
 51
107.08832
  0
LINE
  5
130D
100
AcDbEntity
  8
11000_LEFT
370
    25
390
0
  6
CONTINUOUS
 62
     7
100
AcDbLine
 10
2019.833337
 20
3108.134577
 30
0.0
 11
2019.833337
 21
3916.5
 31
0.0
  0
LINE
  5
130E
100
AcDbEntity
  8
11000_LEFT
370
    25
390
0
  6
CONTINUOUS
 62
     7
100
AcDbLine
 10
2019.833337
 20
3916.5
 30
0.0
 11
2008.833337
 21
3916.5
 31
0.0
  0
LINE
  5
130F
100
AcDbEntity
  8
11000_LEFT
370
    25
390
0
  6
CONTINUOUS
 62
     7
100
AcDbLine
 10
2008.833337
 20
3916.5
 30
0.0
 11
2008.833337
 21
3926.003906
 31
0.0
  0
LINE
  5
1310
100
AcDbEntity
  8
11000_LEFT
370
    25
390
0
  6
CONTINUOUS
 62
     7
100
AcDbLine
 10
2008.833337
 20
3926.003906
 30
0.0
 11
1997.833337
 21
3926.003906
 31
0.0
  0
ARC
  5
1311
100
AcDbEntity
  8
11000_LEFT
370
    25
390
0
  6
CONTINUOUS
 62
     7
100
AcDbCircle
 10
1997.833337
 20
3947.5
 30
0.0
 40
21.496152
100
AcDbArc
 50
180.0
 51
270.0
  0
LINE
  5
1312
100
AcDbEntity
  8
11000_LEFT
370
    25
390
0
  6
CONTINUOUS
 62
     7
100
AcDbLine
 10
1976.337182
 20
3947.5
 30
0.0
 11
1976.337182
 21
3959.996094
 31
0.0
  0
LINE
  5
1313
100
AcDbEntity
  8
11000_LEFT
370
    25
390
0
  6
CONTINUOUS
 62
     7
100
AcDbLine
 10
1976.337182
 20
3959.996094
 30
0.0
 11
1970.333337
 21
3966.0
 31
0.0
  0
LINE
  5
1314
100
AcDbEntity
  8
11000_LEFT
370
    25
390
0
  6
CONTINUOUS
 62
     7
100
AcDbLine
 10
1970.333337
 20
3966.0
 30
0.0
 11
1959.833337
 21
3976.5
 31
0.0
  0
LINE
  5
1315
100
AcDbEntity
  8
11000_LEFT
370
    25
390
0
  6
CONTINUOUS
 62
     7
100
AcDbLine
 10
1959.833337
 20
3976.5
 30
0.0
 11
1959.833337
 21
3106.510238
 31
0.0
  0
LINE
  5
1316
100
AcDbEntity
  8
11000_LEFT
370
    25
390
0
  6
CONTINUOUS
 62
     7
100
AcDbLine
 10
1970.333337
 20
3109.700324
 30
0.0
 11
1970.333337
 21
3966.0
 31
0.0
  0
LINE
  5
1317
100
AcDbEntity
  8
11000_LEFT
370
    25
390
0
  6
CONTINUOUS
 62
     7
100
AcDbLine
 10
1970.833337
 20
3967.0
 30
0.0
 11
1960.333337
 21
3977.5
 31
0.0
  0
LINE
  5
1318
100
AcDbEntity
  8
11000_LEFT
370
    25
390
0
  6
CONTINUOUS
 62
     7
100
AcDbLine
 10
1959.833337
 20
3976.5
 30
0.0
 11
1889.833337
 21
4046.5
 31
0.0
  0
LINE
  5
1319
100
AcDbEntity
  8
11000_LEFT
370
    25
390
0
  6
CONTINUOUS
 62
     7
100
AcDbLine
 10
1889.833337
 20
4046.5
 30
0.0
 11
1889.833337
 21
4062.5
 31
0.0
  0
LINE
  5
131A
100
AcDbEntity
  8
11000_LEFT
370
    25
390
0
  6
CONTINUOUS
 62
     7
100
AcDbLine
 10
1889.833379
 20
4057.5
 30
0.0
 11
1890.833379
 21
4057.5
 31
0.0
  0
LINE
  5
131B
100
AcDbEntity
  8
11000_LEFT
370
    25
390
0
  6
CONTINUOUS
 62
     7
100
AcDbLine
 10
1877.833337
 20
4062.5
 30
0.0
 11
1877.833337
 21
4067.5
 31
0.0
  0
LINE
  5
131C
100
AcDbEntity
  8
11000_LEFT
370
    25
390
0
  6
CONTINUOUS
 62
     7
100
AcDbLine
 10
1871.833337
 20
4067.5
 30
0.0
 11
1871.833337
 21
4062.5
 31
0.0
  0
LINE
  5
131D
100
AcDbEntity
  8
11000_LEFT
370
    25
390
0
  6
CONTINUOUS
 62
     7
100
AcDbLine
 10
1869.833337
 20
4062.5
 30
0.0
 11
1869.833337
 21
4067.5
 31
0.0
  0
LINE
  5
131E
100
AcDbEntity
  8
11000_LEFT
370
    25
390
0
  6
CONTINUOUS
 62
     7
100
AcDbLine
 10
1869.833337
 20
4045.5
 30
0.0
 11
1869.833435
 21
4045.5
 31
0.0
  0
LINE
  5
131F
100
AcDbEntity
  8
11000_LEFT
370
    25
390
0
  6
CONTINUOUS
 62
     7
100
AcDbLine
 10
1869.833337
 20
4045.5
 30
0.0
 11
1869.833958
 21
4045.5
 31
0.0
  0
ARC
  5
1320
100
AcDbEntity
  8
11000_LEFT
370
    25
390
0
  6
CONTINUOUS
 62
     7
100
AcDbCircle
 10
1899.833337
 20
4002.5
 30
0.0
 40
11.5
100
AcDbArc
 50
180.0
 51
0.0
  0
ARC
  5
1321
100
AcDbEntity
  8
11000_LEFT
370
    25
390
0
  6
CONTINUOUS
 62
     7
100
AcDbCircle
 10
1899.833337
 20
4002.5
 30
0.0
 40
11.5
100
AcDbArc
 50
0.0
 51
180.0
  0
LINE
  5
1322
100
AcDbEntity
  8
11000_LEFT
370
    25
390
0
  6
CONTINUOUS
 62
     7
100
AcDbLine
 10
1869.833958
 20
3987.5
 30
0.0
 11
1869.833337
 21
3987.5
 31
0.0
  0
LINE
  5
1323
100
AcDbEntity
  8
11000_LEFT
370
    25
390
0
  6
CONTINUOUS
 62
     7
100
AcDbLine
 10
1869.833337
 20
3987.5
 30
0.0
 11
1869.833435
 21
3987.5
 31
0.0
  0
ARC
  5
1324
100
AcDbEntity
  8
11000_LEFT
370
    25
390
0
  6
CONTINUOUS
 62
     7
100
AcDbCircle
 10
1939.833337
 20
3967.5
 30
0.0
 40
9.2
100
AcDbArc
 50
180.0
 51
0.0
  0
ARC
  5
1325
100
AcDbEntity
  8
11000_LEFT
370
    25
390
0
  6
CONTINUOUS
 62
     7
100
AcDbCircle
 10
1939.833337
 20
3967.5
 30
0.0
 40
9.2
100
AcDbArc
 50
0.0
 51
180.0
  0
LINE
  5
1326
100
AcDbEntity
  8
11000_LEFT
370
    25
390
0
  6
CONTINUOUS
 62
     7
100
AcDbLine
 10
1958.262269
 20
3979.571045
 30
0.0
 11
1958.263963
 21
3979.571045
 31
0.0
  0
LINE
  5
1327
100
AcDbEntity
  8
11000_LEFT
370
    25
390
0
  6
CONTINUOUS
 62
     7
100
AcDbLine
 10
1968.762269
 20
3969.071045
 30
0.0
 11
1968.763932
 21
3969.071045
 31
0.0
  0
ARC
  5
1328
100
AcDbEntity
  8
11000_LEFT
370
    25
390
0
  6
CONTINUOUS
 62
     7
100
AcDbCircle
 10
1969.833337
 20
3997.5
 30
0.0
 40
9.2
100
AcDbArc
 50
0.0
 51
180.0
  0
ARC
  5
1329
100
AcDbEntity
  8
11000_LEFT
370
    25
390
0
  6
CONTINUOUS
 62
     7
100
AcDbCircle
 10
1969.833337
 20
3997.5
 30
0.0
 40
9.2
100
AcDbArc
 50
180.0
 51
0.0
  0
LINE
  5
132A
100
AcDbEntity
  8
11000_LEFT
370
    25
390
0
  6
CONTINUOUS
 62
     7
100
AcDbLine
 10
2019.833337
 20
4067.5
 30
0.0
 11
2019.833337
 21
4067.500053
 31
0.0
  0
ARC
  5
132B
100
AcDbEntity
  8
11000_LEFT
370
    25
390
0
  6
CONTINUOUS
 62
     7
100
AcDbCircle
 10
2069.833337
 20
4027.5
 30
0.0
 40
5.4
100
AcDbArc
 50
0.0
 51
180.0
  0
ARC
  5
132C
100
AcDbEntity
  8
11000_LEFT
370
    25
390
0
  6
CONTINUOUS
 62
     7
100
AcDbCircle
 10
2069.833337
 20
4027.5
 30
0.0
 40
5.4
100
AcDbArc
 50
180.0
 51
0.0
  0
ARC
  5
132D
100
AcDbEntity
  8
11000_LEFT
370
    25
390
0
  6
CONTINUOUS
 62
     7
100
AcDbCircle
 10
2069.833337
 20
3947.5
 30
0.0
 40
9.2
100
AcDbArc
 50
0.0
 51
180.0
  0
ARC
  5
132E
100
AcDbEntity
  8
11000_LEFT
370
    25
390
0
  6
CONTINUOUS
 62
     7
100
AcDbCircle
 10
2069.833337
 20
3947.5
 30
0.0
 40
9.2
100
AcDbArc
 50
180.0
 51
0.0
  0
ARC
  5
132F
100
AcDbEntity
  8
11000_LEFT
370
    25
390
0
  6
CONTINUOUS
 62
     7
100
AcDbCircle
 10
1989.833337
 20
3867.5
 30
0.0
 40
9.2
100
AcDbArc
 50
180.0
 51
0.0
  0
ARC
  5
1330
100
AcDbEntity
  8
11000_LEFT
370
    25
390
0
  6
CONTINUOUS
 62
     7
100
AcDbCircle
 10
1989.833337
 20
3867.5
 30
0.0
 40
9.2
100
AcDbArc
 50
0.0
 51
180.0
  0
ARC
  5
1331
100
AcDbEntity
  8
11000_LEFT
370
    25
390
0
  6
CONTINUOUS
 62
     7
100
AcDbCircle
 10
1939.833337
 20
3767.5
 30
0.0
 40
9.2
100
AcDbArc
 50
180.0
 51
0.0
  0
ARC
  5
1332
100
AcDbEntity
  8
11000_LEFT
370
    25
390
0
  6
CONTINUOUS
 62
     7
100
AcDbCircle
 10
1939.833337
 20
3767.5
 30
0.0
 40
9.2
100
AcDbArc
 50
0.0
 51
180.0
  0
ARC
  5
1333
100
AcDbEntity
  8
11000_LEFT
370
    25
390
0
  6
CONTINUOUS
 62
     7
100
AcDbCircle
 10
1989.833337
 20
3667.5
 30
0.0
 40
9.2
100
AcDbArc
 50
180.0
 51
0.0
  0
ARC
  5
1334
100
AcDbEntity
  8
11000_LEFT
370
    25
390
0
  6
CONTINUOUS
 62
     7
100
AcDbCircle
 10
1989.833337
 20
3667.5
 30
0.0
 40
9.2
100
AcDbArc
 50
0.0
 51
180.0
  0
ARC
  5
1335
100
AcDbEntity
  8
11000_LEFT
370
    25
390
0
  6
CONTINUOUS
 62
     7
100
AcDbCircle
 10
1939.833337
 20
3567.5
 30
0.0
 40
9.2
100
AcDbArc
 50
180.0
 51
0.0
  0
ARC
  5
1336
100
AcDbEntity
  8
11000_LEFT
370
    25
390
0
  6
CONTINUOUS
 62
     7
100
AcDbCircle
 10
1939.833337
 20
3567.5
 30
0.0
 40
9.2
100
AcDbArc
 50
0.0
 51
180.0
  0
ARC
  5
1337
100
AcDbEntity
  8
11000_LEFT
370
    25
390
0
  6
CONTINUOUS
 62
     7
100
AcDbCircle
 10
1989.833337
 20
3467.5
 30
0.0
 40
9.2
100
AcDbArc
 50
180.0
 51
0.0
  0
ARC
  5
1338
100
AcDbEntity
  8
11000_LEFT
370
    25
390
0
  6
CONTINUOUS
 62
     7
100
AcDbCircle
 10
1989.833337
 20
3467.5
 30
0.0
 40
9.2
100
AcDbArc
 50
0.0
 51
180.0
  0
ARC
  5
1339
100
AcDbEntity
  8
11000_LEFT
370
    25
390
0
  6
CONTINUOUS
 62
     7
100
AcDbCircle
 10
1939.833337
 20
3367.5
 30
0.0
 40
9.2
100
AcDbArc
 50
180.0
 51
0.0
  0
ARC
  5
133A
100
AcDbEntity
  8
11000_LEFT
370
    25
390
0
  6
CONTINUOUS
 62
     7
100
AcDbCircle
 10
1939.833337
 20
3367.5
 30
0.0
 40
9.2
100
AcDbArc
 50
0.0
 51
180.0
  0
ARC
  5
133B
100
AcDbEntity
  8
11000_LEFT
370
    25
390
0
  6
CONTINUOUS
 62
     7
100
AcDbCircle
 10
1989.833337
 20
3267.5
 30
0.0
 40
9.2
100
AcDbArc
 50
180.0
 51
0.0
  0
ARC
  5
133C
100
AcDbEntity
  8
11000_LEFT
370
    25
390
0
  6
CONTINUOUS
 62
     7
100
AcDbCircle
 10
1989.833337
 20
3267.5
 30
0.0
 40
9.2
100
AcDbArc
 50
0.0
 51
180.0
  0
ARC
  5
133D
100
AcDbEntity
  8
11000_LEFT
370
    25
390
0
  6
CONTINUOUS
 62
     7
100
AcDbCircle
 10
1939.833337
 20
3167.5
 30
0.0
 40
9.2
100
AcDbArc
 50
180.0
 51
0.0
  0
ARC
  5
133E
100
AcDbEntity
  8
11000_LEFT
370
    25
390
0
  6
CONTINUOUS
 62
     7
100
AcDbCircle
 10
1939.833337
 20
3167.5
 30
0.0
 40
9.2
100
AcDbArc
 50
0.0
 51
180.0
  0
ARC
  5
133F
100
AcDbEntity
  8
11000_LEFT
370
    25
390
0
  6
CONTINUOUS
 62
     7
100
AcDbCircle
 10
2269.833337
 20
3947.5
 30
0.0
 40
9.2
100
AcDbArc
 50
0.0
 51
180.0
  0
ARC
  5
1340
100
AcDbEntity
  8
11000_LEFT
370
    25
390
0
  6
CONTINUOUS
 62
     7
100
AcDbCircle
 10
2269.833337
 20
3947.5
 30
0.0
 40
9.2
100
AcDbArc
 50
180.0
 51
0.0
  0
ARC
  5
1341
100
AcDbEntity
  8
11000_LEFT
370
    25
390
0
  6
CONTINUOUS
 62
     7
100
AcDbCircle
 10
2269.833337
 20
4027.5
 30
0.0
 40
5.4
100
AcDbArc
 50
0.0
 51
180.0
  0
ARC
  5
1342
100
AcDbEntity
  8
11000_LEFT
370
    25
390
0
  6
CONTINUOUS
 62
     7
100
AcDbCircle
 10
2269.833337
 20
4027.5
 30
0.0
 40
5.4
100
AcDbArc
 50
180.0
 51
0.0
  0
ARC
  5
1343
100
AcDbEntity
  8
11000_LEFT
370
    25
390
0
  6
CONTINUOUS
 62
     7
100
AcDbCircle
 10
2169.833337
 20
3997.5
 30
0.0
 40
9.2
100
AcDbArc
 50
0.0
 51
180.0
  0
ARC
  5
1344
100
AcDbEntity
  8
11000_LEFT
370
    25
390
0
  6
CONTINUOUS
 62
     7
100
AcDbCircle
 10
2169.833337
 20
3997.5
 30
0.0
 40
9.2
100
AcDbArc
 50
180.0
 51
0.0
  0
LINE
  5
1345
100
AcDbEntity
  8
11100_LEFT_DIM
370
    13
390
0
  6
CONTINUOUS
 62
     7
100
AcDbLine
 10
1869.833336
 20
4067.5
 30
0.0
 11
1869.833336
 21
4295.166669
 31
0.0
  0
LINE
  5
1346
100
AcDbEntity
  8
11100_LEFT_DIM
370
    13
390
0
  6
CONTINUOUS
 62
     7
100
AcDbLine
 10
1989.833336
 20
4295.166669
 30
0.0
 11
1989.833336
 21
3876.7
 31
0.0
  0
LINE
  5
1347
100
AcDbEntity
  8
11100_LEFT_DIM
370
    13
390
0
  6
CONTINUOUS
 62
     7
100
AcDbLine
 10
2089.833337
 20
4281.833335
 30
0.0
 11
1769.833335
 21
4281.833335
 31
0.0
  0
TEXT
  5
1348
100
AcDbEntity
  8
11100_LEFT_DIM
370
    13
390
0
  6
CONTINUOUS
 62
     7
100
AcDbText
 10
1909.833336
 20
4295.166669
 30
0.0
 40
26.666667
  1
60
 72
     1
 11
1929.833336
 21
4295.166669
 31
0.0
100
AcDbText
  0
LINE
  5
1349
100
AcDbEntity
  8
11100_LEFT_DIM
370
    13
390
0
  6
CONTINUOUS
 62
     7
100
AcDbLine
 10
1989.833336
 20
3878.7
 30
0.0
 11
1989.833336
 21
4388.500003
 31
0.0
  0
LINE
  5
134A
100
AcDbEntity
  8
11100_LEFT_DIM
370
    13
390
0
  6
CONTINUOUS
 62
     7
100
AcDbLine
 10
2019.833336
 20
4388.500003
 30
0.0
 11
2019.833336
 21
3916.5
 31
0.0
  0
LINE
  5
134B
100
AcDbEntity
  8
11100_LEFT_DIM
370
    13
390
0
  6
CONTINUOUS
 62
     7
100
AcDbLine
 10
2189.833338
 20
4375.16667
 30
0.0
 11
1889.833335
 21
4375.16667
 31
0.0
  0
TEXT
  5
134C
100
AcDbEntity
  8
11100_LEFT_DIM
370
    13
390
0
  6
CONTINUOUS
 62
     7
100
AcDbText
 10
2137.055559
 20
4388.500003
 30
0.0
 40
26.666667
  1
15
 72
     1
 11
2154.833337
 21
4388.500003
 31
0.0
100
AcDbText
  0
LINE
  5
134D
100
AcDbEntity
  8
11100_LEFT_DIM
370
    13
390
0
  6
CONTINUOUS
 62
     7
100
AcDbLine
 10
1869.833336
 20
4067.5
 30
0.0
 11
1869.833336
 21
4201.833335
 31
0.0
  0
LINE
  5
134E
100
AcDbEntity
  8
11100_LEFT_DIM
370
    13
390
0
  6
CONTINUOUS
 62
     7
100
AcDbLine
 10
1939.833336
 20
4201.833335
 30
0.0
 11
1939.833336
 21
3976.7
 31
0.0
  0
LINE
  5
134F
100
AcDbEntity
  8
11100_LEFT_DIM
370
    13
390
0
  6
CONTINUOUS
 62
     7
100
AcDbLine
 10
2039.833337
 20
4188.500001
 30
0.0
 11
1769.833335
 21
4188.500001
 31
0.0
  0
TEXT
  5
1350
100
AcDbEntity
  8
11100_LEFT_DIM
370
    13
390
0
  6
CONTINUOUS
 62
     7
100
AcDbText
 10
1882.611114
 20
4201.833335
 30
0.0
 40
26.666667
  1
35
 72
     1
 11
1904.833336
 21
4201.833335
 31
0.0
100
AcDbText
  0
LINE
  5
1351
100
AcDbEntity
  8
11100_LEFT_DIM
370
    13
390
0
  6
CONTINUOUS
 62
     7
100
AcDbLine
 10
1930.633336
 20
3967.5
 30
0.0
 11
1735.500001
 21
3967.5
 31
0.0
  0
LINE
  5
1352
100
AcDbEntity
  8
11100_LEFT_DIM
370
    13
390
0
  6
CONTINUOUS
 62
     7
100
AcDbLine
 10
1735.500001
 20
4067.5
 30
0.0
 11
1869.833336
 21
4067.5
 31
0.0
  0
LINE
  5
1353
100
AcDbEntity
  8
11100_LEFT_DIM
370
    13
390
0
  6
CONTINUOUS
 62
     7
100
AcDbLine
 10
1748.833335
 20
4167.500001
 30
0.0
 11
1748.833335
 21
3867.499999
 31
0.0
  0
TEXT
  5
1354
100
AcDbEntity
  8
11100_LEFT_DIM
370
    13
390
0
  6
CONTINUOUS
 62
     7
100
AcDbText
 10
1735.500001
 20
3997.5
 30
0.0
 40
26.666667
  1
50
 50
90.0
 72
     1
 11
1735.500001
 21
4017.5
 31
0.0
100
AcDbText
  0
LINE
  5
1355
100
AcDbEntity
  8
11100_LEFT_DIM
370
    13
390
0
  6
CONTINUOUS
 62
     7
100
AcDbLine
 10
1930.633336
 20
3767.5
 30
0.0
 11
1735.500001
 21
3767.5
 31
0.0
  0
LINE
  5
1356
100
AcDbEntity
  8
11100_LEFT_DIM
370
    13
390
0
  6
CONTINUOUS
 62
     7
100
AcDbLine
 10
1735.500001
 20
3967.5
 30
0.0
 11
1930.633336
 21
3967.5
 31
0.0
  0
LINE
  5
1357
100
AcDbEntity
  8
11100_LEFT_DIM
370
    13
390
0
  6
CONTINUOUS
 62
     7
100
AcDbLine
 10
1748.833335
 20
4067.500001
 30
0.0
 11
1748.833335
 21
3667.499999
 31
0.0
  0
TEXT
  5
1358
100
AcDbEntity
  8
11100_LEFT_DIM
370
    13
390
0
  6
CONTINUOUS
 62
     7
100
AcDbText
 10
1735.500001
 20
3840.833333
 30
0.0
 40
26.666667
  1
100
 50
90.0
 72
     1
 11
1735.500001
 21
3867.5
 31
0.0
100
AcDbText
  0
LINE
  5
1359
100
AcDbEntity
  8
11100_LEFT_DIM
370
    13
390
0
  6
CONTINUOUS
 62
     7
100
AcDbLine
 10
1930.633336
 20
3667.5
 30
0.0
 11
1642.166667
 21
3667.5
 31
0.0
  0
LINE
  5
135A
100
AcDbEntity
  8
11100_LEFT_DIM
370
    13
390
0
  6
CONTINUOUS
 62
     7
100
AcDbLine
 10
1642.166667
 20
4067.5
 30
0.0
 11
1869.833336
 21
4067.5
 31
0.0
  0
LINE
  5
135B
100
AcDbEntity
  8
11100_LEFT_DIM
370
    13
390
0
  6
CONTINUOUS
 62
     7
100
AcDbLine
 10
1655.500001
 20
3667.5
 30
0.0
 11
1655.500001
 21
4067.5
 31
0.0
  0
TEXT
  5
135C
100
AcDbEntity
  8
11100_LEFT_DIM
370
    13
390
0
  6
CONTINUOUS
 62
     7
100
AcDbText
 10
1642.166667
 20
3836.388889
 30
0.0
 40
26.666667
  1
200
 50
90.0
 72
     1
 11
1642.166667
 21
3867.5
 31
0.0
100
AcDbText
  0
LINE
  5
135D
100
AcDbEntity
  8
11100_LEFT_DIM
370
    13
390
0
  6
CONTINUOUS
 62
     7
100
AcDbLine
 10
1980.433336
 20
3467.5
 30
0.0
 11
1642.166667
 21
3467.5
 31
0.0
  0
LINE
  5
135E
100
AcDbEntity
  8
11100_LEFT_DIM
370
    13
390
0
  6
CONTINUOUS
 62
     7
100
AcDbLine
 10
1642.166667
 20
3667.5
 30
0.0
 11
1980.433336
 21
3667.5
 31
0.0
  0
LINE
  5
135F
100
AcDbEntity
  8
11100_LEFT_DIM
370
    13
390
0
  6
CONTINUOUS
 62
     7
100
AcDbLine
 10
1655.500001
 20
3767.500001
 30
0.0
 11
1655.500001
 21
3367.499999
 31
0.0
  0
TEXT
  5
1360
100
AcDbEntity
  8
11100_LEFT_DIM
370
    13
390
0
  6
CONTINUOUS
 62
     7
100
AcDbText
 10
1642.166667
 20
3540.833333
 30
0.0
 40
26.666667
  1
100
 50
90.0
 72
     1
 11
1642.166667
 21
3567.5
 31
0.0
100
AcDbText
  0
TEXT
  5
1361
100
AcDbEntity
  8
11100_LEFT_DIM
370
    13
390
0
  6
CONTINUOUS
 62
     7
100
AcDbText
 10
1820.944447
 20
4480.833337
 30
0.0
 40
26.666667
  1
X 2:1
 72
     1
 11
1869.833336
 21
4480.833337
 31
0.0
100
AcDbText
  0
SOLID
  5
1362
100
AcDbEntity
  8
11100_LEFT_DIM
370
    13
390
0
  6
CONTINUOUS
 62
     7
100
AcDbTrace
 10
2499.466773
 20
4088.76099
 30
0.0
 11
2504.833336
 21
4082.5
 31
0.0
 12
2503.044482
 22
4090.549845
 32
0.0
 13
2504.833336
 23
4082.5
 33
0.0
  0
SOLID
  5
1363
100
AcDbEntity
  8
11100_LEFT_DIM
370
    13
390
0
  6
CONTINUOUS
 62
     7
100
AcDbTrace
 10
2586.500003
 20
1861.943498
 30
0.0
 11
2519.833336
 21
1853.166665
 31
0.0
 12
2586.500003
 22
1844.389831
 32
0.0
 13
2519.833336
 23
1853.166665
 33
0.0
  0
SOLID
  5
1364
100
AcDbEntity
  8
11100_LEFT_DIM
370
    13
390
0
  6
CONTINUOUS
 62
     7
100
AcDbTrace
 10
2953.166669
 20
1844.389831
 30
0.0
 11
3019.833336
 21
1853.166665
 31
0.0
 12
2953.166669
 22
1861.943498
 32
0.0
 13
3019.833336
 23
1853.166665
 33
0.0
  0
SOLID
  5
1365
100
AcDbEntity
  8
11100_LEFT_DIM
370
    13
390
0
  6
CONTINUOUS
 62
     7
100
AcDbTrace
 10
2661.500003
 20
1955.276832
 30
0.0
 11
2594.833336
 21
1946.499999
 31
0.0
 12
2661.500003
 22
1937.723166
 32
0.0
 13
2594.833336
 23
1946.499999
 33
0.0
  0
SOLID
  5
1366
100
AcDbEntity
  8
11100_LEFT_DIM
370
    13
390
0
  6
CONTINUOUS
 62
     7
100
AcDbTrace
 10
2878.166669
 20
1937.723166
 30
0.0
 11
2944.833336
 21
1946.499999
 31
0.0
 12
2878.166669
 22
1955.276832
 32
0.0
 13
2944.833336
 23
1946.499999
 33
0.0
  0
SOLID
  5
1367
100
AcDbEntity
  8
11100_LEFT_DIM
370
    13
390
0
  6
CONTINUOUS
 62
     7
100
AcDbTrace
 10
1803.166669
 20
4273.056502
 30
0.0
 11
1869.833336
 21
4281.833335
 31
0.0
 12
1803.166669
 22
4290.610169
 32
0.0
 13
1869.833336
 23
4281.833335
 33
0.0
  0
SOLID
  5
1368
100
AcDbEntity
  8
11100_LEFT_DIM
370
    13
390
0
  6
CONTINUOUS
 62
     7
100
AcDbTrace
 10
2056.500003
 20
4290.610169
 30
0.0
 11
1989.833336
 21
4281.833335
 31
0.0
 12
2056.500003
 22
4273.056502
 32
0.0
 13
1989.833336
 23
4281.833335
 33
0.0
  0
SOLID
  5
1369
100
AcDbEntity
  8
11100_LEFT_DIM
370
    13
390
0
  6
CONTINUOUS
 62
     7
100
AcDbTrace
 10
1923.166669
 20
4366.389836
 30
0.0
 11
1989.833336
 21
4375.16667
 31
0.0
 12
1923.166669
 22
4383.943503
 32
0.0
 13
1989.833336
 23
4375.16667
 33
0.0
  0
SOLID
  5
136A
100
AcDbEntity
  8
11100_LEFT_DIM
370
    13
390
0
  6
CONTINUOUS
 62
     7
100
AcDbTrace
 10
2086.500003
 20
4383.943503
 30
0.0
 11
2019.833336
 21
4375.16667
 31
0.0
 12
2086.500003
 22
4366.389836
 32
0.0
 13
2019.833336
 23
4375.16667
 33
0.0
  0
SOLID
  5
136B
100
AcDbEntity
  8
11100_LEFT_DIM
370
    13
390
0
  6
CONTINUOUS
 62
     7
100
AcDbTrace
 10
1803.166669
 20
4179.723168
 30
0.0
 11
1869.833336
 21
4188.500001
 31
0.0
 12
1803.166669
 22
4197.276834
 32
0.0
 13
1869.833336
 23
4188.500001
 33
0.0
  0
SOLID
  5
136C
100
AcDbEntity
  8
11100_LEFT_DIM
370
    13
390
0
  6
CONTINUOUS
 62
     7
100
AcDbTrace
 10
2006.500003
 20
4197.276834
 30
0.0
 11
1939.833336
 21
4188.500001
 31
0.0
 12
2006.500003
 22
4179.723168
 32
0.0
 13
1939.833336
 23
4188.500001
 33
0.0
  0
SOLID
  5
136D
100
AcDbEntity
  8
11100_LEFT_DIM
370
    13
390
0
  6
CONTINUOUS
 62
     7
100
AcDbTrace
 10
1757.610168
 20
3900.833333
 30
0.0
 11
1748.833335
 21
3967.5
 31
0.0
 12
1740.056502
 22
3900.833333
 32
0.0
 13
1748.833335
 23
3967.5
 33
0.0
  0
SOLID
  5
136E
100
AcDbEntity
  8
11100_LEFT_DIM
370
    13
390
0
  6
CONTINUOUS
 62
     7
100
AcDbTrace
 10
1740.056502
 20
4134.166667
 30
0.0
 11
1748.833335
 21
4067.5
 31
0.0
 12
1757.610168
 22
4134.166667
 32
0.0
 13
1748.833335
 23
4067.5
 33
0.0
  0
SOLID
  5
136F
100
AcDbEntity
  8
11100_LEFT_DIM
370
    13
390
0
  6
CONTINUOUS
 62
     7
100
AcDbTrace
 10
1757.610168
 20
3700.833333
 30
0.0
 11
1748.833335
 21
3767.5
 31
0.0
 12
1740.056502
 22
3700.833333
 32
0.0
 13
1748.833335
 23
3767.5
 33
0.0
  0
SOLID
  5
1370
100
AcDbEntity
  8
11100_LEFT_DIM
370
    13
390
0
  6
CONTINUOUS
 62
     7
100
AcDbTrace
 10
1740.056502
 20
4034.166667
 30
0.0
 11
1748.833335
 21
3967.5
 31
0.0
 12
1757.610168
 22
4034.166667
 32
0.0
 13
1748.833335
 23
3967.5
 33
0.0
  0
SOLID
  5
1371
100
AcDbEntity
  8
11100_LEFT_DIM
370
    13
390
0
  6
CONTINUOUS
 62
     7
100
AcDbTrace
 10
1646.723167
 20
3734.166667
 30
0.0
 11
1655.500001
 21
3667.5
 31
0.0
 12
1664.276834
 22
3734.166667
 32
0.0
 13
1655.500001
 23
3667.5
 33
0.0
  0
SOLID
  5
1372
100
AcDbEntity
  8
11100_LEFT_DIM
370
    13
390
0
  6
CONTINUOUS
 62
     7
100
AcDbTrace
 10
1664.276834
 20
4000.833333
 30
0.0
 11
1655.500001
 21
4067.5
 31
0.0
 12
1646.723167
 22
4000.833333
 32
0.0
 13
1655.500001
 23
4067.5
 33
0.0
  0
SOLID
  5
1373
100
AcDbEntity
  8
11100_LEFT_DIM
370
    13
390
0
  6
CONTINUOUS
 62
     7
100
AcDbTrace
 10
1664.276834
 20
3400.833333
 30
0.0
 11
1655.500001
 21
3467.5
 31
0.0
 12
1646.723167
 22
3400.833333
 32
0.0
 13
1655.500001
 23
3467.5
 33
0.0
  0
LINE
  5
1374
100
AcDbEntity
  8
11100_LEFT_DIM
370
    13
390
0
  6
CONTINUOUS
 62
     7
100
AcDbLine
 10
1664.276834
 20
3734.166667
 30
0.0
 11
1646.723167
 21
3734.166667
 31
0.0
  0
LINE
  5
1375
100
AcDbEntity
  8
11100_LEFT_DIM
370
    13
390
0
  6
CONTINUOUS
 62
     7
100
AcDbLine
 10
1646.723167
 20
3734.166667
 30
0.0
 11
1655.500001
 21
3667.5
 31
0.0
  0
LINE
  5
1376
100
AcDbEntity
  8
11100_LEFT_DIM
370
    13
390
0
  6
CONTINUOUS
 62
     7
100
AcDbLine
 10
1664.276834
 20
3734.166667
 30
0.0
 11
1655.500001
 21
3667.5
 31
0.0
  0
LINE
  5
1377
100
AcDbEntity
  8
13000_TOP
370
    25
390
0
  6
CONTINUOUS
 62
     7
100
AcDbLine
 10
599.166666
 20
858.83333
 30
0.0
 11
1123.166666
 21
858.83333
 31
0.0
  0
LINE
  5
1378
100
AcDbEntity
  8
13000_TOP
370
    25
390
0
  6
CONTINUOUS
 62
     7
100
AcDbLine
 10
1123.666666
 20
858.83333
 30
0.0
 11
1157.666666
 21
858.83333
 31
0.0
  0
LINE
  5
1379
100
AcDbEntity
  8
13000_TOP
370
    25
390
0
  6
CONTINUOUS
 62
     7
100
AcDbLine
 10
564.666666
 20
858.83333
 30
0.0
 11
598.666666
 21
858.83333
 31
0.0
  0
LINE
  5
137A
100
AcDbEntity
  8
13000_TOP
370
    25
390
0
  6
CONTINUOUS
 62
     7
100
AcDbLine
 10
1123.666666
 20
859.83333
 30
0.0
 11
1157.166666
 21
859.83333
 31
0.0
  0
LINE
  5
137B
100
AcDbEntity
  8
13000_TOP
370
    25
390
0
  6
CONTINUOUS
 62
     7
100
AcDbLine
 10
565.166666
 20
859.83333
 30
0.0
 11
598.666666
 21
859.83333
 31
0.0
  0
LINE
  5
137C
100
AcDbEntity
  8
13000_TOP
370
    25
390
0
  6
CONTINUOUS
 62
     7
100
AcDbLine
 10
598.666666
 20
861.33333
 30
0.0
 11
599.166666
 21
861.33333
 31
0.0
  0
LINE
  5
137D
100
AcDbEntity
  8
13000_TOP
370
    25
390
0
  6
CONTINUOUS
 62
     7
100
AcDbLine
 10
1123.166666
 20
861.33333
 30
0.0
 11
1123.666666
 21
861.33333
 31
0.0
  0
LINE
  5
137E
100
AcDbEntity
  8
13000_TOP
370
    25
390
0
  6
CONTINUOUS
 62
     7
100
AcDbLine
 10
599.166666
 20
862.33333
 30
0.0
 11
1123.166666
 21
862.33333
 31
0.0
  0
LINE
  5
137F
100
AcDbEntity
  8
13000_TOP
370
    25
390
0
  6
CONTINUOUS
 62
     7
100
AcDbLine
 10
598.666666
 20
863.83333
 30
0.0
 11
599.166666
 21
863.83333
 31
0.0
  0
LINE
  5
1380
100
AcDbEntity
  8
13000_TOP
370
    25
390
0
  6
CONTINUOUS
 62
     7
100
AcDbLine
 10
1123.166666
 20
863.83333
 30
0.0
 11
1123.666666
 21
863.83333
 31
0.0
  0
LINE
  5
1381
100
AcDbEntity
  8
13000_TOP
370
    25
390
0
  6
CONTINUOUS
 62
     7
100
AcDbLine
 10
598.666666
 20
867.33333
 30
0.0
 11
601.666666
 21
867.33333
 31
0.0
  0
LINE
  5
1382
100
AcDbEntity
  8
13000_TOP
370
    25
390
0
  6
CONTINUOUS
 62
     7
100
AcDbLine
 10
1123.166666
 20
867.33333
 30
0.0
 11
1123.666666
 21
867.33333
 31
0.0
  0
LINE
  5
1383
100
AcDbEntity
  8
13000_TOP
370
    25
390
0
  6
CONTINUOUS
 62
     7
100
AcDbLine
 10
1120.666666
 20
867.33333
 30
0.0
 11
1123.166666
 21
867.33333
 31
0.0
  0
LINE
  5
1384
100
AcDbEntity
  8
13000_TOP
370
    25
390
0
  6
CONTINUOUS
 62
     7
100
AcDbLine
 10
1160.166666
 20
868.83333
 30
0.0
 11
1161.166666
 21
868.83333
 31
0.0
  0
LINE
  5
1385
100
AcDbEntity
  8
13000_TOP
370
    25
390
0
  6
CONTINUOUS
 62
     7
100
AcDbLine
 10
561.166666
 20
868.83333
 30
0.0
 11
562.166666
 21
868.83333
 31
0.0
  0
LINE
  5
1386
100
AcDbEntity
  8
13000_TOP
370
    25
390
0
  6
CONTINUOUS
 62
     7
100
AcDbLine
 10
1157.666666
 20
869.33333
 30
0.0
 11
1161.166666
 21
869.33333
 31
0.0
  0
LINE
  5
1387
100
AcDbEntity
  8
13000_TOP
370
    25
390
0
  6
CONTINUOUS
 62
     7
100
AcDbLine
 10
561.166666
 20
869.33333
 30
0.0
 11
562.166666
 21
869.33333
 31
0.0
  0
LINE
  5
1388
100
AcDbEntity
  8
13000_TOP
370
    25
390
0
  6
CONTINUOUS
 62
     7
100
AcDbLine
 10
562.166666
 20
869.33333
 30
0.0
 11
564.666666
 21
869.33333
 31
0.0
  0
LINE
  5
1389
100
AcDbEntity
  8
13000_TOP
370
    25
390
0
  6
CONTINUOUS
 62
     7
100
AcDbLine
 10
561.166666
 20
896.6187
 30
0.0
 11
561.166697
 21
896.6187
 31
0.0
  0
LINE
  5
138A
100
AcDbEntity
  8
13000_TOP
370
    25
390
0
  6
CONTINUOUS
 62
     7
100
AcDbLine
 10
598.666666
 20
925.33333
 30
0.0
 11
601.666666
 21
925.33333
 31
0.0
  0
LINE
  5
138B
100
AcDbEntity
  8
13000_TOP
370
    25
390
0
  6
CONTINUOUS
 62
     7
100
AcDbLine
 10
1123.166666
 20
925.33333
 30
0.0
 11
1123.666666
 21
925.33333
 31
0.0
  0
LINE
  5
138C
100
AcDbEntity
  8
13000_TOP
370
    25
390
0
  6
CONTINUOUS
 62
     7
100
AcDbLine
 10
1120.666666
 20
925.33333
 30
0.0
 11
1123.166666
 21
925.33333
 31
0.0
  0
LINE
  5
138D
100
AcDbEntity
  8
13000_TOP
370
    25
390
0
  6
CONTINUOUS
 62
     7
100
AcDbLine
 10
1123.666666
 20
928.58333
 30
0.0
 11
1127.166666
 21
928.58333
 31
0.0
  0
LINE
  5
138E
100
AcDbEntity
  8
13000_TOP
370
    25
390
0
  6
CONTINUOUS
 62
     7
100
AcDbLine
 10
595.166666
 20
928.58333
 30
0.0
 11
598.666666
 21
928.58333
 31
0.0
  0
LINE
  5
138F
100
AcDbEntity
  8
13000_TOP
370
    25
390
0
  6
CONTINUOUS
 62
     7
100
AcDbLine
 10
1123.666666
 20
928.83333
 30
0.0
 11
1123.666727
 21
928.83333
 31
0.0
  0
LINE
  5
1390
100
AcDbEntity
  8
13000_TOP
370
    25
390
0
  6
CONTINUOUS
 62
     7
100
AcDbLine
 10
599.166666
 20
930.33333
 30
0.0
 11
1123.166666
 21
930.33333
 31
0.0
  0
LINE
  5
1391
100
AcDbEntity
  8
13000_TOP
370
    25
390
0
  6
CONTINUOUS
 62
     7
100
AcDbLine
 10
1123.666666
 20
931.58333
 30
0.0
 11
1123.666697
 21
931.58333
 31
0.0
  0
LINE
  5
1392
100
AcDbEntity
  8
13000_TOP
370
    25
390
0
  6
CONTINUOUS
 62
     7
100
AcDbLine
 10
599.166666
 20
933.83333
 30
0.0
 11
1123.166666
 21
933.83333
 31
0.0
  0
LINE
  5
1393
100
AcDbEntity
  8
13000_TOP
370
    25
390
0
  6
CONTINUOUS
 62
     7
100
AcDbLine
 10
1101.166666
 20
934.33333
 30
0.0
 11
1123.666666
 21
934.33333
 31
0.0
  0
LINE
  5
1394
100
AcDbEntity
  8
13000_TOP
370
    25
390
0
  6
CONTINUOUS
 62
     7
100
AcDbLine
 10
599.666666
 20
934.33333
 30
0.0
 11
621.166666
 21
934.33333
 31
0.0
  0
LINE
  5
1395
100
AcDbEntity
  8
13000_TOP
370
    25
390
0
  6
CONTINUOUS
 62
     7
100
AcDbLine
 10
598.666666
 20
934.33333
 30
0.0
 11
599.666666
 21
934.33333
 31
0.0
  0
LINE
  5
1396
100
AcDbEntity
  8
13000_TOP
370
    25
390
0
  6
CONTINUOUS
 62
     7
100
AcDbLine
 10
561.166666
 20
1106.3734
 30
0.0
 11
561.166697
 21
1106.3734
 31
0.0
  0
LINE
  5
1397
100
AcDbEntity
  8
13000_TOP
370
    25
390
0
  6
CONTINUOUS
 62
     7
100
AcDbLine
 10
1101.166666
 20
1283.33333
 30
0.0
 11
1123.666666
 21
1283.33333
 31
0.0
  0
LINE
  5
1398
100
AcDbEntity
  8
13000_TOP
370
    25
390
0
  6
CONTINUOUS
 62
     7
100
AcDbLine
 10
598.666666
 20
1283.33333
 30
0.0
 11
599.666666
 21
1283.33333
 31
0.0
  0
LINE
  5
1399
100
AcDbEntity
  8
13000_TOP
370
    25
390
0
  6
CONTINUOUS
 62
     7
100
AcDbLine
 10
599.666666
 20
1283.33333
 30
0.0
 11
621.166666
 21
1283.33333
 31
0.0
  0
LINE
  5
139A
100
AcDbEntity
  8
13000_TOP
370
    25
390
0
  6
CONTINUOUS
 62
     7
100
AcDbLine
 10
599.166666
 20
1283.83333
 30
0.0
 11
1123.166666
 21
1283.83333
 31
0.0
  0
LINE
  5
139B
100
AcDbEntity
  8
13000_TOP
370
    25
390
0
  6
CONTINUOUS
 62
     7
100
AcDbLine
 10
1123.666666
 20
1286.08333
 30
0.0
 11
1123.666697
 21
1286.08333
 31
0.0
  0
LINE
  5
139C
100
AcDbEntity
  8
13000_TOP
370
    25
390
0
  6
CONTINUOUS
 62
     7
100
AcDbLine
 10
599.166666
 20
1287.33333
 30
0.0
 11
1123.166666
 21
1287.33333
 31
0.0
  0
LINE
  5
139D
100
AcDbEntity
  8
13000_TOP
370
    25
390
0
  6
CONTINUOUS
 62
     7
100
AcDbLine
 10
1123.666666
 20
1289.08333
 30
0.0
 11
1127.166666
 21
1289.08333
 31
0.0
  0
LINE
  5
139E
100
AcDbEntity
  8
13000_TOP
370
    25
390
0
  6
CONTINUOUS
 62
     7
100
AcDbLine
 10
595.166666
 20
1289.08333
 30
0.0
 11
598.666666
 21
1289.08333
 31
0.0
  0
LINE
  5
139F
100
AcDbEntity
  8
13000_TOP
370
    25
390
0
  6
CONTINUOUS
 62
     7
100
AcDbLine
 10
1120.666666
 20
1292.33333
 30
0.0
 11
1123.666666
 21
1292.33333
 31
0.0
  0
LINE
  5
13A0
100
AcDbEntity
  8
13000_TOP
370
    25
390
0
  6
CONTINUOUS
 62
     7
100
AcDbLine
 10
598.666666
 20
1292.33333
 30
0.0
 11
599.166666
 21
1292.33333
 31
0.0
  0
LINE
  5
13A1
100
AcDbEntity
  8
13000_TOP
370
    25
390
0
  6
CONTINUOUS
 62
     7
100
AcDbLine
 10
599.166666
 20
1292.33333
 30
0.0
 11
601.666666
 21
1292.33333
 31
0.0
  0
LINE
  5
13A2
100
AcDbEntity
  8
13000_TOP
370
    25
390
0
  6
CONTINUOUS
 62
     7
100
AcDbLine
 10
561.166666
 20
1321.047975
 30
0.0
 11
561.166697
 21
1321.047975
 31
0.0
  0
LINE
  5
13A3
100
AcDbEntity
  8
13000_TOP
370
    25
390
0
  6
CONTINUOUS
 62
     7
100
AcDbLine
 10
1157.666666
 20
1348.33333
 30
0.0
 11
1161.166666
 21
1348.33333
 31
0.0
  0
LINE
  5
13A4
100
AcDbEntity
  8
13000_TOP
370
    25
390
0
  6
CONTINUOUS
 62
     7
100
AcDbLine
 10
561.166666
 20
1348.33333
 30
0.0
 11
562.166666
 21
1348.33333
 31
0.0
  0
LINE
  5
13A5
100
AcDbEntity
  8
13000_TOP
370
    25
390
0
  6
CONTINUOUS
 62
     7
100
AcDbLine
 10
562.166666
 20
1348.33333
 30
0.0
 11
564.666666
 21
1348.33333
 31
0.0
  0
LINE
  5
13A6
100
AcDbEntity
  8
13000_TOP
370
    25
390
0
  6
CONTINUOUS
 62
     7
100
AcDbLine
 10
1160.166666
 20
1348.83333
 30
0.0
 11
1161.166666
 21
1348.83333
 31
0.0
  0
LINE
  5
13A7
100
AcDbEntity
  8
13000_TOP
370
    25
390
0
  6
CONTINUOUS
 62
     7
100
AcDbLine
 10
561.166666
 20
1348.83333
 30
0.0
 11
562.166666
 21
1348.83333
 31
0.0
  0
LINE
  5
13A8
100
AcDbEntity
  8
13000_TOP
370
    25
390
0
  6
CONTINUOUS
 62
     7
100
AcDbLine
 10
1120.666666
 20
1350.33333
 30
0.0
 11
1123.666666
 21
1350.33333
 31
0.0
  0
LINE
  5
13A9
100
AcDbEntity
  8
13000_TOP
370
    25
390
0
  6
CONTINUOUS
 62
     7
100
AcDbLine
 10
598.666666
 20
1350.33333
 30
0.0
 11
599.166666
 21
1350.33333
 31
0.0
  0
LINE
  5
13AA
100
AcDbEntity
  8
13000_TOP
370
    25
390
0
  6
CONTINUOUS
 62
     7
100
AcDbLine
 10
599.166666
 20
1350.33333
 30
0.0
 11
601.666666
 21
1350.33333
 31
0.0
  0
LINE
  5
13AB
100
AcDbEntity
  8
13000_TOP
370
    25
390
0
  6
CONTINUOUS
 62
     7
100
AcDbLine
 10
1123.166666
 20
1353.83333
 30
0.0
 11
1123.666666
 21
1353.83333
 31
0.0
  0
LINE
  5
13AC
100
AcDbEntity
  8
13000_TOP
370
    25
390
0
  6
CONTINUOUS
 62
     7
100
AcDbLine
 10
598.666666
 20
1353.83333
 30
0.0
 11
599.166666
 21
1353.83333
 31
0.0
  0
LINE
  5
13AD
100
AcDbEntity
  8
13000_TOP
370
    25
390
0
  6
CONTINUOUS
 62
     7
100
AcDbLine
 10
599.166666
 20
1355.33333
 30
0.0
 11
1123.166666
 21
1355.33333
 31
0.0
  0
LINE
  5
13AE
100
AcDbEntity
  8
13000_TOP
370
    25
390
0
  6
CONTINUOUS
 62
     7
100
AcDbLine
 10
1123.166666
 20
1356.33333
 30
0.0
 11
1123.666666
 21
1356.33333
 31
0.0
  0
LINE
  5
13AF
100
AcDbEntity
  8
13000_TOP
370
    25
390
0
  6
CONTINUOUS
 62
     7
100
AcDbLine
 10
598.666666
 20
1356.33333
 30
0.0
 11
599.166666
 21
1356.33333
 31
0.0
  0
LINE
  5
13B0
100
AcDbEntity
  8
13000_TOP
370
    25
390
0
  6
CONTINUOUS
 62
     7
100
AcDbLine
 10
1123.666666
 20
1357.83333
 30
0.0
 11
1157.166666
 21
1357.83333
 31
0.0
  0
LINE
  5
13B1
100
AcDbEntity
  8
13000_TOP
370
    25
390
0
  6
CONTINUOUS
 62
     7
100
AcDbLine
 10
565.166666
 20
1357.83333
 30
0.0
 11
598.666666
 21
1357.83333
 31
0.0
  0
LINE
  5
13B2
100
AcDbEntity
  8
13000_TOP
370
    25
390
0
  6
CONTINUOUS
 62
     7
100
AcDbLine
 10
599.166666
 20
1358.83333
 30
0.0
 11
1123.166666
 21
1358.83333
 31
0.0
  0
LINE
  5
13B3
100
AcDbEntity
  8
13000_TOP
370
    25
390
0
  6
CONTINUOUS
 62
     7
100
AcDbLine
 10
1123.666666
 20
1358.83333
 30
0.0
 11
1157.666666
 21
1358.83333
 31
0.0
  0
LINE
  5
13B4
100
AcDbEntity
  8
13000_TOP
370
    25
390
0
  6
CONTINUOUS
 62
     7
100
AcDbLine
 10
564.666666
 20
1358.83333
 30
0.0
 11
598.666666
 21
1358.83333
 31
0.0
  0
LINE
  5
13B5
100
AcDbEntity
  8
13000_TOP
370
    25
390
0
  6
CONTINUOUS
 62
     7
100
AcDbLine
 10
561.166666
 20
862.33333
 30
0.0
 11
561.166666
 21
1355.33333
 31
0.0
  0
LINE
  5
13B6
100
AcDbEntity
  8
13000_TOP
370
    25
390
0
  6
CONTINUOUS
 62
     7
100
AcDbLine
 10
562.166666
 20
1348.33333
 30
0.0
 11
562.166666
 21
1354.83333
 31
0.0
  0
LINE
  5
13B7
100
AcDbEntity
  8
13000_TOP
370
    25
390
0
  6
CONTINUOUS
 62
     7
100
AcDbLine
 10
562.166666
 20
862.83333
 30
0.0
 11
562.166666
 21
869.33333
 31
0.0
  0
LINE
  5
13B8
100
AcDbEntity
  8
13000_TOP
370
    25
390
0
  6
CONTINUOUS
 62
     7
100
AcDbLine
 10
564.666666
 20
869.33333
 30
0.0
 11
564.666666
 21
1348.33333
 31
0.0
  0
LINE
  5
13B9
100
AcDbEntity
  8
13000_TOP
370
    25
390
0
  6
CONTINUOUS
 62
     7
100
AcDbLine
 10
595.166666
 20
928.58333
 30
0.0
 11
595.166666
 21
1289.08333
 31
0.0
  0
LINE
  5
13BA
100
AcDbEntity
  8
13000_TOP
370
    25
390
0
  6
CONTINUOUS
 62
     7
100
AcDbLine
 10
598.666666
 20
858.83333
 30
0.0
 11
598.666666
 21
1357.83333
 31
0.0
  0
LINE
  5
13BB
100
AcDbEntity
  8
13000_TOP
370
    25
390
0
  6
CONTINUOUS
 62
     7
100
AcDbLine
 10
598.666666
 20
1357.833332
 30
0.0
 11
598.666666
 21
1358.83333
 31
0.0
  0
LINE
  5
13BC
100
AcDbEntity
  8
13000_TOP
370
    25
390
0
  6
CONTINUOUS
 62
     7
100
AcDbLine
 10
599.166666
 20
858.83333
 30
0.0
 11
599.166666
 21
933.83333
 31
0.0
  0
LINE
  5
13BD
100
AcDbEntity
  8
13000_TOP
370
    25
390
0
  6
CONTINUOUS
 62
     7
100
AcDbLine
 10
599.166666
 20
1287.33333
 30
0.0
 11
599.166666
 21
1292.33333
 31
0.0
  0
LINE
  5
13BE
100
AcDbEntity
  8
13000_TOP
370
    25
390
0
  6
CONTINUOUS
 62
     7
100
AcDbLine
 10
599.166666
 20
1283.83333
 30
0.0
 11
599.166666
 21
1287.33333
 31
0.0
  0
LINE
  5
13BF
100
AcDbEntity
  8
13000_TOP
370
    25
390
0
  6
CONTINUOUS
 62
     7
100
AcDbLine
 10
599.166666
 20
1292.33333
 30
0.0
 11
599.166666
 21
1350.33333
 31
0.0
  0
LINE
  5
13C0
100
AcDbEntity
  8
13000_TOP
370
    25
390
0
  6
CONTINUOUS
 62
     7
100
AcDbLine
 10
599.166666
 20
1350.33333
 30
0.0
 11
599.166666
 21
1355.33333
 31
0.0
  0
LINE
  5
13C1
100
AcDbEntity
  8
13000_TOP
370
    25
390
0
  6
CONTINUOUS
 62
     7
100
AcDbLine
 10
599.166666
 20
1355.33333
 30
0.0
 11
599.166666
 21
1358.83333
 31
0.0
  0
LINE
  5
13C2
100
AcDbEntity
  8
13000_TOP
370
    25
390
0
  6
CONTINUOUS
 62
     7
100
AcDbLine
 10
599.666666
 20
934.33333
 30
0.0
 11
599.666666
 21
1283.33333
 31
0.0
  0
LINE
  5
13C3
100
AcDbEntity
  8
13000_TOP
370
    25
390
0
  6
CONTINUOUS
 62
     7
100
AcDbLine
 10
601.666666
 20
867.33333
 30
0.0
 11
601.666666
 21
925.33333
 31
0.0
  0
LINE
  5
13C4
100
AcDbEntity
  8
13000_TOP
370
    25
390
0
  6
CONTINUOUS
 62
     7
100
AcDbLine
 10
601.666666
 20
1292.33333
 30
0.0
 11
601.666666
 21
1350.33333
 31
0.0
  0
LINE
  5
13C5
100
AcDbEntity
  8
13000_TOP
370
    25
390
0
  6
CONTINUOUS
 62
     7
100
AcDbLine
 10
616.166666
 20
858.83333
 30
0.0
 11
616.166666
 21
858.833361
 31
0.0
  0
LINE
  5
13C6
100
AcDbEntity
  8
13000_TOP
370
    25
390
0
  6
CONTINUOUS
 62
     7
100
AcDbLine
 10
621.166666
 20
934.33333
 30
0.0
 11
621.166666
 21
1283.33333
 31
0.0
  0
LINE
  5
13C7
100
AcDbEntity
  8
13000_TOP
370
    25
390
0
  6
CONTINUOUS
 62
     7
100
AcDbLine
 10
662.166666
 20
858.83333
 30
0.0
 11
662.166666
 21
858.833361
 31
0.0
  0
LINE
  5
13C8
100
AcDbEntity
  8
13000_TOP
370
    25
390
0
  6
CONTINUOUS
 62
     7
100
AcDbLine
 10
1060.166666
 20
858.83333
 30
0.0
 11
1060.166666
 21
858.833361
 31
0.0
  0
LINE
  5
13C9
100
AcDbEntity
  8
13000_TOP
370
    25
390
0
  6
CONTINUOUS
 62
     7
100
AcDbLine
 10
1101.166666
 20
934.33333
 30
0.0
 11
1101.166666
 21
1283.33333
 31
0.0
  0
LINE
  5
13CA
100
AcDbEntity
  8
13000_TOP
370
    25
390
0
  6
CONTINUOUS
 62
     7
100
AcDbLine
 10
1106.166666
 20
858.83333
 30
0.0
 11
1106.166666
 21
858.833361
 31
0.0
  0
LINE
  5
13CB
100
AcDbEntity
  8
13000_TOP
370
    25
390
0
  6
CONTINUOUS
 62
     7
100
AcDbLine
 10
1120.666666
 20
867.33333
 30
0.0
 11
1120.666666
 21
925.33333
 31
0.0
  0
LINE
  5
13CC
100
AcDbEntity
  8
13000_TOP
370
    25
390
0
  6
CONTINUOUS
 62
     7
100
AcDbLine
 10
1120.666666
 20
1292.33333
 30
0.0
 11
1120.666666
 21
1350.33333
 31
0.0
  0
LINE
  5
13CD
100
AcDbEntity
  8
13000_TOP
370
    25
390
0
  6
CONTINUOUS
 62
     7
100
AcDbLine
 10
1122.666666
 20
934.33333
 30
0.0
 11
1122.666666
 21
1283.33333
 31
0.0
  0
LINE
  5
13CE
100
AcDbEntity
  8
13000_TOP
370
    25
390
0
  6
CONTINUOUS
 62
     7
100
AcDbLine
 10
1123.166666
 20
858.83333
 30
0.0
 11
1123.166666
 21
933.83333
 31
0.0
  0
LINE
  5
13CF
100
AcDbEntity
  8
13000_TOP
370
    25
390
0
  6
CONTINUOUS
 62
     7
100
AcDbLine
 10
1123.166666
 20
1292.33333
 30
0.0
 11
1123.166666
 21
1350.33333
 31
0.0
  0
LINE
  5
13D0
100
AcDbEntity
  8
13000_TOP
370
    25
390
0
  6
CONTINUOUS
 62
     7
100
AcDbLine
 10
1123.166666
 20
1355.33333
 30
0.0
 11
1123.166666
 21
1358.83333
 31
0.0
  0
LINE
  5
13D1
100
AcDbEntity
  8
13000_TOP
370
    25
390
0
  6
CONTINUOUS
 62
     7
100
AcDbLine
 10
1123.166666
 20
1350.33333
 30
0.0
 11
1123.166666
 21
1355.33333
 31
0.0
  0
LINE
  5
13D2
100
AcDbEntity
  8
13000_TOP
370
    25
390
0
  6
CONTINUOUS
 62
     7
100
AcDbLine
 10
1123.166666
 20
1287.33333
 30
0.0
 11
1123.166666
 21
1292.33333
 31
0.0
  0
LINE
  5
13D3
100
AcDbEntity
  8
13000_TOP
370
    25
390
0
  6
CONTINUOUS
 62
     7
100
AcDbLine
 10
1123.166666
 20
1283.83333
 30
0.0
 11
1123.166666
 21
1287.33333
 31
0.0
  0
LINE
  5
13D4
100
AcDbEntity
  8
13000_TOP
370
    25
390
0
  6
CONTINUOUS
 62
     7
100
AcDbLine
 10
1123.666666
 20
858.83333
 30
0.0
 11
1123.666666
 21
1358.83333
 31
0.0
  0
LINE
  5
13D5
100
AcDbEntity
  8
13000_TOP
370
    25
390
0
  6
CONTINUOUS
 62
     7
100
AcDbLine
 10
1127.166666
 20
928.58333
 30
0.0
 11
1127.166666
 21
1289.08333
 31
0.0
  0
LINE
  5
13D6
100
AcDbEntity
  8
13000_TOP
370
    25
390
0
  6
CONTINUOUS
 62
     7
100
AcDbLine
 10
1157.666666
 20
869.33333
 30
0.0
 11
1157.666666
 21
1348.33333
 31
0.0
  0
LINE
  5
13D7
100
AcDbEntity
  8
13000_TOP
370
    25
390
0
  6
CONTINUOUS
 62
     7
100
AcDbLine
 10
1160.166666
 20
862.83333
 30
0.0
 11
1160.166666
 21
869.33333
 31
0.0
  0
LINE
  5
13D8
100
AcDbEntity
  8
13000_TOP
370
    25
390
0
  6
CONTINUOUS
 62
     7
100
AcDbLine
 10
1160.166666
 20
1348.33333
 30
0.0
 11
1160.166666
 21
1354.83333
 31
0.0
  0
LINE
  5
13D9
100
AcDbEntity
  8
13000_TOP
370
    25
390
0
  6
CONTINUOUS
 62
     7
100
AcDbLine
 10
1161.166666
 20
862.33333
 30
0.0
 11
1161.166666
 21
1348.33333
 31
0.0
  0
LINE
  5
13DA
100
AcDbEntity
  8
13000_TOP
370
    25
390
0
  6
CONTINUOUS
 62
     7
100
AcDbLine
 10
1161.166666
 20
1348.333336
 30
0.0
 11
1161.166666
 21
1348.83333
 31
0.0
  0
LINE
  5
13DB
100
AcDbEntity
  8
13000_TOP
370
    25
390
0
  6
CONTINUOUS
 62
     7
100
AcDbLine
 10
1161.166666
 20
1348.83333
 30
0.0
 11
1161.166666
 21
1355.33333
 31
0.0
  0
LINE
  5
13DC
100
AcDbEntity
  8
13000_TOP
370
    25
390
0
  6
CONTINUOUS
 62
     7
100
AcDbLine
 10
561.166666
 20
871.102234
 30
0.0
 11
561.166668
 21
871.10024
 31
0.0
  0
LINE
  5
13DD
100
AcDbEntity
  8
13000_TOP
370
    25
390
0
  6
CONTINUOUS
 62
     7
100
AcDbLine
 10
561.166667
 20
1319.316216
 30
0.0
 11
561.166666
 21
1319.314652
 31
0.0
  0
LINE
  5
13DE
100
AcDbEntity
  8
13000_TOP
370
    25
390
0
  6
CONTINUOUS
 62
     7
100
AcDbLine
 10
561.166668
 20
1346.56642
 30
0.0
 11
561.166666
 21
1346.564426
 31
0.0
  0
ARC
  5
13DF
100
AcDbEntity
  8
13000_TOP
370
    25
390
0
  6
CONTINUOUS
 62
     7
100
AcDbCircle
 10
564.666666
 20
862.33333
 30
0.0
 40
3.5
100
AcDbArc
 50
180.0
 51
270.0
  0
ARC
  5
13E0
100
AcDbEntity
  8
13000_TOP
370
    25
390
0
  6
CONTINUOUS
 62
     7
100
AcDbCircle
 10
564.666666
 20
902.383583
 30
0.0
 40
3.5
100
AcDbArc
 50
179.767078
 51
180.0
  0
ARC
  5
13E1
100
AcDbEntity
  8
13000_TOP
370
    25
390
0
  6
CONTINUOUS
 62
     7
100
AcDbCircle
 10
564.666666
 20
902.633583
 30
0.0
 40
3.5
100
AcDbArc
 50
178.390143
 51
180.0
  0
ARC
  5
13E2
100
AcDbEntity
  8
13000_TOP
370
    25
390
0
  6
CONTINUOUS
 62
     7
100
AcDbCircle
 10
564.666666
 20
1315.283077
 30
0.0
 40
3.5
100
AcDbArc
 50
180.0
 51
180.232923
  0
ARC
  5
13E3
100
AcDbEntity
  8
13000_TOP
370
    25
390
0
  6
CONTINUOUS
 62
     7
100
AcDbCircle
 10
564.666666
 20
1355.33333
 30
0.0
 40
3.5
100
AcDbArc
 50
90.0
 51
180.0
  0
ARC
  5
13E4
100
AcDbEntity
  8
13000_TOP
370
    25
390
0
  6
CONTINUOUS
 62
     7
100
AcDbCircle
 10
565.166666
 20
862.83333
 30
0.0
 40
3.0
100
AcDbArc
 50
180.0
 51
270.0
  0
ARC
  5
13E5
100
AcDbEntity
  8
13000_TOP
370
    25
390
0
  6
CONTINUOUS
 62
     7
100
AcDbCircle
 10
565.166666
 20
1354.83333
 30
0.0
 40
3.0
100
AcDbArc
 50
90.0
 51
180.0
  0
CIRCLE
  5
13E6
100
AcDbEntity
  8
13000_TOP
370
    25
390
0
  6
CONTINUOUS
 62
     7
100
AcDbCircle
 10
579.916666
 20
876.33333
 30
0.0
 40
5.75
  0
CIRCLE
  5
13E7
100
AcDbEntity
  8
13000_TOP
370
    25
390
0
  6
CONTINUOUS
 62
     7
100
AcDbCircle
 10
579.916666
 20
916.33333
 30
0.0
 40
5.75
  0
CIRCLE
  5
13E8
100
AcDbEntity
  8
13000_TOP
370
    25
390
0
  6
CONTINUOUS
 62
     7
100
AcDbCircle
 10
579.916666
 20
1301.33333
 30
0.0
 40
5.75
  0
CIRCLE
  5
13E9
100
AcDbEntity
  8
13000_TOP
370
    25
390
0
  6
CONTINUOUS
 62
     7
100
AcDbCircle
 10
579.916666
 20
1341.33333
 30
0.0
 40
5.75
  0
CIRCLE
  5
13EA
100
AcDbEntity
  8
13000_TOP
370
    25
390
0
  6
CONTINUOUS
 62
     7
100
AcDbCircle
 10
581.166666
 20
958.83333
 30
0.0
 40
2.7
  0
CIRCLE
  5
13EB
100
AcDbEntity
  8
13000_TOP
370
    25
390
0
  6
CONTINUOUS
 62
     7
100
AcDbCircle
 10
581.166666
 20
1058.83333
 30
0.0
 40
2.7
  0
CIRCLE
  5
13EC
100
AcDbEntity
  8
13000_TOP
370
    25
390
0
  6
CONTINUOUS
 62
     7
100
AcDbCircle
 10
581.166666
 20
1158.83333
 30
0.0
 40
2.7
  0
CIRCLE
  5
13ED
100
AcDbEntity
  8
13000_TOP
370
    25
390
0
  6
CONTINUOUS
 62
     7
100
AcDbCircle
 10
581.166666
 20
1258.83333
 30
0.0
 40
2.7
  0
CIRCLE
  5
13EE
100
AcDbEntity
  8
13000_TOP
370
    25
390
0
  6
CONTINUOUS
 62
     7
100
AcDbCircle
 10
611.166666
 20
946.33333
 30
0.0
 40
2.7
  0
CIRCLE
  5
13EF
100
AcDbEntity
  8
13000_TOP
370
    25
390
0
  6
CONTINUOUS
 62
     7
100
AcDbCircle
 10
611.166666
 20
971.33333
 30
0.0
 40
2.7
  0
CIRCLE
  5
13F0
100
AcDbEntity
  8
13000_TOP
370
    25
390
0
  6
CONTINUOUS
 62
     7
100
AcDbCircle
 10
611.166666
 20
996.33333
 30
0.0
 40
2.7
  0
CIRCLE
  5
13F1
100
AcDbEntity
  8
13000_TOP
370
    25
390
0
  6
CONTINUOUS
 62
     7
100
AcDbCircle
 10
611.166666
 20
1021.33333
 30
0.0
 40
2.7
  0
CIRCLE
  5
13F2
100
AcDbEntity
  8
13000_TOP
370
    25
390
0
  6
CONTINUOUS
 62
     7
100
AcDbCircle
 10
611.166666
 20
1046.33333
 30
0.0
 40
2.7
  0
CIRCLE
  5
13F3
100
AcDbEntity
  8
13000_TOP
370
    25
390
0
  6
CONTINUOUS
 62
     7
100
AcDbCircle
 10
611.166666
 20
1071.33333
 30
0.0
 40
2.7
  0
CIRCLE
  5
13F4
100
AcDbEntity
  8
13000_TOP
370
    25
390
0
  6
CONTINUOUS
 62
     7
100
AcDbCircle
 10
611.166666
 20
1096.33333
 30
0.0
 40
2.7
  0
CIRCLE
  5
13F5
100
AcDbEntity
  8
13000_TOP
370
    25
390
0
  6
CONTINUOUS
 62
     7
100
AcDbCircle
 10
611.166666
 20
1121.33333
 30
0.0
 40
2.7
  0
CIRCLE
  5
13F6
100
AcDbEntity
  8
13000_TOP
370
    25
390
0
  6
CONTINUOUS
 62
     7
100
AcDbCircle
 10
611.166666
 20
1146.33333
 30
0.0
 40
2.7
  0
CIRCLE
  5
13F7
100
AcDbEntity
  8
13000_TOP
370
    25
390
0
  6
CONTINUOUS
 62
     7
100
AcDbCircle
 10
611.166666
 20
1171.33333
 30
0.0
 40
2.7
  0
CIRCLE
  5
13F8
100
AcDbEntity
  8
13000_TOP
370
    25
390
0
  6
CONTINUOUS
 62
     7
100
AcDbCircle
 10
611.166666
 20
1196.33333
 30
0.0
 40
2.7
  0
CIRCLE
  5
13F9
100
AcDbEntity
  8
13000_TOP
370
    25
390
0
  6
CONTINUOUS
 62
     7
100
AcDbCircle
 10
611.166666
 20
1221.33333
 30
0.0
 40
2.7
  0
CIRCLE
  5
13FA
100
AcDbEntity
  8
13000_TOP
370
    25
390
0
  6
CONTINUOUS
 62
     7
100
AcDbCircle
 10
611.166666
 20
1246.33333
 30
0.0
 40
2.7
  0
CIRCLE
  5
13FB
100
AcDbEntity
  8
13000_TOP
370
    25
390
0
  6
CONTINUOUS
 62
     7
100
AcDbCircle
 10
611.166666
 20
1271.33333
 30
0.0
 40
2.7
  0
CIRCLE
  5
13FC
100
AcDbEntity
  8
13000_TOP
370
    25
390
0
  6
CONTINUOUS
 62
     7
100
AcDbCircle
 10
636.166666
 20
883.83333
 30
0.0
 40
7.25
  0
CIRCLE
  5
13FD
100
AcDbEntity
  8
13000_TOP
370
    25
390
0
  6
CONTINUOUS
 62
     7
100
AcDbCircle
 10
636.166666
 20
903.83333
 30
0.0
 40
7.25
  0
CIRCLE
  5
13FE
100
AcDbEntity
  8
13000_TOP
370
    25
390
0
  6
CONTINUOUS
 62
     7
100
AcDbCircle
 10
636.166666
 20
1313.83333
 30
0.0
 40
7.25
  0
CIRCLE
  5
13FF
100
AcDbEntity
  8
13000_TOP
370
    25
390
0
  6
CONTINUOUS
 62
     7
100
AcDbCircle
 10
636.166666
 20
1333.83333
 30
0.0
 40
7.25
  0
CIRCLE
  5
1400
100
AcDbEntity
  8
13000_TOP
370
    25
390
0
  6
CONTINUOUS
 62
     7
100
AcDbCircle
 10
661.166666
 20
878.83333
 30
0.0
 40
2.7
  0
CIRCLE
  5
1401
100
AcDbEntity
  8
13000_TOP
370
    25
390
0
  6
CONTINUOUS
 62
     7
100
AcDbCircle
 10
661.166666
 20
1338.83333
 30
0.0
 40
2.7
  0
CIRCLE
  5
1402
100
AcDbEntity
  8
13000_TOP
370
    25
390
0
  6
CONTINUOUS
 62
     7
100
AcDbCircle
 10
761.166666
 20
878.83333
 30
0.0
 40
2.7
  0
CIRCLE
  5
1403
100
AcDbEntity
  8
13000_TOP
370
    25
390
0
  6
CONTINUOUS
 62
     7
100
AcDbCircle
 10
761.166666
 20
1338.83333
 30
0.0
 40
2.7
  0
CIRCLE
  5
1404
100
AcDbEntity
  8
13000_TOP
370
    25
390
0
  6
CONTINUOUS
 62
     7
100
AcDbCircle
 10
861.166666
 20
878.83333
 30
0.0
 40
2.7
  0
CIRCLE
  5
1405
100
AcDbEntity
  8
13000_TOP
370
    25
390
0
  6
CONTINUOUS
 62
     7
100
AcDbCircle
 10
861.166666
 20
1338.83333
 30
0.0
 40
2.7
  0
CIRCLE
  5
1406
100
AcDbEntity
  8
13000_TOP
370
    25
390
0
  6
CONTINUOUS
 62
     7
100
AcDbCircle
 10
961.166666
 20
878.83333
 30
0.0
 40
2.7
  0
CIRCLE
  5
1407
100
AcDbEntity
  8
13000_TOP
370
    25
390
0
  6
CONTINUOUS
 62
     7
100
AcDbCircle
 10
961.166666
 20
1338.83333
 30
0.0
 40
2.7
  0
CIRCLE
  5
1408
100
AcDbEntity
  8
13000_TOP
370
    25
390
0
  6
CONTINUOUS
 62
     7
100
AcDbCircle
 10
1061.166666
 20
878.83333
 30
0.0
 40
2.7
  0
CIRCLE
  5
1409
100
AcDbEntity
  8
13000_TOP
370
    25
390
0
  6
CONTINUOUS
 62
     7
100
AcDbCircle
 10
1061.166666
 20
1338.83333
 30
0.0
 40
2.7
  0
CIRCLE
  5
140A
100
AcDbEntity
  8
13000_TOP
370
    25
390
0
  6
CONTINUOUS
 62
     7
100
AcDbCircle
 10
1086.166666
 20
883.83333
 30
0.0
 40
7.25
  0
CIRCLE
  5
140B
100
AcDbEntity
  8
13000_TOP
370
    25
390
0
  6
CONTINUOUS
 62
     7
100
AcDbCircle
 10
1086.166666
 20
903.83333
 30
0.0
 40
7.25
  0
CIRCLE
  5
140C
100
AcDbEntity
  8
13000_TOP
370
    25
390
0
  6
CONTINUOUS
 62
     7
100
AcDbCircle
 10
1086.166666
 20
1313.83333
 30
0.0
 40
7.25
  0
CIRCLE
  5
140D
100
AcDbEntity
  8
13000_TOP
370
    25
390
0
  6
CONTINUOUS
 62
     7
100
AcDbCircle
 10
1086.166666
 20
1333.83333
 30
0.0
 40
7.25
  0
CIRCLE
  5
140E
100
AcDbEntity
  8
13000_TOP
370
    25
390
0
  6
CONTINUOUS
 62
     7
100
AcDbCircle
 10
1111.166666
 20
946.33333
 30
0.0
 40
2.7
  0
CIRCLE
  5
140F
100
AcDbEntity
  8
13000_TOP
370
    25
390
0
  6
CONTINUOUS
 62
     7
100
AcDbCircle
 10
1111.166666
 20
971.33333
 30
0.0
 40
2.7
  0
CIRCLE
  5
1410
100
AcDbEntity
  8
13000_TOP
370
    25
390
0
  6
CONTINUOUS
 62
     7
100
AcDbCircle
 10
1111.166666
 20
996.33333
 30
0.0
 40
2.7
  0
CIRCLE
  5
1411
100
AcDbEntity
  8
13000_TOP
370
    25
390
0
  6
CONTINUOUS
 62
     7
100
AcDbCircle
 10
1111.166666
 20
1021.33333
 30
0.0
 40
2.7
  0
CIRCLE
  5
1412
100
AcDbEntity
  8
13000_TOP
370
    25
390
0
  6
CONTINUOUS
 62
     7
100
AcDbCircle
 10
1111.166666
 20
1046.33333
 30
0.0
 40
2.7
  0
CIRCLE
  5
1413
100
AcDbEntity
  8
13000_TOP
370
    25
390
0
  6
CONTINUOUS
 62
     7
100
AcDbCircle
 10
1111.166666
 20
1071.33333
 30
0.0
 40
2.7
  0
CIRCLE
  5
1414
100
AcDbEntity
  8
13000_TOP
370
    25
390
0
  6
CONTINUOUS
 62
     7
100
AcDbCircle
 10
1111.166666
 20
1096.33333
 30
0.0
 40
2.7
  0
CIRCLE
  5
1415
100
AcDbEntity
  8
13000_TOP
370
    25
390
0
  6
CONTINUOUS
 62
     7
100
AcDbCircle
 10
1111.166666
 20
1121.33333
 30
0.0
 40
2.7
  0
CIRCLE
  5
1416
100
AcDbEntity
  8
13000_TOP
370
    25
390
0
  6
CONTINUOUS
 62
     7
100
AcDbCircle
 10
1111.166666
 20
1146.33333
 30
0.0
 40
2.7
  0
CIRCLE
  5
1417
100
AcDbEntity
  8
13000_TOP
370
    25
390
0
  6
CONTINUOUS
 62
     7
100
AcDbCircle
 10
1111.166666
 20
1171.33333
 30
0.0
 40
2.7
  0
CIRCLE
  5
1418
100
AcDbEntity
  8
13000_TOP
370
    25
390
0
  6
CONTINUOUS
 62
     7
100
AcDbCircle
 10
1111.166666
 20
1196.33333
 30
0.0
 40
2.7
  0
CIRCLE
  5
1419
100
AcDbEntity
  8
13000_TOP
370
    25
390
0
  6
CONTINUOUS
 62
     7
100
AcDbCircle
 10
1111.166666
 20
1221.33333
 30
0.0
 40
2.7
  0
CIRCLE
  5
141A
100
AcDbEntity
  8
13000_TOP
370
    25
390
0
  6
CONTINUOUS
 62
     7
100
AcDbCircle
 10
1111.166666
 20
1246.33333
 30
0.0
 40
2.7
  0
CIRCLE
  5
141B
100
AcDbEntity
  8
13000_TOP
370
    25
390
0
  6
CONTINUOUS
 62
     7
100
AcDbCircle
 10
1111.166666
 20
1271.33333
 30
0.0
 40
2.7
  0
CIRCLE
  5
141C
100
AcDbEntity
  8
13000_TOP
370
    25
390
0
  6
CONTINUOUS
 62
     7
100
AcDbCircle
 10
1141.166666
 20
958.83333
 30
0.0
 40
2.7
  0
CIRCLE
  5
141D
100
AcDbEntity
  8
13000_TOP
370
    25
390
0
  6
CONTINUOUS
 62
     7
100
AcDbCircle
 10
1141.166666
 20
1058.83333
 30
0.0
 40
2.7
  0
CIRCLE
  5
141E
100
AcDbEntity
  8
13000_TOP
370
    25
390
0
  6
CONTINUOUS
 62
     7
100
AcDbCircle
 10
1141.166666
 20
1158.83333
 30
0.0
 40
2.7
  0
CIRCLE
  5
141F
100
AcDbEntity
  8
13000_TOP
370
    25
390
0
  6
CONTINUOUS
 62
     7
100
AcDbCircle
 10
1141.166666
 20
1258.83333
 30
0.0
 40
2.7
  0
CIRCLE
  5
1420
100
AcDbEntity
  8
13000_TOP
370
    25
390
0
  6
CONTINUOUS
 62
     7
100
AcDbCircle
 10
1142.416666
 20
876.33333
 30
0.0
 40
5.75
  0
CIRCLE
  5
1421
100
AcDbEntity
  8
13000_TOP
370
    25
390
0
  6
CONTINUOUS
 62
     7
100
AcDbCircle
 10
1142.416666
 20
916.33333
 30
0.0
 40
5.75
  0
CIRCLE
  5
1422
100
AcDbEntity
  8
13000_TOP
370
    25
390
0
  6
CONTINUOUS
 62
     7
100
AcDbCircle
 10
1142.416666
 20
1301.33333
 30
0.0
 40
5.75
  0
CIRCLE
  5
1423
100
AcDbEntity
  8
13000_TOP
370
    25
390
0
  6
CONTINUOUS
 62
     7
100
AcDbCircle
 10
1142.416666
 20
1341.33333
 30
0.0
 40
5.75
  0
ARC
  5
1424
100
AcDbEntity
  8
13000_TOP
370
    25
390
0
  6
CONTINUOUS
 62
     7
100
AcDbCircle
 10
1157.166666
 20
862.83333
 30
0.0
 40
3.0
100
AcDbArc
 50
270.0
 51
0.0
  0
ARC
  5
1425
100
AcDbEntity
  8
13000_TOP
370
    25
390
0
  6
CONTINUOUS
 62
     7
100
AcDbCircle
 10
1157.166666
 20
1354.83333
 30
0.0
 40
3.0
100
AcDbArc
 50
0.0
 51
90.0
  0
ARC
  5
1426
100
AcDbEntity
  8
13000_TOP
370
    25
390
0
  6
CONTINUOUS
 62
     7
100
AcDbCircle
 10
1157.666666
 20
862.33333
 30
0.0
 40
3.5
100
AcDbArc
 50
270.0
 51
0.0
  0
ARC
  5
1427
100
AcDbEntity
  8
13000_TOP
370
    25
390
0
  6
CONTINUOUS
 62
     7
100
AcDbCircle
 10
1157.666666
 20
1355.33333
 30
0.0
 40
3.5
100
AcDbArc
 50
0.0
 51
90.0
  0
LINE
  5
1428
100
AcDbEntity
  8
13000_TOP
370
    13
390
0
  6
CENTER
 62
     7
100
AcDbLine
 10
527.833332
 20
1108.83333
 30
0.0
 11
1194.5
 21
1108.83333
 31
0.0
  0
LINE
  5
1429
100
AcDbEntity
  8
13000_TOP
370
    13
390
0
  6
CENTER
 62
     7
100
AcDbLine
 10
861.166666
 20
825.499996
 30
0.0
 11
861.166666
 21
1392.166664
 31
0.0
  0
LINE
  5
142A
100
AcDbEntity
  8
13100_TOP_DIM
370
    13
390
0
  6
CONTINUOUS
 62
     7
100
AcDbLine
 10
621.166666
 20
1283.83333
 30
0.0
 11
621.166666
 21
1493.166665
 31
0.0
  0
LINE
  5
142B
100
AcDbEntity
  8
13100_TOP_DIM
370
    13
390
0
  6
CONTINUOUS
 62
     7
100
AcDbLine
 10
1101.166666
 20
1493.166665
 30
0.0
 11
1101.166666
 21
1283.83333
 31
0.0
  0
LINE
  5
142C
100
AcDbEntity
  8
13100_TOP_DIM
370
    13
390
0
  6
CONTINUOUS
 62
     7
100
AcDbLine
 10
621.166666
 20
1479.833331
 30
0.0
 11
1101.166666
 21
1479.833331
 31
0.0
  0
TEXT
  5
142D
100
AcDbEntity
  8
13100_TOP_DIM
370
    13
390
0
  6
CONTINUOUS
 62
     7
100
AcDbText
 10
827.833332
 20
1493.166665
 30
0.0
 40
26.666667
  1
480
 72
     1
 11
861.166666
 21
1493.166665
 31
0.0
100
AcDbText
  0
LINE
  5
142E
100
AcDbEntity
  8
13100_TOP_DIM
370
    13
390
0
  6
CONTINUOUS
 62
     7
100
AcDbLine
 10
630.166666
 20
883.83333
 30
0.0
 11
426.833331
 21
883.83333
 31
0.0
  0
LINE
  5
142F
100
AcDbEntity
  8
13100_TOP_DIM
370
    13
390
0
  6
CONTINUOUS
 62
     7
100
AcDbLine
 10
426.833331
 20
1333.83333
 30
0.0
 11
630.166666
 21
1333.83333
 31
0.0
  0
LINE
  5
1430
100
AcDbEntity
  8
13100_TOP_DIM
370
    13
390
0
  6
CONTINUOUS
 62
     7
100
AcDbLine
 10
440.166665
 20
883.83333
 30
0.0
 11
440.166665
 21
1333.83333
 31
0.0
  0
TEXT
  5
1431
100
AcDbEntity
  8
13100_TOP_DIM
370
    13
390
0
  6
CONTINUOUS
 62
     7
100
AcDbText
 10
426.833331
 20
1075.499996
 30
0.0
 40
26.666667
  1
450
 50
90.0
 72
     1
 11
426.833331
 21
1108.83333
 31
0.0
100
AcDbText
  0
LINE
  5
1432
100
AcDbEntity
  8
13100_TOP_DIM
370
    13
390
0
  6
CONTINUOUS
 62
     7
100
AcDbLine
 10
1092.166666
 20
903.83333
 30
0.0
 11
1295.500001
 21
903.83333
 31
0.0
  0
LINE
  5
1433
100
AcDbEntity
  8
13100_TOP_DIM
370
    13
390
0
  6
CONTINUOUS
 62
     7
100
AcDbLine
 10
1295.500001
 20
1313.83333
 30
0.0
 11
1092.166666
 21
1313.83333
 31
0.0
  0
LINE
  5
1434
100
AcDbEntity
  8
13100_TOP_DIM
370
    13
390
0
  6
CONTINUOUS
 62
     7
100
AcDbLine
 10
1282.166667
 20
903.83333
 30
0.0
 11
1282.166667
 21
1313.83333
 31
0.0
  0
TEXT
  5
1435
100
AcDbEntity
  8
13100_TOP_DIM
370
    13
390
0
  6
CONTINUOUS
 62
     7
100
AcDbText
 10
1268.833334
 20
1079.944441
 30
0.0
 40
26.666667
  1
410
 50
90.0
 72
     1
 11
1268.833334
 21
1108.83333
 31
0.0
100
AcDbText
  0
LINE
  5
1436
100
AcDbEntity
  8
13100_TOP_DIM
370
    13
390
0
  6
CONTINUOUS
 62
     7
100
AcDbLine
 10
636.166666
 20
876.58333
 30
0.0
 11
636.166666
 21
724.499995
 31
0.0
  0
LINE
  5
1437
100
AcDbEntity
  8
13100_TOP_DIM
370
    13
390
0
  6
CONTINUOUS
 62
     7
100
AcDbLine
 10
1086.166666
 20
724.499995
 30
0.0
 11
1086.166666
 21
876.58333
 31
0.0
  0
LINE
  5
1438
100
AcDbEntity
  8
13100_TOP_DIM
370
    13
390
0
  6
CONTINUOUS
 62
     7
100
AcDbLine
 10
636.166666
 20
737.833329
 30
0.0
 11
1086.166666
 21
737.833329
 31
0.0
  0
TEXT
  5
1439
100
AcDbEntity
  8
13100_TOP_DIM
370
    13
390
0
  6
CONTINUOUS
 62
     7
100
AcDbText
 10
827.833332
 20
751.166662
 30
0.0
 40
26.666667
  1
450
 72
     1
 11
861.166666
 21
751.166662
 31
0.0
100
AcDbText
  0
LINE
  5
143A
100
AcDbEntity
  8
13100_TOP_DIM
370
    13
390
0
  6
CONTINUOUS
 62
     7
100
AcDbLine
 10
641.29319
 20
1338.959854
 30
0.0
 11
707.959858
 21
1430.626521
 31
0.0
  0
LINE
  5
143B
100
AcDbEntity
  8
13100_TOP_DIM
370
    13
390
0
  6
CONTINUOUS
 62
     7
100
AcDbLine
 10
707.959858
 20
1430.626521
 30
0.0
 11
714.959858
 21
1430.626521
 31
0.0
  0
TEXT
  5
143C
100
AcDbEntity
  8
13100_TOP_DIM
370
    13
390
0
  6
CONTINUOUS
 62
     7
100
AcDbText
 10
709.709858
 20
1478.293189
 30
0.0
 40
26.666667
  1
 
100
AcDbText
  0
TEXT
  5
143D
100
AcDbEntity
  8
13100_TOP_DIM
370
    13
390
0
  6
CONTINUOUS
 62
     7
100
AcDbText
 10
709.709858
 20
1443.293188
 30
0.0
 40
26.666667
  1
M12
100
AcDbText
  0
LINE
  5
143E
100
AcDbEntity
  8
13100_TOP_DIM
370
    13
390
0
  6
CONTINUOUS
 62
     7
100
AcDbLine
 10
1081.040142
 20
1308.706806
 30
0.0
 11
1014.373474
 21
1212.040139
 31
0.0
  0
LINE
  5
143F
100
AcDbEntity
  8
13100_TOP_DIM
370
    13
390
0
  6
CONTINUOUS
 62
     7
100
AcDbLine
 10
1014.373474
 20
1212.040139
 30
0.0
 11
1003.873474
 21
1212.040139
 31
0.0
  0
TEXT
  5
1440
100
AcDbEntity
  8
13100_TOP_DIM
370
    13
390
0
  6
CONTINUOUS
 62
     7
100
AcDbText
 10
1012.623474
 20
1259.706806
 30
0.0
 40
26.666667
  1
 
 72
     2
 11
1012.623474
 21
1259.706806
 31
0.0
100
AcDbText
  0
TEXT
  5
1441
100
AcDbEntity
  8
13100_TOP_DIM
370
    13
390
0
  6
CONTINUOUS
 62
     7
100
AcDbText
 10
910.401251
 20
1224.706805
 30
0.0
 40
26.666667
  1
Ø14,5
 72
     2
 11
1012.623474
 21
1224.706805
 31
0.0
100
AcDbText
  0
SOLID
  5
1442
100
AcDbEntity
  8
13100_TOP_DIM
370
    13
390
0
  6
CONTINUOUS
 62
     7
100
AcDbTrace
 10
687.833333
 20
1488.610164
 30
0.0
 11
621.166666
 21
1479.833331
 31
0.0
 12
687.833333
 22
1471.056498
 32
0.0
 13
621.166666
 23
1479.833331
 33
0.0
  0
SOLID
  5
1443
100
AcDbEntity
  8
13100_TOP_DIM
370
    13
390
0
  6
CONTINUOUS
 62
     7
100
AcDbTrace
 10
1034.499999
 20
1471.056498
 30
0.0
 11
1101.166666
 21
1479.833331
 31
0.0
 12
1034.499999
 22
1488.610164
 32
0.0
 13
1101.166666
 23
1479.833331
 33
0.0
  0
SOLID
  5
1444
100
AcDbEntity
  8
13100_TOP_DIM
370
    13
390
0
  6
CONTINUOUS
 62
     7
100
AcDbTrace
 10
431.389832
 20
950.499997
 30
0.0
 11
440.166665
 21
883.83333
 31
0.0
 12
448.943498
 22
950.499997
 32
0.0
 13
440.166665
 23
883.83333
 33
0.0
  0
SOLID
  5
1445
100
AcDbEntity
  8
13100_TOP_DIM
370
    13
390
0
  6
CONTINUOUS
 62
     7
100
AcDbTrace
 10
448.943498
 20
1267.166663
 30
0.0
 11
440.166665
 21
1333.83333
 31
0.0
 12
431.389832
 22
1267.166663
 32
0.0
 13
440.166665
 23
1333.83333
 33
0.0
  0
SOLID
  5
1446
100
AcDbEntity
  8
13100_TOP_DIM
370
    13
390
0
  6
CONTINUOUS
 62
     7
100
AcDbTrace
 10
1273.389834
 20
970.499997
 30
0.0
 11
1282.166667
 21
903.83333
 31
0.0
 12
1290.9435
 22
970.499997
 32
0.0
 13
1282.166667
 23
903.83333
 33
0.0
  0
SOLID
  5
1447
100
AcDbEntity
  8
13100_TOP_DIM
370
    13
390
0
  6
CONTINUOUS
 62
     7
100
AcDbTrace
 10
1290.9435
 20
1247.166663
 30
0.0
 11
1282.166667
 21
1313.83333
 31
0.0
 12
1273.389834
 22
1247.166663
 32
0.0
 13
1282.166667
 23
1313.83333
 33
0.0
  0
SOLID
  5
1448
100
AcDbEntity
  8
13100_TOP_DIM
370
    13
390
0
  6
CONTINUOUS
 62
     7
100
AcDbTrace
 10
702.833333
 20
746.610162
 30
0.0
 11
636.166666
 21
737.833329
 31
0.0
 12
702.833333
 22
729.056496
 32
0.0
 13
636.166666
 23
737.833329
 33
0.0
  0
SOLID
  5
1449
100
AcDbEntity
  8
13100_TOP_DIM
370
    13
390
0
  6
CONTINUOUS
 62
     7
100
AcDbTrace
 10
1019.499999
 20
729.056496
 30
0.0
 11
1086.166666
 21
737.833329
 31
0.0
 12
1019.499999
 22
746.610162
 32
0.0
 13
1086.166666
 23
737.833329
 33
0.0
  0
SOLID
  5
144A
100
AcDbEntity
  8
13100_TOP_DIM
370
    13
390
0
  6
CONTINUOUS
 62
     7
100
AcDbTrace
 10
669.721489
 20
1400.717883
 30
0.0
 11
641.29319
 21
1338.959854
 31
0.0
 12
691.287785
 22
1385.033304
 32
0.0
 13
641.29319
 23
1338.959854
 33
0.0
  0
SOLID
  5
144B
100
AcDbEntity
  8
13100_TOP_DIM
370
    13
390
0
  6
CONTINUOUS
 62
     7
100
AcDbTrace
 10
1054.167448
 20
1246.25618
 30
0.0
 11
1081.040142
 21
1308.706806
 31
0.0
 12
1032.215107
 22
1261.395726
 32
0.0
 13
1081.040142
 23
1308.706806
 33
0.0
  0
LINE
  5
144C
100
AcDbEntity
  8
90000_FRAME
370
    13
  6
CONTINUOUS
 62
     7
100
AcDbLine
 10
79.999452
 20
79.999624
 30
0.0
 11
79.999452
 21
4671.999624
 31
0.0
  0
LINE
  5
144D
100
AcDbEntity
  8
91000_TIP
370
    13
  6
CONTINUOUS
 62
     7
100
AcDbLine
 10
582.070826
 20
339.361079
 30
0.0
 11
742.070822
 21
379.361078
 31
0.0
  0
LINE
  5
144E
100
AcDbEntity
  8
91000_TIP
370
    13
  6
CONTINUOUS
 62
     7
100
AcDbLine
 10
561.598658
 20
299.36108
 30
0.0
 11
939.230486
 21
299.36108
 31
0.0
  0
LINE
  5
144F
100
AcDbEntity
  8
91000_TIP
370
    13
  6
CONTINUOUS
 62
     7
100
AcDbLine
 10
582.070826
 20
259.361081
 30
0.0
 11
742.070822
 21
219.361081
 31
0.0
  0
LINE
  5
1450
100
AcDbEntity
  8
91000_TIP
370
    13
  6
CONTINUOUS
 62
     7
100
AcDbLine
 10
582.070826
 20
339.361079
 30
0.0
 11
582.070826
 21
259.361081
 31
0.0
  0
LINE
  5
1451
100
AcDbEntity
  8
91000_TIP
370
    13
  6
CONTINUOUS
 62
     7
100
AcDbLine
 10
742.070822
 20
379.361078
 30
0.0
 11
742.070822
 21
219.361081
 31
0.0
  0
LINE
  5
1452
100
AcDbEntity
  8
91000_TIP
370
    13
  6
CONTINUOUS
 62
     7
100
AcDbLine
 10
846.07082
 20
207.81738
 30
0.0
 11
846.07082
 21
388.351556
 31
0.0
  0
CIRCLE
  5
1453
100
AcDbEntity
  8
91000_TIP
370
    13
  6
CONTINUOUS
 62
     7
100
AcDbCircle
 10
846.07082
 20
299.36108
 30
0.0
 40
79.999998
  0
CIRCLE
  5
1454
100
AcDbEntity
  8
91000_TIP
370
    13
  6
CONTINUOUS
 62
     7
100
AcDbCircle
 10
846.07082
 20
299.36108
 30
0.0
 40
39.999999
  0
TEXT
  5
1455
100
AcDbEntity
  8
90000_FRAME
370
    13
  6
CONTINUOUS
 62
     7
100
AcDbText
 10
1048.952102
 20
476.442889
 30
0.0
 40
35.2
  1
All dimensions are in millimeters (mm)
 41
0.961374
100
AcDbText
  0
TEXT
  5
1456
100
AcDbEntity
  8
90000_FRAME
370
    13
  6
CONTINUOUS
 62
     7
100
AcDbText
 10
1048.952102
 20
526.507248
 30
0.0
 40
35.2
  1
Alle Bemassungswerte sind in Millimeter (mm) angegeben.
 41
0.825144
100
AcDbText
  0
LINE
  5
1457
100
AcDbEntity
  8
90000_FRAME
370
    13
  6
CONTINUOUS
 62
     7
100
AcDbLine
 10
3279.999452
 20
79.999624
 30
0.0
 11
3279.999452
 21
4671.999624
 31
0.0
  0
LINE
  5
1458
100
AcDbEntity
  8
90000_FRAME
370
    13
  6
CONTINUOUS
 62
     7
100
AcDbLine
 10
3279.999452
 20
79.999624
 30
0.0
 11
79.999452
 21
79.999624
 31
0.0
  0
TEXT
  5
1459
100
AcDbEntity
  8
90000_FRAME
370
    13
  6
CONTINUOUS
 62
     7
100
AcDbText
 10
1863.168785
 20
363.249891
 30
0.0
 40
48.0
  1
8MF1065-2GS30
 41
0.784213
100
AcDbText
  0
TEXT
  5
145A
100
AcDbEntity
  8
90000_FRAME
370
    13
  6
CONTINUOUS
 62
     7
100
AcDbText
 10
2530.559452
 20
190.399624
 30
0.0
 40
35.2
  1
Massstab/Scale: 1:16
 41
0.9
100
AcDbText
  0
TEXT
  5
145B
100
AcDbEntity
  8
90000_FRAME
370
    13
  6
CONTINUOUS
 62
     7
100
AcDbText
 10
1860.734302
 20
190.399624
 30
0.0
 40
35.2
  1
Format/Size: DIN A4
 41
0.803258
100
AcDbText
  0
LINE
  5
145C
100
AcDbEntity
  8
90000_FRAME
370
    13
  6
CONTINUOUS
 62
     7
100
AcDbLine
 10
3199.999452
 20
159.999624
 30
0.0
 11
3199.999452
 21
447.999624
 31
0.0
  0
LINE
  5
145D
100
AcDbEntity
  8
90000_FRAME
370
    13
  6
CONTINUOUS
 62
     7
100
AcDbLine
 10
2519.999452
 20
159.999624
 30
0.0
 11
2519.999452
 21
255.999624
 31
0.0
  0
LINE
  5
145E
100
AcDbEntity
  8
90000_FRAME
370
    13
  6
CONTINUOUS
 62
     7
100
AcDbLine
 10
1839.999452
 20
159.999624
 30
0.0
 11
1839.999452
 21
447.999624
 31
0.0
  0
LINE
  5
145F
100
AcDbEntity
  8
90000_FRAME
370
    13
  6
CONTINUOUS
 62
     7
100
AcDbLine
 10
1039.999452
 20
447.999624
 30
0.0
 11
3199.999452
 21
447.999624
 31
0.0
  0
LINE
  5
1460
100
AcDbEntity
  8
90000_FRAME
370
    13
  6
CONTINUOUS
 62
     7
100
AcDbLine
 10
1839.999452
 20
255.999624
 30
0.0
 11
3199.999452
 21
255.999624
 31
0.0
  0
LINE
  5
1461
100
AcDbEntity
  8
90000_FRAME
370
    13
  6
CONTINUOUS
 62
     7
100
AcDbLine
 10
1039.999452
 20
159.999624
 30
0.0
 11
1039.999452
 21
447.999624
 31
0.0
  0
LINE
  5
1462
100
AcDbEntity
  8
90000_FRAME
370
    13
  6
CONTINUOUS
 62
     7
100
AcDbLine
 10
1039.999452
 20
159.999624
 30
0.0
 11
3199.999452
 21
159.999624
 31
0.0
  0
LINE
  5
1463
100
AcDbEntity
  8
90000_FRAME
370
    13
  6
CONTINUOUS
 62
     7
100
AcDbLine
 10
1266.97866
 20
342.63239
 30
0.0
 11
1266.97866
 21
266.580085
 31
0.0
  0
LINE
  5
1464
100
AcDbEntity
  8
90000_FRAME
370
    13
  6
CONTINUOUS
 62
     7
100
AcDbLine
 10
1289.794352
 20
342.63239
 30
0.0
 11
1289.794352
 21
266.580085
 31
0.0
  0
LINE
  5
1465
100
AcDbEntity
  8
90000_FRAME
370
    13
  6
CONTINUOUS
 62
     7
100
AcDbLine
 10
1266.97866
 20
266.580085
 30
0.0
 11
1289.794352
 21
266.580085
 31
0.0
  0
LINE
  5
1466
100
AcDbEntity
  8
90000_FRAME
370
    13
  6
CONTINUOUS
 62
     7
100
AcDbLine
 10
1266.97866
 20
342.63239
 30
0.0
 11
1289.794352
 21
342.63239
 31
0.0
  0
LINE
  5
1467
100
AcDbEntity
  8
90000_FRAME
370
    13
  6
CONTINUOUS
 62
     7
100
AcDbLine
 10
1307.286382
 20
342.63239
 30
0.0
 11
1307.286382
 21
266.580085
 31
0.0
  0
LINE
  5
1468
100
AcDbEntity
  8
90000_FRAME
370
    13
  6
CONTINUOUS
 62
     7
100
AcDbLine
 10
1307.286382
 20
266.580085
 30
0.0
 11
1364.325611
 21
266.580085
 31
0.0
  0
LINE
  5
1469
100
AcDbEntity
  8
90000_FRAME
370
    13
  6
CONTINUOUS
 62
     7
100
AcDbLine
 10
1364.325611
 20
281.030023
 30
0.0
 11
1329.341551
 21
281.030023
 31
0.0
  0
LINE
  5
146A
100
AcDbEntity
  8
90000_FRAME
370
    13
  6
CONTINUOUS
 62
     7
100
AcDbLine
 10
1364.325611
 20
281.030023
 30
0.0
 11
1364.325611
 21
266.580085
 31
0.0
  0
LINE
  5
146B
100
AcDbEntity
  8
90000_FRAME
370
    13
  6
CONTINUOUS
 62
     7
100
AcDbLine
 10
1363.565088
 20
342.63239
 30
0.0
 11
1307.286382
 21
342.63239
 31
0.0
  0
LINE
  5
146C
100
AcDbEntity
  8
90000_FRAME
370
    13
  6
CONTINUOUS
 62
     7
100
AcDbLine
 10
1363.565088
 20
328.562713
 30
0.0
 11
1329.341551
 21
328.562713
 31
0.0
  0
LINE
  5
146D
100
AcDbEntity
  8
90000_FRAME
370
    13
  6
CONTINUOUS
 62
     7
100
AcDbLine
 10
1363.565088
 20
342.63239
 30
0.0
 11
1363.565088
 21
328.562713
 31
0.0
  0
LINE
  5
146E
100
AcDbEntity
  8
90000_FRAME
370
    13
  6
CONTINUOUS
 62
     7
100
AcDbLine
 10
1359.00195
 20
298.902314
 30
0.0
 11
1329.341551
 21
298.902314
 31
0.0
  0
LINE
  5
146F
100
AcDbEntity
  8
90000_FRAME
370
    13
  6
CONTINUOUS
 62
     7
100
AcDbLine
 10
1359.00195
 20
311.450945
 30
0.0
 11
1359.00195
 21
298.902314
 31
0.0
  0
LINE
  5
1470
100
AcDbEntity
  8
90000_FRAME
370
    13
  6
CONTINUOUS
 62
     7
100
AcDbLine
 10
1359.00195
 20
311.450945
 30
0.0
 11
1329.341551
 21
311.450945
 31
0.0
  0
LINE
  5
1471
100
AcDbEntity
  8
90000_FRAME
370
    13
  6
CONTINUOUS
 62
     7
100
AcDbLine
 10
1329.341551
 20
328.562713
 30
0.0
 11
1329.341551
 21
311.450945
 31
0.0
  0
LINE
  5
1472
100
AcDbEntity
  8
90000_FRAME
370
    13
  6
CONTINUOUS
 62
     7
100
AcDbLine
 10
1329.341551
 20
298.902314
 30
0.0
 11
1329.341551
 21
281.030023
 31
0.0
  0
LINE
  5
1473
100
AcDbEntity
  8
90000_FRAME
370
    13
  6
CONTINUOUS
 62
     7
100
AcDbLine
 10
1377.254503
 20
266.580085
 30
0.0
 11
1377.254503
 21
342.63239
 31
0.0
  0
LINE
  5
1474
100
AcDbEntity
  8
90000_FRAME
370
    13
  6
CONTINUOUS
 62
     7
100
AcDbLine
 10
1377.254503
 20
266.580085
 30
0.0
 11
1392.464964
 21
266.580085
 31
0.0
  0
LINE
  5
1475
100
AcDbEntity
  8
90000_FRAME
370
    13
  6
CONTINUOUS
 62
     7
100
AcDbLine
 10
1470.798839
 20
342.63239
 30
0.0
 11
1470.798839
 21
266.580085
 31
0.0
  0
LINE
  5
1476
100
AcDbEntity
  8
90000_FRAME
370
    13
  6
CONTINUOUS
 62
     7
100
AcDbLine
 10
1470.798839
 20
266.580085
 30
0.0
 11
1448.74367
 21
266.580085
 31
0.0
  0
LINE
  5
1477
100
AcDbEntity
  8
90000_FRAME
370
    13
  6
CONTINUOUS
 62
     7
100
AcDbLine
 10
1413.75961
 20
265.819562
 30
0.0
 11
1427.449025
 21
265.819562
 31
0.0
  0
LINE
  5
1478
100
AcDbEntity
  8
90000_FRAME
370
    13
  6
CONTINUOUS
 62
     7
100
AcDbLine
 10
1413.75961
 20
265.819562
 30
0.0
 11
1392.464964
 21
315.25356
 31
0.0
  0
LINE
  5
1479
100
AcDbEntity
  8
90000_FRAME
370
    13
  6
CONTINUOUS
 62
     7
100
AcDbLine
 10
1392.464964
 20
266.580085
 30
0.0
 11
1392.464964
 21
315.25356
 31
0.0
  0
LINE
  5
147A
100
AcDbEntity
  8
90000_FRAME
370
    13
  6
CONTINUOUS
 62
     7
100
AcDbLine
 10
1448.74367
 20
316.014083
 30
0.0
 11
1427.449025
 21
265.819562
 31
0.0
  0
LINE
  5
147B
100
AcDbEntity
  8
90000_FRAME
370
    13
  6
CONTINUOUS
 62
     7
100
AcDbLine
 10
1404.633333
 20
342.63239
 30
0.0
 11
1377.254503
 21
342.63239
 31
0.0
  0
LINE
  5
147C
100
AcDbEntity
  8
90000_FRAME
370
    13
  6
CONTINUOUS
 62
     7
100
AcDbLine
 10
1470.798839
 20
342.63239
 30
0.0
 11
1443.420009
 21
342.63239
 31
0.0
  0
LINE
  5
147D
100
AcDbEntity
  8
90000_FRAME
370
    13
  6
CONTINUOUS
 62
     7
100
AcDbLine
 10
1404.633333
 20
342.63239
 30
0.0
 11
1424.406932
 21
296.240484
 31
0.0
  0
LINE
  5
147E
100
AcDbEntity
  8
90000_FRAME
370
    13
  6
CONTINUOUS
 62
     7
100
AcDbLine
 10
1443.420009
 20
342.63239
 30
0.0
 11
1424.406932
 21
296.240484
 31
0.0
  0
LINE
  5
147F
100
AcDbEntity
  8
90000_FRAME
370
    13
  6
CONTINUOUS
 62
     7
100
AcDbLine
 10
1448.74367
 20
316.014083
 30
0.0
 11
1448.74367
 21
266.580085
 31
0.0
  0
LINE
  5
1480
100
AcDbEntity
  8
90000_FRAME
370
    13
  6
CONTINUOUS
 62
     7
100
AcDbLine
 10
1488.290869
 20
342.63239
 30
0.0
 11
1488.290869
 21
266.580085
 31
0.0
  0
LINE
  5
1481
100
AcDbEntity
  8
90000_FRAME
370
    13
  6
CONTINUOUS
 62
     7
100
AcDbLine
 10
1488.290869
 20
266.580085
 30
0.0
 11
1545.330098
 21
266.580085
 31
0.0
  0
LINE
  5
1482
100
AcDbEntity
  8
90000_FRAME
370
    13
  6
CONTINUOUS
 62
     7
100
AcDbLine
 10
1545.330098
 20
281.030023
 30
0.0
 11
1510.346037
 21
281.030023
 31
0.0
  0
LINE
  5
1483
100
AcDbEntity
  8
90000_FRAME
370
    13
  6
CONTINUOUS
 62
     7
100
AcDbLine
 10
1545.330098
 20
281.030023
 30
0.0
 11
1545.330098
 21
266.580085
 31
0.0
  0
LINE
  5
1484
100
AcDbEntity
  8
90000_FRAME
370
    13
  6
CONTINUOUS
 62
     7
100
AcDbLine
 10
1544.569575
 20
342.63239
 30
0.0
 11
1488.290869
 21
342.63239
 31
0.0
  0
LINE
  5
1485
100
AcDbEntity
  8
90000_FRAME
370
    13
  6
CONTINUOUS
 62
     7
100
AcDbLine
 10
1544.569575
 20
328.562713
 30
0.0
 11
1510.346037
 21
328.562713
 31
0.0
  0
LINE
  5
1486
100
AcDbEntity
  8
90000_FRAME
370
    13
  6
CONTINUOUS
 62
     7
100
AcDbLine
 10
1544.569575
 20
342.63239
 30
0.0
 11
1544.569575
 21
328.562713
 31
0.0
  0
LINE
  5
1487
100
AcDbEntity
  8
90000_FRAME
370
    13
  6
CONTINUOUS
 62
     7
100
AcDbLine
 10
1540.006436
 20
298.902314
 30
0.0
 11
1510.346037
 21
298.902314
 31
0.0
  0
LINE
  5
1488
100
AcDbEntity
  8
90000_FRAME
370
    13
  6
CONTINUOUS
 62
     7
100
AcDbLine
 10
1540.006436
 20
311.450945
 30
0.0
 11
1540.006436
 21
298.902314
 31
0.0
  0
LINE
  5
1489
100
AcDbEntity
  8
90000_FRAME
370
    13
  6
CONTINUOUS
 62
     7
100
AcDbLine
 10
1540.006436
 20
311.450945
 30
0.0
 11
1510.346037
 21
311.450945
 31
0.0
  0
LINE
  5
148A
100
AcDbEntity
  8
90000_FRAME
370
    13
  6
CONTINUOUS
 62
     7
100
AcDbLine
 10
1510.346037
 20
328.562713
 30
0.0
 11
1510.346037
 21
311.450945
 31
0.0
  0
LINE
  5
148B
100
AcDbEntity
  8
90000_FRAME
370
    13
  6
CONTINUOUS
 62
     7
100
AcDbLine
 10
1510.346037
 20
298.902314
 30
0.0
 11
1510.346037
 21
281.030023
 31
0.0
  0
LINE
  5
148C
100
AcDbEntity
  8
90000_FRAME
370
    13
  6
CONTINUOUS
 62
     7
100
AcDbLine
 10
1557.878728
 20
266.580085
 30
0.0
 11
1557.878728
 21
342.63239
 31
0.0
  0
LINE
  5
148D
100
AcDbEntity
  8
90000_FRAME
370
    13
  6
CONTINUOUS
 62
     7
100
AcDbLine
 10
1624.804757
 20
342.63239
 30
0.0
 11
1624.804757
 21
266.580085
 31
0.0
  0
LINE
  5
148E
100
AcDbEntity
  8
90000_FRAME
370
    13
  6
CONTINUOUS
 62
     7
100
AcDbLine
 10
1557.878728
 20
266.580085
 30
0.0
 11
1573.089189
 21
266.580085
 31
0.0
  0
LINE
  5
148F
100
AcDbEntity
  8
90000_FRAME
370
    13
  6
CONTINUOUS
 62
     7
100
AcDbLine
 10
1624.804757
 20
342.63239
 30
0.0
 11
1609.594296
 21
342.63239
 31
0.0
  0
LINE
  5
1490
100
AcDbEntity
  8
90000_FRAME
370
    13
  6
CONTINUOUS
 62
     7
100
AcDbLine
 10
1582.595727
 20
342.63239
 30
0.0
 11
1557.878728
 21
342.63239
 31
0.0
  0
LINE
  5
1491
100
AcDbEntity
  8
90000_FRAME
370
    13
  6
CONTINUOUS
 62
     7
100
AcDbLine
 10
1624.804757
 20
266.580085
 30
0.0
 11
1600.468019
 21
266.580085
 31
0.0
  0
LINE
  5
1492
100
AcDbEntity
  8
90000_FRAME
370
    13
  6
CONTINUOUS
 62
     7
100
AcDbLine
 10
1600.468019
 20
266.580085
 30
0.0
 11
1573.089189
 21
315.25356
 31
0.0
  0
LINE
  5
1493
100
AcDbEntity
  8
90000_FRAME
370
    13
  6
CONTINUOUS
 62
     7
100
AcDbLine
 10
1582.595727
 20
342.63239
 30
0.0
 11
1609.594296
 21
295.479961
 31
0.0
  0
LINE
  5
1494
100
AcDbEntity
  8
90000_FRAME
370
    13
  6
CONTINUOUS
 62
     7
100
AcDbLine
 10
1609.594296
 20
342.63239
 30
0.0
 11
1609.594296
 21
295.479961
 31
0.0
  0
LINE
  5
1495
100
AcDbEntity
  8
90000_FRAME
370
    13
  6
CONTINUOUS
 62
     7
100
AcDbLine
 10
1573.089189
 20
266.580085
 30
0.0
 11
1573.089189
 21
315.25356
 31
0.0
  0
LINE
  5
1496
100
AcDbEntity
  8
90000_FRAME
370
    13
  6
CONTINUOUS
 62
     7
100
AcDbLine
 10
1637.733649
 20
268.101131
 30
0.0
 11
1637.733649
 21
283.311592
 31
0.0
  0
LINE
  5
1497
100
AcDbEntity
  8
90000_FRAME
370
    13
  6
CONTINUOUS
 62
     7
100
AcDbLine
 10
1690.970263
 20
326.661406
 30
0.0
 11
1690.970263
 21
341.871867
 31
0.0
  0
ARC
  5
1498
100
AcDbEntity
  8
90000_FRAME
370
    13
  6
CONTINUOUS
 62
     7
100
AcDbCircle
 10
1665.007907
 20
297.894621
 30
0.0
 40
17.78591
100
AcDbArc
 50
277.709996
 51
295.688493
  0
ARC
  5
1499
100
AcDbEntity
  8
90000_FRAME
370
    13
  6
CONTINUOUS
 62
     7
100
AcDbCircle
 10
1669.556867
 20
286.297409
 30
0.0
 40
5.442703
100
AcDbArc
 50
305.503221
 51
72.46529
  0
ARC
  5
149A
100
AcDbEntity
  8
90000_FRAME
370
    13
  6
CONTINUOUS
 62
     7
100
AcDbCircle
 10
1660.500966
 20
340.72472
 30
0.0
 40
76.108714
100
AcDbArc
 50
252.59392
 51
280.98166
  0
ARC
  5
149B
100
AcDbEntity
  8
90000_FRAME
370
    13
  6
CONTINUOUS
 62
     7
100
AcDbCircle
 10
1667.778331
 20
298.8365
 30
0.0
 40
33.611626
100
AcDbArc
 50
282.405836
 51
311.864443
  0
ARC
  5
149C
100
AcDbEntity
  8
90000_FRAME
370
    13
  6
CONTINUOUS
 62
     7
100
AcDbCircle
 10
1663.401302
 20
324.569967
 30
0.0
 40
4.847402
100
AcDbArc
 50
154.440035
 51
221.82017
  0
ARC
  5
149D
100
AcDbEntity
  8
90000_FRAME
370
    13
  6
CONTINUOUS
 62
     7
100
AcDbCircle
 10
1664.66884
 20
323.302429
 30
0.0
 40
6.564944
100
AcDbArc
 50
102.828783
 51
149.225964
  0
ARC
  5
149E
100
AcDbEntity
  8
90000_FRAME
370
    13
  6
CONTINUOUS
 62
     7
100
AcDbCircle
 10
1671.34127
 20
295.425064
 30
0.0
 40
35.229385
100
AcDbArc
 50
84.040006
 51
103.342766
  0
ARC
  5
149F
100
AcDbEntity
  8
90000_FRAME
370
    13
  6
CONTINUOUS
 62
     7
100
AcDbCircle
 10
1665.885848
 20
256.747241
 30
0.0
 40
74.27798
100
AcDbArc
 50
70.262586
 51
82.952419
  0
ARC
  5
14A0
100
AcDbEntity
  8
90000_FRAME
370
    13
  6
CONTINUOUS
 62
     7
100
AcDbCircle
 10
1657.661557
 20
331.493207
 30
0.0
 40
52.140096
100
AcDbArc
 50
247.530021
 51
280.757952
  0
ARC
  5
14A1
100
AcDbEntity
  8
90000_FRAME
370
    13
  6
CONTINUOUS
 62
     7
100
AcDbCircle
 10
1555.502094
 20
39.468888
 30
0.0
 40
277.305735
100
AcDbArc
 50
65.341467
 51
67.399777
  0
ARC
  5
14A2
100
AcDbEntity
  8
90000_FRAME
370
    13
  6
CONTINUOUS
 62
     7
100
AcDbCircle
 10
1728.235892
 20
452.14771
 30
0.0
 40
170.066627
100
AcDbArc
 50
242.86201
 51
247.104203
  0
ARC
  5
14A3
100
AcDbEntity
  8
90000_FRAME
370
    13
  6
CONTINUOUS
 62
     7
100
AcDbCircle
 10
1666.557473
 20
331.604806
 30
0.0
 40
34.660666
100
AcDbArc
 50
227.311928
 51
242.704032
  0
ARC
  5
14A4
100
AcDbEntity
  8
90000_FRAME
370
    13
  6
CONTINUOUS
 62
     7
100
AcDbCircle
 10
1656.89298
 20
320.313963
 30
0.0
 40
19.816348
100
AcDbArc
 50
194.795219
 51
225.717655
  0
ARC
  5
14A5
100
AcDbEntity
  8
90000_FRAME
370
    13
  6
CONTINUOUS
 62
     7
100
AcDbCircle
 10
1657.88751
 20
320.957483
 30
0.0
 40
20.945473
100
AcDbArc
 50
164.197486
 51
195.802514
  0
ARC
  5
14A6
100
AcDbEntity
  8
90000_FRAME
370
    13
  6
CONTINUOUS
 62
     7
100
AcDbCircle
 10
1666.799889
 20
306.745208
 30
0.0
 40
37.870797
100
AcDbArc
 50
86.221802
 51
120.42726
  0
ARC
  5
14A7
100
AcDbEntity
  8
90000_FRAME
370
    13
  6
CONTINUOUS
 62
     7
100
AcDbCircle
 10
1662.498181
 20
199.606523
 30
0.0
 40
145.086483
100
AcDbArc
 50
78.682705
 51
87.31476
  0
ARC
  5
14A8
100
AcDbEntity
  8
90000_FRAME
370
    13
  6
CONTINUOUS
 62
     7
100
AcDbCircle
 10
1655.201074
 20
322.677607
 30
0.0
 40
17.915959
100
AcDbArc
 50
142.813918
 51
167.152295
  0
ARC
  5
14A9
100
AcDbEntity
  8
90000_FRAME
370
    13
  6
CONTINUOUS
 62
     7
100
AcDbCircle
 10
1660.726023
 20
317.7723
 30
0.0
 40
25.288747
100
AcDbArc
 50
121.214095
 51
141.525477
  0
ARC
  5
14AA
100
AcDbEntity
  8
90000_FRAME
370
    13
  6
CONTINUOUS
 62
     7
100
AcDbCircle
 10
1669.960813
 20
330.749217
 30
0.0
 40
13.858042
100
AcDbArc
 50
222.776039
 51
239.036243
  0
ARC
  5
14AB
100
AcDbEntity
  8
90000_FRAME
370
    13
  6
CONTINUOUS
 62
     7
100
AcDbCircle
 10
1629.85346
 20
213.464862
 30
0.0
 40
109.740377
100
AcDbArc
 50
59.902027
 51
68.203648
  0
ARC
  5
14AC
100
AcDbEntity
  8
90000_FRAME
370
    13
  6
CONTINUOUS
 62
     7
100
AcDbCircle
 10
1684.389372
 20
356.279046
 30
0.0
 40
43.179856
100
AcDbArc
 50
240.0482
 51
251.377967
  0
ARC
  5
14AD
100
AcDbEntity
  8
90000_FRAME
370
    13
  6
CONTINUOUS
 62
     7
100
AcDbCircle
 10
1673.742057
 20
289.768668
 30
0.0
 40
22.93516
100
AcDbArc
 50
315.890455
 51
333.522926
  0
ARC
  5
14AE
100
AcDbEntity
  8
90000_FRAME
370
    13
  6
CONTINUOUS
 62
     7
100
AcDbCircle
 10
1673.816269
 20
288.914154
 30
0.0
 40
22.499659
100
AcDbArc
 50
335.386797
 51
24.391512
  0
ARC
  5
14AF
100
AcDbEntity
  8
90000_FRAME
370
    13
  6
CONTINUOUS
 62
     7
100
AcDbCircle
 10
1672.660991
 20
287.668447
 30
0.0
 40
24.07524
100
AcDbArc
 50
25.956292
 51
59.483483
  0
LINE
  5
14B0
100
AcDbEntity
  8
90000_FRAME
370
    13
  6
CONTINUOUS
 62
     7
100
AcDbLine
 10
1196.250016
 20
268.101131
 30
0.0
 11
1196.250016
 21
283.311592
 31
0.0
  0
LINE
  5
14B1
100
AcDbEntity
  8
90000_FRAME
370
    13
  6
CONTINUOUS
 62
     7
100
AcDbLine
 10
1249.48663
 20
326.661406
 30
0.0
 11
1249.48663
 21
341.871867
 31
0.0
  0
ARC
  5
14B2
100
AcDbEntity
  8
90000_FRAME
370
    13
  6
CONTINUOUS
 62
     7
100
AcDbCircle
 10
1223.524274
 20
297.894621
 30
0.0
 40
17.78591
100
AcDbArc
 50
277.709996
 51
295.688493
  0
ARC
  5
14B3
100
AcDbEntity
  8
90000_FRAME
370
    13
  6
CONTINUOUS
 62
     7
100
AcDbCircle
 10
1228.073234
 20
286.297409
 30
0.0
 40
5.442703
100
AcDbArc
 50
305.503221
 51
72.46529
  0
ARC
  5
14B4
100
AcDbEntity
  8
90000_FRAME
370
    13
  6
CONTINUOUS
 62
     7
100
AcDbCircle
 10
1219.017333
 20
340.72472
 30
0.0
 40
76.108714
100
AcDbArc
 50
252.59392
 51
280.98166
  0
ARC
  5
14B5
100
AcDbEntity
  8
90000_FRAME
370
    13
  6
CONTINUOUS
 62
     7
100
AcDbCircle
 10
1226.294699
 20
298.8365
 30
0.0
 40
33.611626
100
AcDbArc
 50
282.405836
 51
311.864443
  0
ARC
  5
14B6
100
AcDbEntity
  8
90000_FRAME
370
    13
  6
CONTINUOUS
 62
     7
100
AcDbCircle
 10
1221.917669
 20
324.569967
 30
0.0
 40
4.847402
100
AcDbArc
 50
154.440035
 51
221.82017
  0
ARC
  5
14B7
100
AcDbEntity
  8
90000_FRAME
370
    13
  6
CONTINUOUS
 62
     7
100
AcDbCircle
 10
1223.185208
 20
323.302429
 30
0.0
 40
6.564944
100
AcDbArc
 50
102.828783
 51
149.225964
  0
ARC
  5
14B8
100
AcDbEntity
  8
90000_FRAME
370
    13
  6
CONTINUOUS
 62
     7
100
AcDbCircle
 10
1229.857637
 20
295.425064
 30
0.0
 40
35.229385
100
AcDbArc
 50
84.040006
 51
103.342766
  0
ARC
  5
14B9
100
AcDbEntity
  8
90000_FRAME
370
    13
  6
CONTINUOUS
 62
     7
100
AcDbCircle
 10
1224.402216
 20
256.747241
 30
0.0
 40
74.27798
100
AcDbArc
 50
70.262586
 51
82.952419
  0
ARC
  5
14BA
100
AcDbEntity
  8
90000_FRAME
370
    13
  6
CONTINUOUS
 62
     7
100
AcDbCircle
 10
1216.177925
 20
331.493207
 30
0.0
 40
52.140096
100
AcDbArc
 50
247.530021
 51
280.757952
  0
ARC
  5
14BB
100
AcDbEntity
  8
90000_FRAME
370
    13
  6
CONTINUOUS
 62
     7
100
AcDbCircle
 10
1114.018461
 20
39.468888
 30
0.0
 40
277.305735
100
AcDbArc
 50
65.341467
 51
67.399777
  0
ARC
  5
14BC
100
AcDbEntity
  8
90000_FRAME
370
    13
  6
CONTINUOUS
 62
     7
100
AcDbCircle
 10
1286.75226
 20
452.14771
 30
0.0
 40
170.066627
100
AcDbArc
 50
242.86201
 51
247.104203
  0
ARC
  5
14BD
100
AcDbEntity
  8
90000_FRAME
370
    13
  6
CONTINUOUS
 62
     7
100
AcDbCircle
 10
1225.07384
 20
331.604806
 30
0.0
 40
34.660666
100
AcDbArc
 50
227.311928
 51
242.704032
  0
ARC
  5
14BE
100
AcDbEntity
  8
90000_FRAME
370
    13
  6
CONTINUOUS
 62
     7
100
AcDbCircle
 10
1215.409347
 20
320.313963
 30
0.0
 40
19.816348
100
AcDbArc
 50
194.795219
 51
225.717655
  0
ARC
  5
14BF
100
AcDbEntity
  8
90000_FRAME
370
    13
  6
CONTINUOUS
 62
     7
100
AcDbCircle
 10
1225.316257
 20
306.745208
 30
0.0
 40
37.870797
100
AcDbArc
 50
86.221802
 51
120.42726
  0
ARC
  5
14C0
100
AcDbEntity
  8
90000_FRAME
370
    13
  6
CONTINUOUS
 62
     7
100
AcDbCircle
 10
1221.014548
 20
199.606523
 30
0.0
 40
145.086483
100
AcDbArc
 50
78.682705
 51
87.31476
  0
ARC
  5
14C1
100
AcDbEntity
  8
90000_FRAME
370
    13
  6
CONTINUOUS
 62
     7
100
AcDbCircle
 10
1219.242391
 20
317.7723
 30
0.0
 40
25.288747
100
AcDbArc
 50
121.214095
 51
141.525477
  0
ARC
  5
14C2
100
AcDbEntity
  8
90000_FRAME
370
    13
  6
CONTINUOUS
 62
     7
100
AcDbCircle
 10
1228.477181
 20
330.749217
 30
0.0
 40
13.858042
100
AcDbArc
 50
222.776039
 51
239.036243
  0
ARC
  5
14C3
100
AcDbEntity
  8
90000_FRAME
370
    13
  6
CONTINUOUS
 62
     7
100
AcDbCircle
 10
1188.369827
 20
213.464862
 30
0.0
 40
109.740377
100
AcDbArc
 50
59.902027
 51
68.203648
  0
ARC
  5
14C4
100
AcDbEntity
  8
90000_FRAME
370
    13
  6
CONTINUOUS
 62
     7
100
AcDbCircle
 10
1242.905739
 20
356.279046
 30
0.0
 40
43.179856
100
AcDbArc
 50
240.0482
 51
251.377967
  0
ARC
  5
14C5
100
AcDbEntity
  8
90000_FRAME
370
    13
  6
CONTINUOUS
 62
     7
100
AcDbCircle
 10
1232.258425
 20
289.768668
 30
0.0
 40
22.93516
100
AcDbArc
 50
315.890455
 51
333.522926
  0
ARC
  5
14C6
100
AcDbEntity
  8
90000_FRAME
370
    13
  6
CONTINUOUS
 62
     7
100
AcDbCircle
 10
1232.332637
 20
288.914154
 30
0.0
 40
22.499659
100
AcDbArc
 50
335.386797
 51
24.391512
  0
ARC
  5
14C7
100
AcDbEntity
  8
90000_FRAME
370
    13
  6
CONTINUOUS
 62
     7
100
AcDbCircle
 10
1231.177358
 20
287.668447
 30
0.0
 40
24.07524
100
AcDbArc
 50
25.956292
 51
59.483483
  0
LINE
  5
14C8
100
AcDbEntity
  8
90000_FRAME
370
    13
  6
CONTINUOUS
 62
     7
100
AcDbLine
 10
1199.319274
 20
333.339501
 30
0.0
 11
1203.704327
 21
337.724671
 31
0.0
  0
ARC
  5
14C9
100
AcDbEntity
  8
90000_FRAME
370
    13
  6
CONTINUOUS
 62
     7
100
AcDbCircle
 10
1216.403877
 20
320.957483
 30
0.0
 40
20.945473
100
AcDbArc
 50
164.197486
 51
195.802514
  0
ARC
  5
14CA
100
AcDbEntity
  8
90000_FRAME
370
    13
  6
CONTINUOUS
 62
     7
100
AcDbCircle
 10
1213.717441
 20
322.677607
 30
0.0
 40
17.915959
100
AcDbArc
 50
142.813918
 51
167.152295
  0
LINE
  5
14CB
100
AcDbEntity
  8
90000_FRAME
370
    13
  6
CONTINUOUS
 62
     7
100
AcDbLine
 10
3279.999452
 20
4671.999624
 30
0.0
 11
79.999452
 21
4671.999624
 31
0.0
  0
LINE
  5
14CC
100
AcDbEntity
  8
90000_FRAME
370
    13
  6
CONTINUOUS
 62
     7
100
AcDbLine
 10
3359.999452
 20
4751.999624
 30
0.0
 11
-0.000548
 21
4751.999624
 31
0.0
  0
LINE
  5
14CD
100
AcDbEntity
  8
90000_FRAME
370
    13
  6
CONTINUOUS
 62
     7
100
AcDbLine
 10
3359.999452
 20
-0.000376
 30
0.0
 11
-0.000548
 21
-0.000376
 31
0.0
  0
LINE
  5
14CE
100
AcDbEntity
  8
90000_FRAME
370
    13
  6
CONTINUOUS
 62
     7
100
AcDbLine
 10
-0.000548
 20
-0.000376
 30
0.0
 11
-0.000548
 21
4751.999624
 31
0.0
  0
LINE
  5
14CF
100
AcDbEntity
  8
90000_FRAME
370
    13
  6
CONTINUOUS
 62
     7
100
AcDbLine
 10
3359.999452
 20
-0.000376
 30
0.0
 11
3359.999452
 21
4751.999624
 31
0.0
  0
ENDSEC
  0
SECTION
  2
OBJECTS
  0
DICTIONARY
  5
10CF
100
AcDbDictionary
280
     0
281
     1
  3
ACAD_GROUP
350
10D0
  3
ACAD_MLINESTYLE
350
10D1
  0
DICTIONARY
  5
10D0
102
{ACAD_REACTORS
330
10CF
102
}
100
AcDbDictionary
280
     0
281
     1
  0
DICTIONARY
  5
10D1
102
{ACAD_REACTORS
330
10CF
102
}
100
AcDbDictionary
280
     0
281
     1
  3
Standard
350
10D2
  0
MLINESTYLE
  5
10D2
102
{ACAD_REACTORS
330
10D1
102
}
100
AcDbMlineStyle
  2
Standard
 70
     0
  3

 62
     0
 51
90.0
 52
90.0
 71
     2
 49
0.5
 62
   256
  6
ByLayer
 49
-0.5
 62
   256
  6
ByLayer
  0
ENDSEC
  0
EOF
