ISO-10303-21;
HEADER;
FILE_DESCRIPTION(('Creo Elements/Direct Modeling STEP Export'),'2;1');
FILE_NAME(
'C:/temp/JobSpoolerServerData/JobServer Files/c95fe81f-4ff9-4be7-a33e-2f
edd9ea5f9b/work/output/model.stp','2019-08-02T 1:37:06',(''),(''),
'Creo Elements/Direct Modeling STEP processor for AP214 (Solid Model)',
'Creo Elements/Direct Modeling 20.1A  29-Sep-2018 (C) Parametric Technol
ogy GmbH','');
FILE_SCHEMA(('AUTOMOTIVE_DESIGN { 1 0 10303 214 1 1 1 1 }'));
ENDSEC;
DATA;
#10=CARTESIAN_POINT('',(94.3378778009793,-35.3227280038276,
45.3200000000021));
#20=DIRECTION('',(-1.99157772406956E-28,7.105427357601E-15,1.));
#30=DIRECTION('',(1.,2.8028964674997E-14,-6.72623262875912E-44));
#40=AXIS2_PLACEMENT_3D('',#10,#20,#30);
#50=PLANE('',#40);
#60=CARTESIAN_POINT('',(75.0846232659555,-4.11399735172995,
45.3200000000017));
#70=DIRECTION('',(-0.939692620786648,0.342020143323637,
-4.86989153239504E-15));
#80=VECTOR('',#70,1.);
#90=LINE('',#60,#80);
#100=CARTESIAN_POINT('',(97.4321672214908,-12.2478375452365,
45.3200000000018));
#110=VERTEX_POINT('',#100);
#120=CARTESIAN_POINT('',(71.7543378207565,-2.9018719628665,
45.3200000000016));
#130=VERTEX_POINT('',#120);
#140=EDGE_CURVE('',#110,#130,#90,.T.);
#150=ORIENTED_EDGE('',*,*,#140,.F.);
#160=CARTESIAN_POINT('',(4.75989483929518E-12,-2.90187196326501,
45.3200000000016));
#170=DIRECTION('',(-1.,-5.55388079280292E-12,7.88822091186414E-26));
#180=VECTOR('',#170,1.);
#190=LINE('',#160,#180);
#200=CARTESIAN_POINT('',(60.7099970687207,-2.90187196292783,
45.3200000000016));
#210=VERTEX_POINT('',#200);
#220=EDGE_CURVE('',#130,#210,#190,.T.);
#230=ORIENTED_EDGE('',*,*,#220,.F.);
#240=CARTESIAN_POINT('',(54.2343493554641,-5.25881496950502,
45.3200000000017));
#250=DIRECTION('',(-0.939692620784922,-0.342020143328378,
4.86989153246218E-15));
#260=VECTOR('',#250,1.);
#270=LINE('',#240,#260);
#280=CARTESIAN_POINT('',(35.0321672214909,-12.2478377079556,
45.3200000000018));
#290=VERTEX_POINT('',#280);
#300=EDGE_CURVE('',#210,#290,#270,.T.);
#310=ORIENTED_EDGE('',*,*,#300,.F.);
#320=CARTESIAN_POINT('',(35.032167221492,-1.12001258259505E-13,
45.3200000000016));
#330=DIRECTION('',(9.29077994736906E-14,1.,-1.42386102908176E-14));
#340=VECTOR('',#330,1.);
#350=LINE('',#320,#340);
#360=CARTESIAN_POINT('',(35.0321672214902,-19.7821137371975,
45.3200000000019));
#370=VERTEX_POINT('',#360);
#380=EDGE_CURVE('',#370,#290,#350,.T.);
#390=ORIENTED_EDGE('',*,*,#380,.T.);
#400=CARTESIAN_POINT('',(27.8320666502193,-1.10161478702671E-13,
45.3200000000016));
#410=DIRECTION('',(-0.342020143328289,0.939692620784955,
-1.33799170205141E-14));
#420=VECTOR('',#410,1.);
#430=LINE('',#400,#420);
#440=CARTESIAN_POINT('',(38.6183491480508,-29.6350676023937,
45.320000000002));
#450=VERTEX_POINT('',#440);
#460=EDGE_CURVE('',#450,#370,#430,.T.);
#470=ORIENTED_EDGE('',*,*,#460,.T.);
#480=CARTESIAN_POINT('',(21.9603038449847,-1.08661117830664E-13,
45.3200000000016));
#490=DIRECTION('',(-0.490000221894165,0.871722308159926,
-1.24121142277013E-14));
#500=VECTOR('',#490,1.);
#510=LINE('',#480,#500);
#520=CARTESIAN_POINT('',(43.4338001217599,-38.2018719630238,
45.3200000000021));
#530=VERTEX_POINT('',#520);
#540=EDGE_CURVE('',#530,#450,#510,.T.);
#550=ORIENTED_EDGE('',*,*,#540,.T.);
#560=CARTESIAN_POINT('',(4.75087493496004E-12,-38.201871963265,
45.3200000000021));
#570=DIRECTION('',(-1.,-5.55388079280292E-12,7.88822091186414E-26));
#580=VECTOR('',#570,1.);
#590=LINE('',#560,#580);
#600=CARTESIAN_POINT('',(89.8635696812608,-38.2018719627659,
45.3200000000021));
#610=VERTEX_POINT('',#600);
#620=EDGE_CURVE('',#610,#530,#590,.T.);
#630=ORIENTED_EDGE('',*,*,#620,.T.);
#640=CARTESIAN_POINT('',(109.159684331013,-1.30942422931714E-13,
45.3200000000016));
#650=DIRECTION('',(0.450858191026277,0.892595592407062,
-1.27093207875856E-14));
#660=VECTOR('',#650,1.);
#670=LINE('',#640,#660);
#680=CARTESIAN_POINT('',(92.9569266886471,-32.0777360692837,
45.3200000000021));
#690=VERTEX_POINT('',#680);
#700=EDGE_CURVE('',#610,#690,#670,.T.);
#710=ORIENTED_EDGE('',*,*,#700,.F.);
#720=CARTESIAN_POINT('',(104.63226777835,-1.29785571254934E-13,
45.3200000000016));
#730=DIRECTION('',(-0.342020142752356,-0.939692620994577,
1.33799170234987E-14));
#740=VECTOR('',#730,1.);
#750=LINE('',#720,#740);
#760=CARTESIAN_POINT('',(97.4321672214901,-19.7821137353282,
45.3200000000019));
#770=VERTEX_POINT('',#760);
#780=EDGE_CURVE('',#770,#690,#750,.T.);
#790=ORIENTED_EDGE('',*,*,#780,.T.);
#800=CARTESIAN_POINT('',(97.4321672214922,-1.27945791701783E-13,
45.3200000000016));
#810=DIRECTION('',(9.29077994736906E-14,1.,-1.42386102908176E-14));
#820=VECTOR('',#810,1.);
#830=LINE('',#800,#820);
#840=EDGE_CURVE('',#770,#110,#830,.T.);
#850=ORIENTED_EDGE('',*,*,#840,.F.);
#860=EDGE_LOOP('',(#850,#790,#710,#630,#550,#470,#390,#310,#230,#150));
#870=FACE_OUTER_BOUND('',#860,.T.);
#880=ADVANCED_FACE('',(#870),#50,.F.);
#890=COLOUR_RGB('',0.560784339904785,0.588235318660736,0.600000023841858
);
#900=FILL_AREA_STYLE_COLOUR('',#890);
#910=FILL_AREA_STYLE('',(#900));
#920=SURFACE_STYLE_FILL_AREA(#910);
#930=SURFACE_SIDE_STYLE('',(#920));
#940=SURFACE_STYLE_USAGE(.BOTH.,#930);
#950=PRESENTATION_STYLE_ASSIGNMENT((#940));
#960=CARTESIAN_POINT('',(66.2230751197355,-37.7000000000049,
47.5200000000002));
#970=DIRECTION('',(-1.99157772406956E-28,7.105427357601E-15,1.));
#980=DIRECTION('',(1.,2.8028964674997E-14,-2.24207754291971E-44));
#990=AXIS2_PLACEMENT_3D('',#960,#970,#980);
#1000=PLANE('',#990);
#1010=CARTESIAN_POINT('',(104.63226777835,-1.1409256880187E-13,
47.5199999999998));
#1020=DIRECTION('',(0.342020142752356,0.939692620994577,
-1.33643375142991E-14));
#1030=VECTOR('',#1020,1.);
#1040=LINE('',#1010,#1030);
#1050=CARTESIAN_POINT('',(92.9569266886471,-32.0777360692837,
47.5200000000002));
#1060=VERTEX_POINT('',#1050);
#1070=CARTESIAN_POINT('',(97.4321672214901,-19.7821137353282,47.52));
#1080=VERTEX_POINT('',#1070);
#1090=EDGE_CURVE('',#1060,#1080,#1040,.T.);
#1100=ORIENTED_EDGE('',*,*,#1090,.T.);
#1110=CARTESIAN_POINT('',(109.159684331013,-1.1524942047865E-13,
47.5199999999998));
#1120=DIRECTION('',(0.450858191026277,0.892595592407062,
-1.27230744620015E-14));
#1130=VECTOR('',#1120,1.);
#1140=LINE('',#1110,#1130);
#1150=CARTESIAN_POINT('',(89.8635696812608,-38.2018719627659,
47.5200000000003));
#1160=VERTEX_POINT('',#1150);
#1170=EDGE_CURVE('',#1160,#1060,#1140,.T.);
#1180=ORIENTED_EDGE('',*,*,#1170,.T.);
#1190=CARTESIAN_POINT('',(4.75087493496004E-12,-38.201871963265,
47.5200000000003));
#1200=DIRECTION('',(1.,5.55388079280292E-12,-7.91987395568536E-26));
#1210=VECTOR('',#1200,1.);
#1220=LINE('',#1190,#1210);
#1230=CARTESIAN_POINT('',(43.4338001217599,-38.2018719630237,
47.5200000000003));
#1240=VERTEX_POINT('',#1230);
#1250=EDGE_CURVE('',#1240,#1160,#1220,.T.);
#1260=ORIENTED_EDGE('',*,*,#1250,.T.);
#1270=CARTESIAN_POINT('',(21.9603038449847,-9.2968115377601E-14,
47.5199999999998));
#1280=DIRECTION('',(0.490000221894165,-0.871722308159926,
1.24076480533558E-14));
#1290=VECTOR('',#1280,1.);
#1300=LINE('',#1270,#1290);
#1310=CARTESIAN_POINT('',(38.6183491480508,-29.6350676023936,
47.5200000000002));
#1320=VERTEX_POINT('',#1310);
#1330=EDGE_CURVE('',#1320,#1240,#1300,.T.);
#1340=ORIENTED_EDGE('',*,*,#1330,.T.);
#1350=CARTESIAN_POINT('',(27.8320666502193,-9.44684762496073E-14,
47.5199999999998));
#1360=DIRECTION('',(0.342020143328289,-0.939692620784955,
1.33643375128038E-14));
#1370=VECTOR('',#1360,1.);
#1380=LINE('',#1350,#1370);
#1390=CARTESIAN_POINT('',(35.0321672214902,-19.7821137371975,47.52));
#1400=VERTEX_POINT('',#1390);
#1410=EDGE_CURVE('',#1400,#1320,#1380,.T.);
#1420=ORIENTED_EDGE('',*,*,#1410,.T.);
#1430=CARTESIAN_POINT('',(35.032167221492,-9.63082558064411E-14,
47.5199999999998));
#1440=DIRECTION('',(-9.29077994736906E-14,-1.,1.42386102908176E-14));
#1450=VECTOR('',#1440,1.);
#1460=LINE('',#1430,#1450);
#1470=CARTESIAN_POINT('',(35.0321672214909,-12.2478377079555,
47.5199999999999));
#1480=VERTEX_POINT('',#1470);
#1490=EDGE_CURVE('',#1480,#1400,#1460,.T.);
#1500=ORIENTED_EDGE('',*,*,#1490,.T.);
#1510=CARTESIAN_POINT('',(4.75424867766733E-12,-24.998503818527,
47.5200000000001));
#1520=DIRECTION('',(-0.939692620784922,-0.342020143328378,
4.85442732776601E-15));
#1530=VECTOR('',#1520,1.);
#1540=LINE('',#1510,#1530);
#1550=CARTESIAN_POINT('',(60.7099970687207,-2.9018719629278,
47.5199999999998));
#1560=VERTEX_POINT('',#1550);
#1570=EDGE_CURVE('',#1560,#1480,#1540,.T.);
#1580=ORIENTED_EDGE('',*,*,#1570,.T.);
#1590=CARTESIAN_POINT('',(4.75989483929518E-12,-2.90187196326498,
47.5199999999998));
#1600=DIRECTION('',(-1.,-5.55388079280292E-12,7.91987395568536E-26));
#1610=VECTOR('',#1600,1.);
#1620=LINE('',#1590,#1610);
#1630=CARTESIAN_POINT('',(71.7543378207565,-2.90187196286646,
47.5199999999998));
#1640=VERTEX_POINT('',#1630);
#1650=EDGE_CURVE('',#1640,#1560,#1620,.T.);
#1660=ORIENTED_EDGE('',*,*,#1650,.T.);
#1670=CARTESIAN_POINT('',(4.76656814860835E-12,23.2145711831931,
47.5199999999994));
#1680=DIRECTION('',(-0.939692620786648,0.342020143323637,
-4.85442732773219E-15));
#1690=VECTOR('',#1680,1.);
#1700=LINE('',#1670,#1690);
#1710=CARTESIAN_POINT('',(97.4321672214908,-12.2478375452364,
47.5199999999999));
#1720=VERTEX_POINT('',#1710);
#1730=EDGE_CURVE('',#1720,#1640,#1700,.T.);
#1740=ORIENTED_EDGE('',*,*,#1730,.T.);
#1750=CARTESIAN_POINT('',(97.432167221492,-1.1225278924872E-13,
47.5199999999998));
#1760=DIRECTION('',(9.29077994736906E-14,1.,-1.42386102908176E-14));
#1770=VECTOR('',#1760,1.);
#1780=LINE('',#1750,#1770);
#1790=EDGE_CURVE('',#1080,#1720,#1780,.T.);
#1800=ORIENTED_EDGE('',*,*,#1790,.T.);
#1810=EDGE_LOOP('',(#1800,#1740,#1660,#1580,#1500,#1420,#1340,#1260,
#1180,#1100));
#1820=FACE_OUTER_BOUND('',#1810,.T.);
#1830=ADVANCED_FACE('',(#1820),#1000,.T.);
#1840=COLOUR_RGB('',0.560784339904785,0.588235318660736,
0.600000023841858);
#1850=FILL_AREA_STYLE_COLOUR('',#1840);
#1860=FILL_AREA_STYLE('',(#1850));
#1870=SURFACE_STYLE_FILL_AREA(#1860);
#1880=SURFACE_SIDE_STYLE('',(#1870));
#1890=SURFACE_STYLE_USAGE(.BOTH.,#1880);
#1900=PRESENTATION_STYLE_ASSIGNMENT((#1890));
#1910=CARTESIAN_POINT('',(71.6661743304014,-2.90187196286698,
45.3200000000016));
#1920=DIRECTION('',(5.55388079280292E-12,-1.,1.42386102908176E-14));
#1930=DIRECTION('',(1.,5.55388079280292E-12,-7.88822091186414E-26));
#1940=AXIS2_PLACEMENT_3D('',#1910,#1920,#1930);
#1950=PLANE('',#1940);
#1960=ORIENTED_EDGE('',*,*,#220,.T.);
#1970=CARTESIAN_POINT('',(71.7543378207565,-2.90187196286714,
-1.85357809810528E-13));
#1980=DIRECTION('',(1.96390013420169E-28,-1.42386102908176E-14,-1.));
#1990=VECTOR('',#1980,1.);
#2000=LINE('',#1970,#1990);
#2010=EDGE_CURVE('',#1640,#130,#2000,.T.);
#2020=ORIENTED_EDGE('',*,*,#2010,.T.);
#2030=ORIENTED_EDGE('',*,*,#1650,.F.);
#2040=CARTESIAN_POINT('',(60.7099970687207,-2.90187196292848,
-1.85357809810091E-13));
#2050=DIRECTION('',(1.96678322796698E-28,-1.42386102908176E-14,-1.));
#2060=VECTOR('',#2050,1.);
#2070=LINE('',#2040,#2060);
#2080=EDGE_CURVE('',#1560,#210,#2070,.T.);
#2090=ORIENTED_EDGE('',*,*,#2080,.F.);
#2100=EDGE_LOOP('',(#2090,#2030,#2020,#1960));
#2110=FACE_OUTER_BOUND('',#2100,.T.);
#2120=ADVANCED_FACE('',(#2110),#1950,.F.);
#2130=COLOUR_RGB('',0.560784339904785,0.588235318660736,
0.600000023841858);
#2140=FILL_AREA_STYLE_COLOUR('',#2130);
#2150=FILL_AREA_STYLE('',(#2140));
#2160=SURFACE_STYLE_FILL_AREA(#2150);
#2170=SURFACE_SIDE_STYLE('',(#2160));
#2180=SURFACE_STYLE_USAGE(.BOTH.,#2170);
#2190=PRESENTATION_STYLE_ASSIGNMENT((#2180));
#2200=CARTESIAN_POINT('',(35.0321672214909,-12.5979414770593,
45.3200000000018));
#2210=DIRECTION('',(1.,-9.29077994736906E-14,1.52021304141994E-27));
#2220=DIRECTION('',(9.29077994736906E-14,1.,-1.42386102908176E-14));
#2230=AXIS2_PLACEMENT_3D('',#2200,#2210,#2220);
#2240=PLANE('',#2230);
#2250=ORIENTED_EDGE('',*,*,#380,.F.);
#2260=CARTESIAN_POINT('',(35.0321672214909,-12.2478377079562,
-1.18691326463232E-13));
#2270=DIRECTION('',(1.96716288305439E-28,-1.42386102908176E-14,-1.));
#2280=VECTOR('',#2270,1.);
#2290=LINE('',#2260,#2280);
#2300=EDGE_CURVE('',#1480,#290,#2290,.T.);
#2310=ORIENTED_EDGE('',*,*,#2300,.T.);
#2320=ORIENTED_EDGE('',*,*,#1490,.F.);
#2330=CARTESIAN_POINT('',(35.0321672214902,-19.7821137371982,
-6.49479572773E-14));
#2340=DIRECTION('',(1.97399096226727E-28,-1.42386102908176E-14,-1.));
#2350=VECTOR('',#2340,1.);
#2360=LINE('',#2330,#2350);
#2370=EDGE_CURVE('',#1400,#370,#2360,.T.);
#2380=ORIENTED_EDGE('',*,*,#2370,.F.);
#2390=EDGE_LOOP('',(#2380,#2320,#2310,#2250));
#2400=FACE_OUTER_BOUND('',#2390,.T.);
#2410=ADVANCED_FACE('',(#2400),#2240,.F.);
#2420=COLOUR_RGB('',0.560784339904785,0.588235318660736,
0.600000023841858);
#2430=FILL_AREA_STYLE_COLOUR('',#2420);
#2440=FILL_AREA_STYLE('',(#2430));
#2450=SURFACE_STYLE_FILL_AREA(#2440);
#2460=SURFACE_SIDE_STYLE('',(#2450));
#2470=SURFACE_STYLE_USAGE(.BOTH.,#2460);
#2480=PRESENTATION_STYLE_ASSIGNMENT((#2470));
#2490=CARTESIAN_POINT('',(38.6783935946665,-29.7418881327878,
45.320000000002));
#2500=DIRECTION('',(0.871722308159926,0.490000221894165,
-6.97692220196502E-15));
#2510=DIRECTION('',(-0.490000221894165,0.871722308159926,
-1.24121142277013E-14));
#2520=AXIS2_PLACEMENT_3D('',#2490,#2500,#2510);
#2530=PLANE('',#2520);
#2540=ORIENTED_EDGE('',*,*,#540,.F.);
#2550=CARTESIAN_POINT('',(38.6183491480508,-29.6350676023943,
5.33496507568798E-15));
#2560=DIRECTION('',(1.96847021815749E-28,-1.42386102908176E-14,-1.));
#2570=VECTOR('',#2560,1.);
#2580=LINE('',#2550,#2570);
#2590=EDGE_CURVE('',#1320,#450,#2580,.T.);
#2600=ORIENTED_EDGE('',*,*,#2590,.T.);
#2610=ORIENTED_EDGE('',*,*,#1330,.F.);
#2620=CARTESIAN_POINT('',(43.4338001217599,-38.2018719630244,
6.64435477331406E-14));
#2630=DIRECTION('',(1.97265259977212E-28,-1.42386102908176E-14,-1.));
#2640=VECTOR('',#2630,1.);
#2650=LINE('',#2620,#2640);
#2660=EDGE_CURVE('',#1240,#530,#2650,.T.);
#2670=ORIENTED_EDGE('',*,*,#2660,.F.);
#2680=EDGE_LOOP('',(#2670,#2610,#2600,#2540));
#2690=FACE_OUTER_BOUND('',#2680,.T.);
#2700=ADVANCED_FACE('',(#2690),#2530,.F.);
#2710=COLOUR_RGB('',0.560784339904785,0.588235318660736,
0.600000023841858);
#2720=FILL_AREA_STYLE_COLOUR('',#2710);
#2730=FILL_AREA_STYLE('',(#2720));
#2740=SURFACE_STYLE_FILL_AREA(#2730);
#2750=SURFACE_SIDE_STYLE('',(#2740));
#2760=SURFACE_STYLE_USAGE(.BOTH.,#2750);
#2770=PRESENTATION_STYLE_ASSIGNMENT((#2760));
#2780=CARTESIAN_POINT('',(90.6956993199752,-36.554446535855,
45.3200000000021));
#2790=DIRECTION('',(-0.892595592407062,0.450858191026277,
-6.41959407844634E-15));
#2800=DIRECTION('',(-0.450858191026277,-0.892595592407062,
1.27093207875856E-14));
#2810=AXIS2_PLACEMENT_3D('',#2780,#2790,#2800);
#2820=PLANE('',#2810);
#2830=ORIENTED_EDGE('',*,*,#700,.T.);
#2840=CARTESIAN_POINT('',(89.8635696812608,-38.2018719627666,
6.64435477313013E-14));
#2850=DIRECTION('',(1.9658662666787E-28,-1.42386102908176E-14,-1.));
#2860=VECTOR('',#2850,1.);
#2870=LINE('',#2840,#2860);
#2880=EDGE_CURVE('',#1160,#610,#2870,.T.);
#2890=ORIENTED_EDGE('',*,*,#2880,.T.);
#2900=ORIENTED_EDGE('',*,*,#1170,.F.);
#2910=CARTESIAN_POINT('',(92.9569266886471,-32.0777360692844,
2.27589660952147E-14));
#2920=DIRECTION('',(1.96004864305567E-28,-1.42386102908176E-14,-1.));
#2930=VECTOR('',#2920,1.);
#2940=LINE('',#2910,#2930);
#2950=EDGE_CURVE('',#1060,#690,#2940,.T.);
#2960=ORIENTED_EDGE('',*,*,#2950,.F.);
#2970=EDGE_LOOP('',(#2960,#2900,#2890,#2830));
#2980=FACE_OUTER_BOUND('',#2970,.T.);
#2990=ADVANCED_FACE('',(#2980),#2820,.F.);
#3000=COLOUR_RGB('',0.560784339904785,0.588235318660736,
0.600000023841858);
#3010=FILL_AREA_STYLE_COLOUR('',#3000);
#3020=FILL_AREA_STYLE('',(#3010));
#3030=SURFACE_STYLE_FILL_AREA(#3020);
#3040=SURFACE_SIDE_STYLE('',(#3030));
#3050=SURFACE_STYLE_USAGE(.BOTH.,#3040);
#3060=PRESENTATION_STYLE_ASSIGNMENT((#3050));
#3070=CARTESIAN_POINT('',(92.9874007193169,-31.9940093579796,
45.3200000000021));
#3080=DIRECTION('',(-0.939692620994577,0.342020142752356,
-4.86989152426079E-15));
#3090=DIRECTION('',(-0.342020142752356,-0.939692620994577,
1.33799170234987E-14));
#3100=AXIS2_PLACEMENT_3D('',#3070,#3080,#3090);
#3110=PLANE('',#3100);
#3120=ORIENTED_EDGE('',*,*,#780,.F.);
#3130=ORIENTED_EDGE('',*,*,#2950,.T.);
#3140=ORIENTED_EDGE('',*,*,#1090,.F.);
#3150=CARTESIAN_POINT('',(97.4321672214901,-19.7821137353289,
-6.49479572906339E-14));
#3160=DIRECTION('',(1.97399096562302E-28,-1.42386102908176E-14,-1.));
#3170=VECTOR('',#3160,1.);
#3180=LINE('',#3150,#3170);
#3190=EDGE_CURVE('',#1080,#770,#3180,.T.);
#3200=ORIENTED_EDGE('',*,*,#3190,.F.);
#3210=EDGE_LOOP('',(#3200,#3140,#3130,#3120));
#3220=FACE_OUTER_BOUND('',#3210,.T.);
#3230=ADVANCED_FACE('',(#3220),#3110,.F.);
#3240=COLOUR_RGB('',0.560784339904785,0.588235318660736,
0.600000023841858);
#3250=FILL_AREA_STYLE_COLOUR('',#3240);
#3260=FILL_AREA_STYLE('',(#3250));
#3270=SURFACE_STYLE_FILL_AREA(#3260);
#3280=SURFACE_SIDE_STYLE('',(#3270));
#3290=SURFACE_STYLE_USAGE(.BOTH.,#3280);
#3300=PRESENTATION_STYLE_ASSIGNMENT((#3290));
#3310=CARTESIAN_POINT('',(45.1889454472901,-38.201871963014,
45.3200000000021));
#3320=DIRECTION('',(-5.55388079280292E-12,1.,-1.42386102908176E-14));
#3330=DIRECTION('',(-1.,-5.55388079280292E-12,7.88822091186414E-26));
#3340=AXIS2_PLACEMENT_3D('',#3310,#3320,#3330);
#3350=PLANE('',#3340);
#3360=ORIENTED_EDGE('',*,*,#620,.F.);
#3370=ORIENTED_EDGE('',*,*,#2660,.T.);
#3380=ORIENTED_EDGE('',*,*,#1250,.F.);
#3390=ORIENTED_EDGE('',*,*,#2880,.F.);
#3400=EDGE_LOOP('',(#3390,#3380,#3370,#3360));
#3410=FACE_OUTER_BOUND('',#3400,.T.);
#3420=ADVANCED_FACE('',(#3410),#3350,.F.);
#3430=COLOUR_RGB('',0.560784339904785,0.588235318660736,
0.600000023841858);
#3440=FILL_AREA_STYLE_COLOUR('',#3430);
#3450=FILL_AREA_STYLE('',(#3440));
#3460=SURFACE_STYLE_FILL_AREA(#3450);
#3470=SURFACE_SIDE_STYLE('',(#3460));
#3480=SURFACE_STYLE_USAGE(.BOTH.,#3470);
#3490=PRESENTATION_STYLE_ASSIGNMENT((#3480));
#3500=CARTESIAN_POINT('',(35.1226282903128,-20.0306534811252,
45.3200000000019));
#3510=DIRECTION('',(0.939692620784955,0.342020143328289,
-4.86989153246091E-15));
#3520=DIRECTION('',(-0.342020143328289,0.939692620784955,
-1.33799170205141E-14));
#3530=AXIS2_PLACEMENT_3D('',#3500,#3510,#3520);
#3540=PLANE('',#3530);
#3550=ORIENTED_EDGE('',*,*,#460,.F.);
#3560=ORIENTED_EDGE('',*,*,#2370,.T.);
#3570=ORIENTED_EDGE('',*,*,#1410,.F.);
#3580=ORIENTED_EDGE('',*,*,#2590,.F.);
#3590=EDGE_LOOP('',(#3580,#3570,#3560,#3550));
#3600=FACE_OUTER_BOUND('',#3590,.T.);
#3610=ADVANCED_FACE('',(#3600),#3540,.F.);
#3620=COLOUR_RGB('',0.560784339904785,0.588235318660736,
0.600000023841858);
#3630=FILL_AREA_STYLE_COLOUR('',#3620);
#3640=FILL_AREA_STYLE('',(#3630));
#3650=SURFACE_STYLE_FILL_AREA(#3640);
#3660=SURFACE_SIDE_STYLE('',(#3650));
#3670=SURFACE_STYLE_USAGE(.BOTH.,#3660);
#3680=PRESENTATION_STYLE_ASSIGNMENT((#3670));
#3690=CARTESIAN_POINT('',(60.6271504874128,-2.93202565253488,
45.3200000000016));
#3700=DIRECTION('',(0.342020143328378,-0.939692620784922,
1.33799170205137E-14));
#3710=DIRECTION('',(0.939692620784922,0.342020143328378,
-4.86989153246218E-15));
#3720=AXIS2_PLACEMENT_3D('',#3690,#3700,#3710);
#3730=PLANE('',#3720);
#3740=ORIENTED_EDGE('',*,*,#300,.T.);
#3750=ORIENTED_EDGE('',*,*,#2080,.T.);
#3760=ORIENTED_EDGE('',*,*,#1570,.F.);
#3770=ORIENTED_EDGE('',*,*,#2300,.F.);
#3780=EDGE_LOOP('',(#3770,#3760,#3750,#3740));
#3790=FACE_OUTER_BOUND('',#3780,.T.);
#3800=ADVANCED_FACE('',(#3790),#3730,.F.);
#3810=COLOUR_RGB('',0.560784339904785,0.588235318660736,
0.600000023841858);
#3820=FILL_AREA_STYLE_COLOUR('',#3810);
#3830=FILL_AREA_STYLE('',(#3820));
#3840=SURFACE_STYLE_FILL_AREA(#3830);
#3850=SURFACE_SIDE_STYLE('',(#3840));
#3860=SURFACE_STYLE_USAGE(.BOTH.,#3850);
#3870=PRESENTATION_STYLE_ASSIGNMENT((#3860));
#3880=CARTESIAN_POINT('',(97.1031772931528,-12.1280950039488,
45.3200000000018));
#3890=DIRECTION('',(-0.342020143323637,-0.939692620786648,
1.33799170205381E-14));
#3900=DIRECTION('',(0.939692620786648,-0.342020143323637,
4.86989153239504E-15));
#3910=AXIS2_PLACEMENT_3D('',#3880,#3890,#3900);
#3920=PLANE('',#3910);
#3930=ORIENTED_EDGE('',*,*,#140,.T.);
#3940=CARTESIAN_POINT('',(97.4321672214908,-12.2478375452371,
-1.18691327623937E-13));
#3950=DIRECTION('',(1.97136032425516E-28,-1.42386102908176E-14,-1.));
#3960=VECTOR('',#3950,1.);
#3970=LINE('',#3940,#3960);
#3980=EDGE_CURVE('',#1720,#110,#3970,.T.);
#3990=ORIENTED_EDGE('',*,*,#3980,.T.);
#4000=ORIENTED_EDGE('',*,*,#1730,.F.);
#4010=ORIENTED_EDGE('',*,*,#2010,.F.);
#4020=EDGE_LOOP('',(#4010,#4000,#3990,#3930));
#4030=FACE_OUTER_BOUND('',#4020,.T.);
#4040=ADVANCED_FACE('',(#4030),#3920,.F.);
#4050=COLOUR_RGB('',0.560784339904785,0.588235318660736,
0.600000023841858);
#4060=FILL_AREA_STYLE_COLOUR('',#4050);
#4070=FILL_AREA_STYLE('',(#4060));
#4080=SURFACE_STYLE_FILL_AREA(#4070);
#4090=SURFACE_SIDE_STYLE('',(#4080));
#4100=SURFACE_STYLE_USAGE(.BOTH.,#4090);
#4110=PRESENTATION_STYLE_ASSIGNMENT((#4100));
#4120=CARTESIAN_POINT('',(97.4321672214902,-19.5176232647373,
45.3200000000019));
#4130=DIRECTION('',(-1.,9.29077994736906E-14,-1.52021304141994E-27));
#4140=DIRECTION('',(-9.29077994736906E-14,-1.,1.42386102908176E-14));
#4150=AXIS2_PLACEMENT_3D('',#4120,#4130,#4140);
#4160=PLANE('',#4150);
#4170=ORIENTED_EDGE('',*,*,#840,.T.);
#4180=ORIENTED_EDGE('',*,*,#3190,.T.);
#4190=ORIENTED_EDGE('',*,*,#1790,.F.);
#4200=ORIENTED_EDGE('',*,*,#3980,.F.);
#4210=EDGE_LOOP('',(#4200,#4190,#4180,#4170));
#4220=FACE_OUTER_BOUND('',#4210,.T.);
#4230=ADVANCED_FACE('',(#4220),#4160,.F.);
#4240=COLOUR_RGB('',0.560784339904785,0.588235318660736,
0.600000023841858);
#4250=FILL_AREA_STYLE_COLOUR('',#4240);
#4260=FILL_AREA_STYLE('',(#4250));
#4270=SURFACE_STYLE_FILL_AREA(#4260);
#4280=SURFACE_SIDE_STYLE('',(#4270));
#4290=SURFACE_STYLE_USAGE(.BOTH.,#4280);
#4300=PRESENTATION_STYLE_ASSIGNMENT((#4290));
#4310=CLOSED_SHELL('',(#880,#1830,#2120,#2410,#2700,#2990,#3230,#3420,
#3610,#3800,#4040,#4230));
#4320=MANIFOLD_SOLID_BREP('',#4310);
#4330=CARTESIAN_POINT('',(0.,0.,0.));
#4340=DIRECTION('',(0.,0.,1.));
#4350=DIRECTION('',(1.,0.,0.));
#4360=AXIS2_PLACEMENT_3D('',#4330,#4340,#4350);
#4370=APPLICATION_CONTEXT(' ');
#4380=APPLICATION_PROTOCOL_DEFINITION(' ','automotive_design',1998,#4370
);
#4390=PRODUCT_CONTEXT('',#4370,'mechanical');
#4400=PRODUCT_DEFINITION_CONTEXT('part definition',#4370,'design');
#4410=PRODUCT('D_PTS_4-select','D_PTS_4-select','',(#4390));
#4420=PRODUCT_RELATED_PRODUCT_CATEGORY('part',' ',(#4410));
#4430=PRODUCT_DEFINITION_FORMATION_WITH_SPECIFIED_SOURCE('','',#4410,
.BOUGHT.);
#4440=PRODUCT_DEFINITION('',' ',#4430,#4400);
#4450=PRODUCT_DEFINITION_SHAPE('','',#4440);
#4460=DIMENSIONAL_EXPONENTS(1.,0.,0.,0.,0.,0.,0.);
#4470=DIMENSIONAL_EXPONENTS(0.,0.,0.,0.,0.,0.,0.);
#4480=DIMENSIONAL_EXPONENTS(0.,0.,0.,0.,0.,0.,0.);
#4490=(LENGTH_UNIT() NAMED_UNIT(*) SI_UNIT(.MILLI.,.METRE.));
#4500=(NAMED_UNIT(*) PLANE_ANGLE_UNIT() SI_UNIT($,.RADIAN.));
#4510=(NAMED_UNIT(*) SI_UNIT($,.STERADIAN.) SOLID_ANGLE_UNIT());
#4520=(GEOMETRIC_REPRESENTATION_CONTEXT(3) 
GLOBAL_UNCERTAINTY_ASSIGNED_CONTEXT((#4530)) 
GLOBAL_UNIT_ASSIGNED_CONTEXT((#4490,#4500,#4510)) REPRESENTATION_CONTEXT
('',''));
#4530=UNCERTAINTY_MEASURE_WITH_UNIT(LENGTH_MEASURE(1.E-6),#4490,
'distance_accuracy_value','maximum gap value');
#4540=ADVANCED_BREP_SHAPE_REPRESENTATION('',(#4360,#4320),#4520);
#4550=SHAPE_DEFINITION_REPRESENTATION(#4450,#4540);
#4560=COLOUR_RGB('',0.560784339904785,0.588235318660736,
0.600000023841858);
#4570=FILL_AREA_STYLE_COLOUR('',#4560);
#4580=FILL_AREA_STYLE('',(#4570));
#4590=SURFACE_STYLE_FILL_AREA(#4580);
#4600=SURFACE_SIDE_STYLE('',(#4590));
#4610=SURFACE_STYLE_USAGE(.BOTH.,#4600);
#4620=PRESENTATION_STYLE_ASSIGNMENT((#4610));
#4630=STYLED_ITEM('',(#4620),#4320);
#4640=OVER_RIDING_STYLED_ITEM('',(#950),#880,#4630);
#4650=OVER_RIDING_STYLED_ITEM('',(#1900),#1830,#4630);
#4660=OVER_RIDING_STYLED_ITEM('',(#2190),#2120,#4630);
#4670=OVER_RIDING_STYLED_ITEM('',(#2480),#2410,#4630);
#4680=OVER_RIDING_STYLED_ITEM('',(#2770),#2700,#4630);
#4690=OVER_RIDING_STYLED_ITEM('',(#3060),#2990,#4630);
#4700=OVER_RIDING_STYLED_ITEM('',(#3300),#3230,#4630);
#4710=OVER_RIDING_STYLED_ITEM('',(#3490),#3420,#4630);
#4720=OVER_RIDING_STYLED_ITEM('',(#3680),#3610,#4630);
#4730=OVER_RIDING_STYLED_ITEM('',(#3870),#3800,#4630);
#4740=OVER_RIDING_STYLED_ITEM('',(#4110),#4040,#4630);
#4750=OVER_RIDING_STYLED_ITEM('',(#4300),#4230,#4630);
#4760=DRAUGHTING_MODEL('',(#4630,#4640,#4650,#4660,#4670,#4680,#4690,
#4700,#4710,#4720,#4730,#4740,#4750),#4520);
#4770=CARTESIAN_POINT('',(47.5200000000002,97.432167221492,
38.2018719628001));
#4780=DIRECTION('',(-1.,-1.52021304141994E-27,7.105427357601E-15));
#4790=DIRECTION('',(2.18036266153481E-27,-1.,9.29077994736908E-14));
#4800=AXIS2_PLACEMENT_3D('',#4770,#4780,#4790);
#4810=ITEM_DEFINED_TRANSFORMATION('D_PTS_4-select','',#4360,#4800);
#4820=APPLICATION_CONTEXT(' ');
#4830=APPLICATION_PROTOCOL_DEFINITION(' ','automotive_design',1998,#4820
);
#4840=PRODUCT_CONTEXT('',#4820,'mechanical');
#4850=PRODUCT_DEFINITION_CONTEXT('part definition',#4820,'design');
#4860=PRODUCT('D_PTS_4-select','D_PTS_4-select','',(#4840));
#4870=PRODUCT_RELATED_PRODUCT_CATEGORY('part',' ',(#4860));
#4880=PRODUCT_DEFINITION_FORMATION_WITH_SPECIFIED_SOURCE('','',#4860,
.BOUGHT.);
#4890=PRODUCT_DEFINITION('',' ',#4880,#4850);
#4900=PRODUCT_DEFINITION_SHAPE('','',#4890);
#4910=DIMENSIONAL_EXPONENTS(1.,0.,0.,0.,0.,0.,0.);
#4920=DIMENSIONAL_EXPONENTS(0.,0.,0.,0.,0.,0.,0.);
#4930=DIMENSIONAL_EXPONENTS(0.,0.,0.,0.,0.,0.,0.);
#4940=(LENGTH_UNIT() NAMED_UNIT(*) SI_UNIT(.MILLI.,.METRE.));
#4950=(NAMED_UNIT(*) PLANE_ANGLE_UNIT() SI_UNIT($,.RADIAN.));
#4960=(NAMED_UNIT(*) SI_UNIT($,.STERADIAN.) SOLID_ANGLE_UNIT());
#4970=(GEOMETRIC_REPRESENTATION_CONTEXT(3) 
GLOBAL_UNCERTAINTY_ASSIGNED_CONTEXT((#4980)) 
GLOBAL_UNIT_ASSIGNED_CONTEXT((#4940,#4950,#4960)) REPRESENTATION_CONTEXT
('',''));
#4980=UNCERTAINTY_MEASURE_WITH_UNIT(LENGTH_MEASURE(1.E-6),#4940,
'distance_accuracy_value','maximum gap value');
#4990=SHAPE_REPRESENTATION('',(#4360,#4800),#4970);
#5000=SHAPE_DEFINITION_REPRESENTATION(#4900,#4990);
#5010=(REPRESENTATION_RELATIONSHIP('','',#4540,#4990) 
REPRESENTATION_RELATIONSHIP_WITH_TRANSFORMATION(#4810) 
SHAPE_REPRESENTATION_RELATIONSHIP());
#5020=NEXT_ASSEMBLY_USAGE_OCCURRENCE('1','','D_PTS_4-select',#4890,#4440
,'');
#5030=PRODUCT_DEFINITION_SHAPE('','',#5020);
#5040=CONTEXT_DEPENDENT_SHAPE_REPRESENTATION(#5010,#5030);
ENDSEC;
END-ISO-10303-21;
