ISO-10303-21;
HEADER;
FILE_DESCRIPTION(('Creo Elements/Direct Modeling STEP Export'),'2;1');
FILE_NAME(
'C:/temp/JobSpoolerServerData/JobServer Files/83f0574f-0e22-432a-95ee-8e
061a2bfa10/work/output/model.stp','2019-09-21T 0:04:14',(''),(''),
'Creo Elements/Direct Modeling STEP processor for AP214 (Solid Model)',
'Creo Elements/Direct Modeling 20.1A  29-Sep-2018 (C) Parametric Technol
ogy GmbH','');
FILE_SCHEMA(('AUTOMOTIVE_DESIGN { 1 0 10303 214 1 1 1 1 }'));
ENDSEC;
DATA;
#10=CARTESIAN_POINT('',(-17.7811197830241,4.19999999933437,
2.20000000085031));
#20=DIRECTION('',(-2.15913190465248E-11,-3.87665299652629E-12,1.));
#30=DIRECTION('',(0.992546151641322,0.121869343405148,
2.19028257837845E-11));
#40=AXIS2_PLACEMENT_3D('',#10,#20,#30);
#50=PLANE('',#40);
#60=CARTESIAN_POINT('',(-50.000000401542,0.199999999333301,
2.20000000013916));
#70=DIRECTION('',(0.,1.,3.87665299652629E-12));
#80=VECTOR('',#70,1.);
#90=LINE('',#60,#80);
#100=CARTESIAN_POINT('',(-50.000000401542,0.199999999333306,
2.20000000013916));
#110=VERTEX_POINT('',#100);
#120=CARTESIAN_POINT('',(-50.000000401542,27.0499999993869,
2.20000000024325));
#130=VERTEX_POINT('',#120);
#140=EDGE_CURVE('',#110,#130,#90,.T.);
#150=ORIENTED_EDGE('',*,*,#140,.F.);
#160=CARTESIAN_POINT('',(-72.5361274011935,4.5138729994875,
2.1999999996693));
#170=DIRECTION('',(0.707106781182659,0.707106781190436,
1.8008575734642E-11));
#180=VECTOR('',#170,1.);
#190=LINE('',#160,#180);
#200=CARTESIAN_POINT('',(-41.8000004016823,35.2499999993368,
2.20000000045208));
#210=VERTEX_POINT('',#200);
#220=EDGE_CURVE('',#130,#210,#190,.T.);
#230=ORIENTED_EDGE('',*,*,#220,.F.);
#240=CARTESIAN_POINT('',(-15.1593962280025,35.2499999993368,
2.20000000102729));
#250=DIRECTION('',(-1.,3.05311331771918E-16,-2.15913190465248E-11));
#260=VECTOR('',#250,1.);
#270=LINE('',#240,#260);
#280=CARTESIAN_POINT('',(-34.7993325307199,35.2499999993368,
2.20000000060324));
#290=VERTEX_POINT('',#280);
#300=EDGE_CURVE('',#290,#210,#270,.T.);
#310=ORIENTED_EDGE('',*,*,#300,.T.);
#320=CARTESIAN_POINT('',(-34.7993325307199,35.2499999993368,
2.20000000060324));
#330=DIRECTION('',(1.04083408558608E-15,-1.,-3.87665299652626E-12));
#340=VECTOR('',#330,1.);
#350=LINE('',#320,#340);
#360=CARTESIAN_POINT('',(-34.7993325307199,29.2499999994878,
2.20000000057998));
#370=VERTEX_POINT('',#360);
#380=EDGE_CURVE('',#290,#370,#350,.T.);
#390=ORIENTED_EDGE('',*,*,#380,.F.);
#400=CARTESIAN_POINT('',(-15.1593962280025,29.2499999994266,
2.20000000100403));
#410=DIRECTION('',(-1.,3.11628500782035E-12,-2.15913190465128E-11));
#420=VECTOR('',#410,1.);
#430=LINE('',#400,#420);
#440=CARTESIAN_POINT('',(19.7193559610309,29.2499999993179,
2.20000000175711));
#450=VERTEX_POINT('',#440);
#460=EDGE_CURVE('',#450,#370,#430,.T.);
#470=ORIENTED_EDGE('',*,*,#460,.T.);
#480=CARTESIAN_POINT('',(24.0810025493429,4.5138729994875,
2.20000000175539));
#490=DIRECTION('',(-0.173648177667345,0.984807753012135,
6.84647208535482E-14));
#500=VECTOR('',#490,1.);
#510=LINE('',#480,#500);
#520=CARTESIAN_POINT('',(20.9999995984398,21.9871090210898,
2.2000000017566));
#530=VERTEX_POINT('',#520);
#540=EDGE_CURVE('',#530,#450,#510,.T.);
#550=ORIENTED_EDGE('',*,*,#540,.T.);
#560=CARTESIAN_POINT('',(20.9999995984398,21.9871090210898,
2.2000000017566));
#570=DIRECTION('',(0.,-1.,-3.87665299652629E-12));
#580=VECTOR('',#570,1.);
#590=LINE('',#560,#580);
#600=CARTESIAN_POINT('',(20.999999598416,17.1999999986152,
2.20000000173804));
#610=VERTEX_POINT('',#600);
#620=EDGE_CURVE('',#530,#610,#590,.T.);
#630=ORIENTED_EDGE('',*,*,#620,.F.);
#640=CARTESIAN_POINT('',(34.7477266833053,11.1999999986653,
2.20000000201162));
#650=DIRECTION('',(-2.15913190465248E-11,-3.87665299652629E-12,1.));
#660=DIRECTION('',(-0.992546151641322,-0.121869343405148,
-2.19028257837845E-11));
#670=AXIS2_PLACEMENT_3D('',#640,#650,#660);
#680=CIRCLE('',#670,14.9999999999999);
#690=CARTESIAN_POINT('',(20.9999995984398,5.19999999871544,
2.20000000169152));
#700=VERTEX_POINT('',#690);
#710=EDGE_CURVE('',#610,#700,#680,.T.);
#720=ORIENTED_EDGE('',*,*,#710,.F.);
#730=CARTESIAN_POINT('',(20.9999995984398,5.19999999865404,
2.20000000169152));
#740=DIRECTION('',(0.,-1.,-3.87665299652629E-12));
#750=VECTOR('',#740,1.);
#760=LINE('',#730,#750);
#770=CARTESIAN_POINT('',(20.9999995984398,3.19999999931574,
2.20000000168377));
#780=VERTEX_POINT('',#770);
#790=EDGE_CURVE('',#700,#780,#760,.T.);
#800=ORIENTED_EDGE('',*,*,#790,.F.);
#810=CARTESIAN_POINT('',(-15.1593962280025,-13.9371086827566,
2.20000000083661));
#820=DIRECTION('',(0.903651058114919,0.42826950062757,
2.11712705454177E-11));
#830=VECTOR('',#820,1.);
#840=LINE('',#810,#830);
#850=CARTESIAN_POINT('',(14.669982704043,0.199999999334992,
2.20000000153547));
#860=VERTEX_POINT('',#850);
#870=EDGE_CURVE('',#860,#780,#840,.T.);
#880=ORIENTED_EDGE('',*,*,#870,.T.);
#890=CARTESIAN_POINT('',(-15.1593962280025,0.199999999334208,
2.20000000089141));
#900=DIRECTION('',(1.,2.60624855030756E-14,2.15913190465249E-11));
#910=VECTOR('',#900,1.);
#920=LINE('',#890,#910);
#930=EDGE_CURVE('',#110,#860,#920,.T.);
#940=ORIENTED_EDGE('',*,*,#930,.T.);
#950=EDGE_LOOP('',(#940,#880,#800,#720,#630,#550,#470,#390,#310,#230,
#150));
#960=FACE_OUTER_BOUND('',#950,.T.);
#970=ADVANCED_FACE('',(#960),#50,.T.);
#980=COLOUR_RGB('',0.560784339904785,0.588235318660736,0.600000023841858
);
#990=FILL_AREA_STYLE_COLOUR('',#980);
#1000=FILL_AREA_STYLE('',(#990));
#1010=SURFACE_STYLE_FILL_AREA(#1000);
#1020=SURFACE_SIDE_STYLE('',(#1010));
#1030=SURFACE_STYLE_USAGE(.BOTH.,#1020);
#1040=PRESENTATION_STYLE_ASSIGNMENT((#1030));
#1050=CARTESIAN_POINT('',(-17.7811197829291,4.19999999934894,
1.36042066500863E-9));
#1060=DIRECTION('',(-4.31825756069518E-11,-3.8767379897272E-12,1.));
#1070=DIRECTION('',(0.992546151641319,0.121869343405174,
4.33331547500022E-11));
#1080=AXIS2_PLACEMENT_3D('',#1050,#1060,#1070);
#1090=PLANE('',#1080);
#1100=CARTESIAN_POINT('',(-15.1593962279074,0.199999999348845,
1.45812695251379E-9));
#1110=DIRECTION('',(1.,5.22359932249118E-14,4.3182575606952E-11));
#1120=VECTOR('',#1110,1.);
#1130=LINE('',#1100,#1120);
#1140=CARTESIAN_POINT('',(-50.0000004014945,0.199999999341835,
-4.63806770767405E-11));
#1150=VERTEX_POINT('',#1140);
#1160=CARTESIAN_POINT('',(14.6699827040905,0.199999999343521,
2.74623568330412E-9));
#1170=VERTEX_POINT('',#1160);
#1180=EDGE_CURVE('',#1150,#1170,#1130,.T.);
#1190=ORIENTED_EDGE('',*,*,#1180,.F.);
#1200=CARTESIAN_POINT('',(-15.1593962279071,-13.937108682742,
1.40332145903699E-9));
#1210=DIRECTION('',(0.903651058114908,0.428269500627593,
4.06822687822735E-11));
#1220=VECTOR('',#1210,1.);
#1230=LINE('',#1200,#1220);
#1240=CARTESIAN_POINT('',(20.9999995984873,3.19999999932427,
3.03121261424621E-9));
#1250=VERTEX_POINT('',#1240);
#1260=EDGE_CURVE('',#1170,#1250,#1230,.T.);
#1270=ORIENTED_EDGE('',*,*,#1260,.F.);
#1280=CARTESIAN_POINT('',(20.9999995985347,5.19999999866963,
3.0389664118502E-9));
#1290=DIRECTION('',(2.61596300177321E-14,-1.,-3.87673798972608E-12));
#1300=VECTOR('',#1290,1.);
#1310=LINE('',#1280,#1300);
#1320=CARTESIAN_POINT('',(20.9999995984873,5.19999999873138,
3.03896552367178E-9));
#1330=VERTEX_POINT('',#1320);
#1340=EDGE_CURVE('',#1330,#1250,#1310,.T.);
#1350=ORIENTED_EDGE('',*,*,#1340,.T.);
#1360=CARTESIAN_POINT('',(34.7477266834003,11.1999999986739,
3.65588892492497E-9));
#1370=DIRECTION('',(-4.31825756069518E-11,-3.8767379897272E-12,1.));
#1380=DIRECTION('',(-1.,-2.61596299340284E-14,-4.31825756069519E-11));
#1390=AXIS2_PLACEMENT_3D('',#1360,#1370,#1380);
#1400=CIRCLE('',#1390,14.9999999999999);
#1410=CARTESIAN_POINT('',(20.9999995985078,17.1999999986163,
3.08548697702804E-9));
#1420=VERTEX_POINT('',#1410);
#1430=EDGE_CURVE('',#1420,#1330,#1400,.T.);
#1440=ORIENTED_EDGE('',*,*,#1430,.T.);
#1450=CARTESIAN_POINT('',(20.9999995985343,21.9871090211054,
3.10404546510767E-9));
#1460=DIRECTION('',(2.61596300177321E-14,-1.,-3.87673798972608E-12));
#1470=VECTOR('',#1460,1.);
#1480=LINE('',#1450,#1470);
#1490=CARTESIAN_POINT('',(20.9999995984873,21.9871090210984,
3.10404546510767E-9));
#1500=VERTEX_POINT('',#1490);
#1510=EDGE_CURVE('',#1500,#1420,#1480,.T.);
#1520=ORIENTED_EDGE('',*,*,#1510,.T.);
#1530=CARTESIAN_POINT('',(24.0810025494378,4.51387299950317,
3.16935144795139E-9));
#1540=DIRECTION('',(-0.17364817766737,0.984807753012131,
-3.6807339324506E-12));
#1550=VECTOR('',#1540,1.);
#1560=LINE('',#1530,#1550);
#1570=CARTESIAN_POINT('',(19.7193559610784,29.2499999993264,
3.07690006806638E-9));
#1580=VERTEX_POINT('',#1570);
#1590=EDGE_CURVE('',#1500,#1580,#1560,.T.);
#1600=ORIENTED_EDGE('',*,*,#1590,.F.);
#1610=CARTESIAN_POINT('',(-15.1593962279082,29.2499999994412,
1.57074619977493E-9));
#1620=DIRECTION('',(-1.,3.09011150009852E-12,-4.31825756069398E-11));
#1630=VECTOR('',#1620,1.);
#1640=LINE('',#1610,#1630);
#1650=CARTESIAN_POINT('',(-34.7993325306724,29.2499999994963,
7.22642834460885E-10));
#1660=VERTEX_POINT('',#1650);
#1670=EDGE_CURVE('',#1580,#1660,#1640,.T.);
#1680=ORIENTED_EDGE('',*,*,#1670,.F.);
#1690=CARTESIAN_POINT('',(-34.7993325306258,35.2499999993509,
7.45902895005202E-10));
#1700=DIRECTION('',(2.72004641033182E-14,-1.,-3.87673798972603E-12));
#1710=VECTOR('',#1700,1.);
#1720=LINE('',#1690,#1710);
#1730=CARTESIAN_POINT('',(-34.7993325306724,35.2499999993453,
7.45902895005202E-10));
#1740=VERTEX_POINT('',#1730);
#1750=EDGE_CURVE('',#1740,#1660,#1720,.T.);
#1760=ORIENTED_EDGE('',*,*,#1750,.T.);
#1770=CARTESIAN_POINT('',(-15.1593962279083,35.2499999993514,
1.59400626031925E-9));
#1780=DIRECTION('',(-1.,-2.58543186022565E-14,-4.31825756069519E-11));
#1790=VECTOR('',#1780,1.);
#1800=LINE('',#1770,#1790);
#1810=CARTESIAN_POINT('',(-41.8000004016348,35.2499999993453,
4.43596270827129E-10));
#1820=VERTEX_POINT('',#1810);
#1830=EDGE_CURVE('',#1740,#1820,#1800,.T.);
#1840=ORIENTED_EDGE('',*,*,#1830,.F.);
#1850=CARTESIAN_POINT('',(-72.5361274010986,4.51387299950064,
-1.00282493420423E-9));
#1860=DIRECTION('',(0.707106781182641,0.707106781190455,
3.32759597620424E-11));
#1870=VECTOR('',#1860,1.);
#1880=LINE('',#1850,#1870);
#1890=CARTESIAN_POINT('',(-50.0000004014945,27.0499999993954,
5.77102809984353E-11));
#1900=VERTEX_POINT('',#1890);
#1910=EDGE_CURVE('',#1900,#1820,#1880,.T.);
#1920=ORIENTED_EDGE('',*,*,#1910,.T.);
#1930=CARTESIAN_POINT('',(-50.0000004014469,0.199999999347026,
-4.63802329875307E-11));
#1940=DIRECTION('',(-2.61596300177321E-14,1.,3.87673798972608E-12));
#1950=VECTOR('',#1940,1.);
#1960=LINE('',#1930,#1950);
#1970=EDGE_CURVE('',#1150,#1900,#1960,.T.);
#1980=ORIENTED_EDGE('',*,*,#1970,.T.);
#1990=EDGE_LOOP('',(#1980,#1920,#1840,#1760,#1680,#1600,#1520,#1440,
#1350,#1270,#1190));
#2000=FACE_OUTER_BOUND('',#1990,.T.);
#2010=ADVANCED_FACE('',(#2000),#1090,.F.);
#2020=COLOUR_RGB('',0.560784339904785,0.588235318660736,
0.600000023841858);
#2030=FILL_AREA_STYLE_COLOUR('',#2020);
#2040=FILL_AREA_STYLE('',(#2030));
#2050=SURFACE_STYLE_FILL_AREA(#2040);
#2060=SURFACE_SIDE_STYLE('',(#2050));
#2070=SURFACE_STYLE_USAGE(.BOTH.,#2060);
#2080=PRESENTATION_STYLE_ASSIGNMENT((#2070));
#2090=CARTESIAN_POINT('',(14.669982704043,0.199999999334992,
2.20000000153547));
#2100=DIRECTION('',(-2.60624855867776E-14,1.,3.87665299652572E-12));
#2110=DIRECTION('',(1.,2.60624855030756E-14,2.15913190465249E-11));
#2120=AXIS2_PLACEMENT_3D('',#2090,#2100,#2110);
#2130=PLANE('',#2120);
#2140=ORIENTED_EDGE('',*,*,#930,.F.);
#2150=CARTESIAN_POINT('',(14.669982704043,0.199999999334992,
2.20000000153547));
#2160=DIRECTION('',(2.15913190465248E-11,3.87665299652629E-12,-1.));
#2170=VECTOR('',#2160,1.);
#2180=LINE('',#2150,#2170);
#2190=EDGE_CURVE('',#860,#1170,#2180,.T.);
#2200=ORIENTED_EDGE('',*,*,#2190,.F.);
#2210=ORIENTED_EDGE('',*,*,#1180,.T.);
#2220=CARTESIAN_POINT('',(-50.000000401542,0.199999999333306,
2.20000000013916));
#2230=DIRECTION('',(2.15913190465248E-11,3.87665299652629E-12,-1.));
#2240=VECTOR('',#2230,1.);
#2250=LINE('',#2220,#2240);
#2260=EDGE_CURVE('',#110,#1150,#2250,.T.);
#2270=ORIENTED_EDGE('',*,*,#2260,.T.);
#2280=EDGE_LOOP('',(#2270,#2210,#2200,#2140));
#2290=FACE_OUTER_BOUND('',#2280,.T.);
#2300=ADVANCED_FACE('',(#2290),#2130,.F.);
#2310=COLOUR_RGB('',0.560784339904785,0.588235318660736,
0.600000023841858);
#2320=FILL_AREA_STYLE_COLOUR('',#2310);
#2330=FILL_AREA_STYLE('',(#2320));
#2340=SURFACE_STYLE_FILL_AREA(#2330);
#2350=SURFACE_SIDE_STYLE('',(#2340));
#2360=SURFACE_STYLE_USAGE(.BOTH.,#2350);
#2370=PRESENTATION_STYLE_ASSIGNMENT((#2360));
#2380=CARTESIAN_POINT('',(20.9999995984398,3.19999999931574,
2.20000000168377));
#2390=DIRECTION('',(-0.42826950062757,0.903651058114919,
-5.74376184369038E-12));
#2400=DIRECTION('',(0.903651058114919,0.42826950062757,
2.11712705454177E-11));
#2410=AXIS2_PLACEMENT_3D('',#2380,#2390,#2400);
#2420=PLANE('',#2410);
#2430=ORIENTED_EDGE('',*,*,#870,.F.);
#2440=CARTESIAN_POINT('',(20.9999995984397,3.19999999931574,
2.20000000168377));
#2450=DIRECTION('',(2.15913190465248E-11,3.87665299652629E-12,-1.));
#2460=VECTOR('',#2450,1.);
#2470=LINE('',#2440,#2460);
#2480=EDGE_CURVE('',#780,#1250,#2470,.T.);
#2490=ORIENTED_EDGE('',*,*,#2480,.F.);
#2500=ORIENTED_EDGE('',*,*,#1260,.T.);
#2510=ORIENTED_EDGE('',*,*,#2190,.T.);
#2520=EDGE_LOOP('',(#2510,#2500,#2490,#2430));
#2530=FACE_OUTER_BOUND('',#2520,.T.);
#2540=ADVANCED_FACE('',(#2530),#2420,.F.);
#2550=COLOUR_RGB('',0.560784339904785,0.588235318660736,
0.600000023841858);
#2560=FILL_AREA_STYLE_COLOUR('',#2550);
#2570=FILL_AREA_STYLE('',(#2560));
#2580=SURFACE_STYLE_FILL_AREA(#2570);
#2590=SURFACE_SIDE_STYLE('',(#2580));
#2600=SURFACE_STYLE_USAGE(.BOTH.,#2590);
#2610=PRESENTATION_STYLE_ASSIGNMENT((#2600));
#2620=CARTESIAN_POINT('',(20.9999995984398,5.19999999865406,
2.20000000169152));
#2630=DIRECTION('',(-1.,8.37020516806656E-23,-2.15913190465248E-11));
#2640=DIRECTION('',(0.,1.,3.87665299652629E-12));
#2650=AXIS2_PLACEMENT_3D('',#2620,#2630,#2640);
#2660=PLANE('',#2650);
#2670=ORIENTED_EDGE('',*,*,#790,.T.);
#2680=CARTESIAN_POINT('',(20.9999995984128,5.19999999872286,
2.20000000303897));
#2690=DIRECTION('',(4.31825756069518E-11,3.8767379897272E-12,-1.));
#2700=VECTOR('',#2690,1.);
#2710=LINE('',#2680,#2700);
#2720=EDGE_CURVE('',#700,#1330,#2710,.T.);
#2730=ORIENTED_EDGE('',*,*,#2720,.F.);
#2740=ORIENTED_EDGE('',*,*,#1340,.F.);
#2750=ORIENTED_EDGE('',*,*,#2480,.T.);
#2760=EDGE_LOOP('',(#2750,#2740,#2730,#2670));
#2770=FACE_OUTER_BOUND('',#2760,.T.);
#2780=ADVANCED_FACE('',(#2770),#2660,.F.);
#2790=COLOUR_RGB('',0.560784339904785,0.588235318660736,
0.600000023841858);
#2800=FILL_AREA_STYLE_COLOUR('',#2790);
#2810=FILL_AREA_STYLE('',(#2800));
#2820=SURFACE_STYLE_FILL_AREA(#2810);
#2830=SURFACE_SIDE_STYLE('',(#2820));
#2840=SURFACE_STYLE_USAGE(.BOTH.,#2830);
#2850=PRESENTATION_STYLE_ASSIGNMENT((#2840));
#2860=CARTESIAN_POINT('',(34.7477266833053,11.1999999986653,
2.20000000365589));
#2870=DIRECTION('',(-4.31825756069518E-11,-3.8767379897272E-12,1.));
#2880=DIRECTION('',(-1.,-2.61596299340284E-14,-4.31825756069519E-11));
#2890=AXIS2_PLACEMENT_3D('',#2860,#2870,#2880);
#2900=CYLINDRICAL_SURFACE('',#2890,14.9999999999999);
#2910=ORIENTED_EDGE('',*,*,#710,.T.);
#2920=CARTESIAN_POINT('',(20.9999995984128,17.1999999986078,
2.20000000308549));
#2930=DIRECTION('',(4.31825756069518E-11,3.8767379897272E-12,-1.));
#2940=VECTOR('',#2930,1.);
#2950=LINE('',#2920,#2940);
#2960=EDGE_CURVE('',#610,#1420,#2950,.T.);
#2970=ORIENTED_EDGE('',*,*,#2960,.F.);
#2980=ORIENTED_EDGE('',*,*,#1430,.F.);
#2990=ORIENTED_EDGE('',*,*,#2720,.T.);
#3000=EDGE_LOOP('',(#2990,#2980,#2970,#2910));
#3010=FACE_OUTER_BOUND('',#3000,.T.);
#3020=ADVANCED_FACE('',(#3010),#2900,.F.);
#3030=COLOUR_RGB('',0.560784339904785,0.588235318660736,
0.600000023841858);
#3040=FILL_AREA_STYLE_COLOUR('',#3030);
#3050=FILL_AREA_STYLE('',(#3040));
#3060=SURFACE_STYLE_FILL_AREA(#3050);
#3070=SURFACE_SIDE_STYLE('',(#3060));
#3080=SURFACE_STYLE_USAGE(.BOTH.,#3070);
#3090=PRESENTATION_STYLE_ASSIGNMENT((#3080));
#3100=CARTESIAN_POINT('',(20.9999995984398,21.9871090210898,
2.2000000017566));
#3110=DIRECTION('',(-1.,8.37020516806656E-23,-2.15913190465248E-11));
#3120=DIRECTION('',(0.,1.,3.87665299652629E-12));
#3130=AXIS2_PLACEMENT_3D('',#3100,#3110,#3120);
#3140=PLANE('',#3130);
#3150=ORIENTED_EDGE('',*,*,#620,.T.);
#3160=CARTESIAN_POINT('',(20.9999995984398,21.9871090210898,
2.2000000017566));
#3170=DIRECTION('',(2.15913190465248E-11,3.87665299652629E-12,-1.));
#3180=VECTOR('',#3170,1.);
#3190=LINE('',#3160,#3180);
#3200=EDGE_CURVE('',#530,#1500,#3190,.T.);
#3210=ORIENTED_EDGE('',*,*,#3200,.F.);
#3220=ORIENTED_EDGE('',*,*,#1510,.F.);
#3230=ORIENTED_EDGE('',*,*,#2960,.T.);
#3240=EDGE_LOOP('',(#3230,#3220,#3210,#3150));
#3250=FACE_OUTER_BOUND('',#3240,.T.);
#3260=ADVANCED_FACE('',(#3250),#3140,.F.);
#3270=COLOUR_RGB('',0.560784339904785,0.588235318660736,
0.600000023841858);
#3280=FILL_AREA_STYLE_COLOUR('',#3270);
#3290=FILL_AREA_STYLE('',(#3280));
#3300=SURFACE_STYLE_FILL_AREA(#3290);
#3310=SURFACE_SIDE_STYLE('',(#3300));
#3320=SURFACE_STYLE_USAGE(.BOTH.,#3310);
#3330=PRESENTATION_STYLE_ASSIGNMENT((#3320));
#3340=CARTESIAN_POINT('',(19.7193559610309,29.2499999993179,
2.20000000175711));
#3350=DIRECTION('',(-0.984807753012135,-0.173648177667345,
-2.19364721230717E-11));
#3360=DIRECTION('',(-0.173648177667345,0.984807753012135,
6.84647208535482E-14));
#3370=AXIS2_PLACEMENT_3D('',#3340,#3350,#3360);
#3380=PLANE('',#3370);
#3390=ORIENTED_EDGE('',*,*,#540,.F.);
#3400=CARTESIAN_POINT('',(19.7193559610309,29.2499999993179,
2.20000000175711));
#3410=DIRECTION('',(2.15913190465248E-11,3.87665299652629E-12,-1.));
#3420=VECTOR('',#3410,1.);
#3430=LINE('',#3400,#3420);
#3440=EDGE_CURVE('',#450,#1580,#3430,.T.);
#3450=ORIENTED_EDGE('',*,*,#3440,.F.);
#3460=ORIENTED_EDGE('',*,*,#1590,.T.);
#3470=ORIENTED_EDGE('',*,*,#3200,.T.);
#3480=EDGE_LOOP('',(#3470,#3460,#3450,#3390));
#3490=FACE_OUTER_BOUND('',#3480,.T.);
#3500=ADVANCED_FACE('',(#3490),#3380,.F.);
#3510=COLOUR_RGB('',0.560784339904785,0.588235318660736,
0.600000023841858);
#3520=FILL_AREA_STYLE_COLOUR('',#3510);
#3530=FILL_AREA_STYLE('',(#3520));
#3540=SURFACE_STYLE_FILL_AREA(#3530);
#3550=SURFACE_SIDE_STYLE('',(#3540));
#3560=SURFACE_STYLE_USAGE(.BOTH.,#3550);
#3570=PRESENTATION_STYLE_ASSIGNMENT((#3560));
#3580=CARTESIAN_POINT('',(-34.7993325307199,29.2499999994878,
2.20000000057998));
#3590=DIRECTION('',(-3.11628500773665E-12,-1.,-3.87665299659357E-12));
#3600=DIRECTION('',(-1.,3.11628500782035E-12,-2.15913190465128E-11));
#3610=AXIS2_PLACEMENT_3D('',#3580,#3590,#3600);
#3620=PLANE('',#3610);
#3630=ORIENTED_EDGE('',*,*,#460,.F.);
#3640=CARTESIAN_POINT('',(-34.7993325307199,29.2499999994878,
2.20000000057998));
#3650=DIRECTION('',(2.15913190465248E-11,3.87665299652629E-12,-1.));
#3660=VECTOR('',#3650,1.);
#3670=LINE('',#3640,#3660);
#3680=EDGE_CURVE('',#370,#1660,#3670,.T.);
#3690=ORIENTED_EDGE('',*,*,#3680,.F.);
#3700=ORIENTED_EDGE('',*,*,#1670,.T.);
#3710=ORIENTED_EDGE('',*,*,#3440,.T.);
#3720=EDGE_LOOP('',(#3710,#3700,#3690,#3630));
#3730=FACE_OUTER_BOUND('',#3720,.T.);
#3740=ADVANCED_FACE('',(#3730),#3620,.F.);
#3750=COLOUR_RGB('',0.560784339904785,0.588235318660736,
0.600000023841858);
#3760=FILL_AREA_STYLE_COLOUR('',#3750);
#3770=FILL_AREA_STYLE('',(#3760));
#3780=SURFACE_STYLE_FILL_AREA(#3770);
#3790=SURFACE_SIDE_STYLE('',(#3780));
#3800=SURFACE_STYLE_USAGE(.BOTH.,#3790);
#3810=PRESENTATION_STYLE_ASSIGNMENT((#3800));
#3820=CARTESIAN_POINT('',(-34.7993325307199,35.2499999993368,
2.20000000060324));
#3830=DIRECTION('',(-1.,-1.04083400188403E-15,-2.15913190465248E-11));
#3840=DIRECTION('',(-1.04083408558608E-15,1.,3.87665299652626E-12));
#3850=AXIS2_PLACEMENT_3D('',#3820,#3830,#3840);
#3860=PLANE('',#3850);
#3870=ORIENTED_EDGE('',*,*,#1750,.F.);
#3880=ORIENTED_EDGE('',*,*,#3680,.T.);
#3890=ORIENTED_EDGE('',*,*,#380,.T.);
#3900=CARTESIAN_POINT('',(-34.7993325307199,35.2499999993368,
2.20000000060324));
#3910=DIRECTION('',(2.15913190465248E-11,3.87665299652629E-12,-1.));
#3920=VECTOR('',#3910,1.);
#3930=LINE('',#3900,#3920);
#3940=EDGE_CURVE('',#290,#1740,#3930,.T.);
#3950=ORIENTED_EDGE('',*,*,#3940,.F.);
#3960=EDGE_LOOP('',(#3950,#3890,#3880,#3870));
#3970=FACE_OUTER_BOUND('',#3960,.T.);
#3980=ADVANCED_FACE('',(#3970),#3860,.F.);
#3990=COLOUR_RGB('',0.560784339904785,0.588235318660736,
0.600000023841858);
#4000=FILL_AREA_STYLE_COLOUR('',#3990);
#4010=FILL_AREA_STYLE('',(#4000));
#4020=SURFACE_STYLE_FILL_AREA(#4010);
#4030=SURFACE_SIDE_STYLE('',(#4020));
#4040=SURFACE_STYLE_USAGE(.BOTH.,#4030);
#4050=PRESENTATION_STYLE_ASSIGNMENT((#4040));
#4060=CARTESIAN_POINT('',(-41.8000004016823,35.2499999993368,
2.20000000045208));
#4070=DIRECTION('',(-3.05311248069866E-16,-1.,-3.87665299652629E-12));
#4080=DIRECTION('',(-1.,3.05311331771918E-16,-2.15913190465248E-11));
#4090=AXIS2_PLACEMENT_3D('',#4060,#4070,#4080);
#4100=PLANE('',#4090);
#4110=ORIENTED_EDGE('',*,*,#300,.F.);
#4120=CARTESIAN_POINT('',(-41.8000004016823,35.2499999993368,
2.20000000045208));
#4130=DIRECTION('',(2.15913190465248E-11,3.87665299652629E-12,-1.));
#4140=VECTOR('',#4130,1.);
#4150=LINE('',#4120,#4140);
#4160=EDGE_CURVE('',#210,#1820,#4150,.T.);
#4170=ORIENTED_EDGE('',*,*,#4160,.F.);
#4180=ORIENTED_EDGE('',*,*,#1830,.T.);
#4190=ORIENTED_EDGE('',*,*,#3940,.T.);
#4200=EDGE_LOOP('',(#4190,#4180,#4170,#4110));
#4210=FACE_OUTER_BOUND('',#4200,.T.);
#4220=ADVANCED_FACE('',(#4210),#4100,.F.);
#4230=COLOUR_RGB('',0.560784339904785,0.588235318660736,
0.600000023841858);
#4240=FILL_AREA_STYLE_COLOUR('',#4230);
#4250=FILL_AREA_STYLE('',(#4240));
#4260=SURFACE_STYLE_FILL_AREA(#4250);
#4270=SURFACE_SIDE_STYLE('',(#4260));
#4280=SURFACE_STYLE_USAGE(.BOTH.,#4270);
#4290=PRESENTATION_STYLE_ASSIGNMENT((#4280));
#4300=CARTESIAN_POINT('',(-50.000000401542,27.0499999993869,
2.20000000024325));
#4310=DIRECTION('',(0.707106781190436,-0.707106781182659,
1.25261604905081E-11));
#4320=DIRECTION('',(-0.707106781182659,-0.707106781190436,
-1.8008575734642E-11));
#4330=AXIS2_PLACEMENT_3D('',#4300,#4310,#4320);
#4340=PLANE('',#4330);
#4350=ORIENTED_EDGE('',*,*,#220,.T.);
#4360=CARTESIAN_POINT('',(-50.000000401542,27.0499999993869,
2.20000000024325));
#4370=DIRECTION('',(2.15913190465248E-11,3.87665299652629E-12,-1.));
#4380=VECTOR('',#4370,1.);
#4390=LINE('',#4360,#4380);
#4400=EDGE_CURVE('',#130,#1900,#4390,.T.);
#4410=ORIENTED_EDGE('',*,*,#4400,.F.);
#4420=ORIENTED_EDGE('',*,*,#1910,.F.);
#4430=ORIENTED_EDGE('',*,*,#4160,.T.);
#4440=EDGE_LOOP('',(#4430,#4420,#4410,#4350));
#4450=FACE_OUTER_BOUND('',#4440,.T.);
#4460=ADVANCED_FACE('',(#4450),#4340,.F.);
#4470=COLOUR_RGB('',0.560784339904785,0.588235318660736,
0.600000023841858);
#4480=FILL_AREA_STYLE_COLOUR('',#4470);
#4490=FILL_AREA_STYLE('',(#4480));
#4500=SURFACE_STYLE_FILL_AREA(#4490);
#4510=SURFACE_SIDE_STYLE('',(#4500));
#4520=SURFACE_STYLE_USAGE(.BOTH.,#4510);
#4530=PRESENTATION_STYLE_ASSIGNMENT((#4520));
#4540=CARTESIAN_POINT('',(-50.000000401542,0.1999999993333,
2.20000000013916));
#4550=DIRECTION('',(1.,-8.37020516806656E-23,2.15913190465248E-11));
#4560=DIRECTION('',(0.,-1.,-3.87665299652629E-12));
#4570=AXIS2_PLACEMENT_3D('',#4540,#4550,#4560);
#4580=PLANE('',#4570);
#4590=ORIENTED_EDGE('',*,*,#140,.T.);
#4600=ORIENTED_EDGE('',*,*,#2260,.F.);
#4610=ORIENTED_EDGE('',*,*,#1970,.F.);
#4620=ORIENTED_EDGE('',*,*,#4400,.T.);
#4630=EDGE_LOOP('',(#4620,#4610,#4600,#4590));
#4640=FACE_OUTER_BOUND('',#4630,.T.);
#4650=ADVANCED_FACE('',(#4640),#4580,.F.);
#4660=COLOUR_RGB('',0.560784339904785,0.588235318660736,
0.600000023841858);
#4670=FILL_AREA_STYLE_COLOUR('',#4660);
#4680=FILL_AREA_STYLE('',(#4670));
#4690=SURFACE_STYLE_FILL_AREA(#4680);
#4700=SURFACE_SIDE_STYLE('',(#4690));
#4710=SURFACE_STYLE_USAGE(.BOTH.,#4700);
#4720=PRESENTATION_STYLE_ASSIGNMENT((#4710));
#4730=CLOSED_SHELL('',(#2300,#2540,#2780,#3020,#3260,#3500,#3740,#3980,
#4220,#4460,#4650,#970,#2010));
#4740=MANIFOLD_SOLID_BREP('',#4730);
#4750=CARTESIAN_POINT('',(0.,0.,0.));
#4760=DIRECTION('',(0.,0.,1.));
#4770=DIRECTION('',(1.,0.,0.));
#4780=AXIS2_PLACEMENT_3D('',#4750,#4760,#4770);
#4790=APPLICATION_CONTEXT(' ');
#4800=APPLICATION_PROTOCOL_DEFINITION(' ','automotive_design',1998,#4790
);
#4810=PRODUCT_CONTEXT('',#4790,'mechanical');
#4820=PRODUCT_DEFINITION_CONTEXT('part definition',#4790,'design');
#4830=PRODUCT('D_PTU_4_MT-select','D_PTU_4_MT-select','',(#4810));
#4840=PRODUCT_RELATED_PRODUCT_CATEGORY('part',' ',(#4830));
#4850=PRODUCT_DEFINITION_FORMATION_WITH_SPECIFIED_SOURCE('','',#4830,
.BOUGHT.);
#4860=PRODUCT_DEFINITION('',' ',#4850,#4820);
#4870=PRODUCT_DEFINITION_SHAPE('','',#4860);
#4880=DIMENSIONAL_EXPONENTS(1.,0.,0.,0.,0.,0.,0.);
#4890=DIMENSIONAL_EXPONENTS(0.,0.,0.,0.,0.,0.,0.);
#4900=DIMENSIONAL_EXPONENTS(0.,0.,0.,0.,0.,0.,0.);
#4910=(LENGTH_UNIT() NAMED_UNIT(*) SI_UNIT(.MILLI.,.METRE.));
#4920=(NAMED_UNIT(*) PLANE_ANGLE_UNIT() SI_UNIT($,.RADIAN.));
#4930=(NAMED_UNIT(*) SI_UNIT($,.STERADIAN.) SOLID_ANGLE_UNIT());
#4940=(GEOMETRIC_REPRESENTATION_CONTEXT(3) 
GLOBAL_UNCERTAINTY_ASSIGNED_CONTEXT((#4950)) 
GLOBAL_UNIT_ASSIGNED_CONTEXT((#4910,#4920,#4930)) REPRESENTATION_CONTEXT
('',''));
#4950=UNCERTAINTY_MEASURE_WITH_UNIT(LENGTH_MEASURE(1.E-6),#4910,
'distance_accuracy_value','maximum gap value');
#4960=ADVANCED_BREP_SHAPE_REPRESENTATION('',(#4780,#4740),#4940);
#4970=SHAPE_DEFINITION_REPRESENTATION(#4870,#4960);
#4980=COLOUR_RGB('',0.560784339904785,0.588235318660736,
0.600000023841858);
#4990=FILL_AREA_STYLE_COLOUR('',#4980);
#5000=FILL_AREA_STYLE('',(#4990));
#5010=SURFACE_STYLE_FILL_AREA(#5000);
#5020=SURFACE_SIDE_STYLE('',(#5010));
#5030=SURFACE_STYLE_USAGE(.BOTH.,#5020);
#5040=PRESENTATION_STYLE_ASSIGNMENT((#5030));
#5050=STYLED_ITEM('',(#5040),#4740);
#5060=OVER_RIDING_STYLED_ITEM('',(#1040),#970,#5050);
#5070=OVER_RIDING_STYLED_ITEM('',(#2080),#2010,#5050);
#5080=OVER_RIDING_STYLED_ITEM('',(#2370),#2300,#5050);
#5090=OVER_RIDING_STYLED_ITEM('',(#2610),#2540,#5050);
#5100=OVER_RIDING_STYLED_ITEM('',(#2850),#2780,#5050);
#5110=OVER_RIDING_STYLED_ITEM('',(#3090),#3020,#5050);
#5120=OVER_RIDING_STYLED_ITEM('',(#3330),#3260,#5050);
#5130=OVER_RIDING_STYLED_ITEM('',(#3570),#3500,#5050);
#5140=OVER_RIDING_STYLED_ITEM('',(#3810),#3740,#5050);
#5150=OVER_RIDING_STYLED_ITEM('',(#4050),#3980,#5050);
#5160=OVER_RIDING_STYLED_ITEM('',(#4290),#4220,#5050);
#5170=OVER_RIDING_STYLED_ITEM('',(#4530),#4460,#5050);
#5180=OVER_RIDING_STYLED_ITEM('',(#4720),#4650,#5050);
#5190=DRAUGHTING_MODEL('',(#5050,#5060,#5070,#5080,#5090,#5100,#5110,
#5120,#5130,#5140,#5150,#5160,#5170,#5180),#4940);
#5200=CARTESIAN_POINT('',(-2.11197415111997E-9,50.000000401472,
-0.199999999343415));
#5210=DIRECTION('',(1.,4.31824910864672E-11,3.87673798972608E-12));
#5220=DIRECTION('',(-4.31824910864671E-11,1.,-2.60624855030756E-14));
#5230=AXIS2_PLACEMENT_3D('',#5200,#5210,#5220);
#5240=ITEM_DEFINED_TRANSFORMATION('D_PTU_4_MT-select','',#4780,#5230);
#5250=APPLICATION_CONTEXT(' ');
#5260=APPLICATION_PROTOCOL_DEFINITION(' ','automotive_design',1998,#5250
);
#5270=PRODUCT_CONTEXT('',#5250,'mechanical');
#5280=PRODUCT_DEFINITION_CONTEXT('part definition',#5250,'design');
#5290=PRODUCT('D_PTU_4_MT-select','D_PTU_4_MT-select','',(#5270));
#5300=PRODUCT_RELATED_PRODUCT_CATEGORY('part',' ',(#5290));
#5310=PRODUCT_DEFINITION_FORMATION_WITH_SPECIFIED_SOURCE('','',#5290,
.BOUGHT.);
#5320=PRODUCT_DEFINITION('',' ',#5310,#5280);
#5330=PRODUCT_DEFINITION_SHAPE('','',#5320);
#5340=DIMENSIONAL_EXPONENTS(1.,0.,0.,0.,0.,0.,0.);
#5350=DIMENSIONAL_EXPONENTS(0.,0.,0.,0.,0.,0.,0.);
#5360=DIMENSIONAL_EXPONENTS(0.,0.,0.,0.,0.,0.,0.);
#5370=(LENGTH_UNIT() NAMED_UNIT(*) SI_UNIT(.MILLI.,.METRE.));
#5380=(NAMED_UNIT(*) PLANE_ANGLE_UNIT() SI_UNIT($,.RADIAN.));
#5390=(NAMED_UNIT(*) SI_UNIT($,.STERADIAN.) SOLID_ANGLE_UNIT());
#5400=(GEOMETRIC_REPRESENTATION_CONTEXT(3) 
GLOBAL_UNCERTAINTY_ASSIGNED_CONTEXT((#5410)) 
GLOBAL_UNIT_ASSIGNED_CONTEXT((#5370,#5380,#5390)) REPRESENTATION_CONTEXT
('',''));
#5410=UNCERTAINTY_MEASURE_WITH_UNIT(LENGTH_MEASURE(1.E-6),#5370,
'distance_accuracy_value','maximum gap value');
#5420=SHAPE_REPRESENTATION('',(#4780,#5230),#5400);
#5430=SHAPE_DEFINITION_REPRESENTATION(#5330,#5420);
#5440=(REPRESENTATION_RELATIONSHIP('','',#4960,#5420) 
REPRESENTATION_RELATIONSHIP_WITH_TRANSFORMATION(#5240) 
SHAPE_REPRESENTATION_RELATIONSHIP());
#5450=NEXT_ASSEMBLY_USAGE_OCCURRENCE('1','','D_PTU_4_MT-select',#5320,
#4860,'');
#5460=PRODUCT_DEFINITION_SHAPE('','',#5450);
#5470=CONTEXT_DEPENDENT_SHAPE_REPRESENTATION(#5440,#5460);
ENDSEC;
END-ISO-10303-21;
