ISO-10303-21;
HEADER;
FILE_DESCRIPTION(('Creo Elements/Direct Modeling STEP Export'),'2;1');
FILE_NAME(
'D:/temp/JobSpoolerServerData/JobServer Files/0af24efc-70d4-458b-9adb-7e
79fdcf7ab2/work/output/model.stp','2017-11-17T 8:27:45',(''),(''),
'Creo Elements/Direct Modeling STEP processor for AP214 (Solid Model)',
'Creo Elements/Direct Modeling 18.1I  14-Aug-2016 (C) Parametric Technol
ogy GmbH','');
FILE_SCHEMA(('AUTOMOTIVE_DESIGN { 1 0 10303 214 1 1 1 1 }'));
ENDSEC;
DATA;
#10=CARTESIAN_POINT('',(-47.1999999999999,-5.05000000000033,
0.999999999999993));
#20=DIRECTION('',(-1.,0.,0.));
#30=DIRECTION('',(0.,1.,0.));
#40=AXIS2_PLACEMENT_3D('',#10,#20,#30);
#50=PLANE('',#40);
#60=CARTESIAN_POINT('',(-47.1999999999999,-8.75000000000003,
0.999999999999993));
#70=DIRECTION('',(0.,1.,0.));
#80=VECTOR('',#70,1.);
#90=LINE('',#60,#80);
#100=CARTESIAN_POINT('',(-47.1999999999999,-9.05000000000033,
0.999999999999993));
#110=VERTEX_POINT('',#100);
#120=CARTESIAN_POINT('',(-47.1999999999999,-1.05000000000138,
0.999999999999993));
#130=VERTEX_POINT('',#120);
#140=EDGE_CURVE('',#110,#130,#90,.T.);
#150=ORIENTED_EDGE('',*,*,#140,.F.);
#160=CARTESIAN_POINT('',(-47.1999999999999,-1.05000000000135,
0.999999999999993));
#170=DIRECTION('',(0.,0.,-1.));
#180=VECTOR('',#170,1.);
#190=LINE('',#160,#180);
#200=CARTESIAN_POINT('',(-47.1999999999999,-1.05000000000135,3.2));
#210=VERTEX_POINT('',#200);
#220=EDGE_CURVE('',#210,#130,#190,.T.);
#230=ORIENTED_EDGE('',*,*,#220,.T.);
#240=CARTESIAN_POINT('',(-47.1999999999999,-8.75000000000003,3.2));
#250=DIRECTION('',(0.,1.,0.));
#260=VECTOR('',#250,1.);
#270=LINE('',#240,#260);
#280=CARTESIAN_POINT('',(-47.1999999999999,-9.05000000000033,3.2));
#290=VERTEX_POINT('',#280);
#300=EDGE_CURVE('',#290,#210,#270,.T.);
#310=ORIENTED_EDGE('',*,*,#300,.T.);
#320=CARTESIAN_POINT('',(-47.1999999999999,-9.05000000000033,
0.999999999999993));
#330=DIRECTION('',(0.,0.,-1.));
#340=VECTOR('',#330,1.);
#350=LINE('',#320,#340);
#360=EDGE_CURVE('',#290,#110,#350,.T.);
#370=ORIENTED_EDGE('',*,*,#360,.F.);
#380=EDGE_LOOP('',(#370,#310,#230,#150));
#390=FACE_OUTER_BOUND('',#380,.T.);
#400=ADVANCED_FACE('',(#390),#50,.T.);
#410=COLOUR_RGB('',0.560784339904785,0.588235318660736,0.600000023841858
);
#420=FILL_AREA_STYLE_COLOUR('',#410);
#430=FILL_AREA_STYLE('',(#420));
#440=SURFACE_STYLE_FILL_AREA(#430);
#450=SURFACE_SIDE_STYLE('',(#440));
#460=SURFACE_STYLE_USAGE(.BOTH.,#450);
#470=PRESENTATION_STYLE_ASSIGNMENT((#460));
#480=CARTESIAN_POINT('',(-13.9999999982608,-8.55000000000033,
0.999999999999993));
#490=DIRECTION('',(0.,0.,-1.));
#500=DIRECTION('',(-1.,0.,0.));
#510=AXIS2_PLACEMENT_3D('',#480,#490,#500);
#520=PLANE('',#510);
#530=CARTESIAN_POINT('',(-18.024193656789,19.9999999998155,
0.999999999999993));
#540=DIRECTION('',(-1.,0.,0.));
#550=VECTOR('',#540,1.);
#560=LINE('',#530,#550);
#570=CARTESIAN_POINT('',(17.9193563662149,19.9999999998155,
0.999999999999993));
#580=VERTEX_POINT('',#570);
#590=CARTESIAN_POINT('',(-45.9193563627401,19.9999999998155,
0.999999999999993));
#600=VERTEX_POINT('',#590);
#610=EDGE_CURVE('',#580,#600,#560,.T.);
#620=ORIENTED_EDGE('',*,*,#610,.F.);
#630=CARTESIAN_POINT('',(-50.9887570580759,-8.75000000000003,
0.999999999999993));
#640=DIRECTION('',(0.17364817766693,0.984807753012208,0.));
#650=VECTOR('',#640,1.);
#660=LINE('',#630,#650);
#670=CARTESIAN_POINT('',(-47.1999999999999,12.7371090224148,
0.999999999999993));
#680=VERTEX_POINT('',#670);
#690=EDGE_CURVE('',#680,#600,#660,.T.);
#700=ORIENTED_EDGE('',*,*,#690,.T.);
#710=CARTESIAN_POINT('',(-47.1999999999999,-8.75000000000003,
0.999999999999993));
#720=DIRECTION('',(0.,1.,0.));
#730=VECTOR('',#720,1.);
#740=LINE('',#710,#730);
#750=CARTESIAN_POINT('',(-47.1999999999999,7.94999999999874,
0.999999999999993));
#760=VERTEX_POINT('',#750);
#770=EDGE_CURVE('',#760,#680,#740,.T.);
#780=ORIENTED_EDGE('',*,*,#770,.T.);
#790=CARTESIAN_POINT('',(-61.5090880212541,3.44999999999869,
0.999999999999993));
#800=DIRECTION('',(0.,0.,1.));
#810=DIRECTION('',(1.,0.,0.));
#820=AXIS2_PLACEMENT_3D('',#790,#800,#810);
#830=CIRCLE('',#820,15.);
#840=EDGE_CURVE('',#130,#760,#830,.T.);
#850=ORIENTED_EDGE('',*,*,#840,.T.);
#860=ORIENTED_EDGE('',*,*,#140,.T.);
#870=CARTESIAN_POINT('',(-18.024193656789,-9.05000000000033,
0.999999999999993));
#880=DIRECTION('',(-1.,0.,0.));
#890=VECTOR('',#880,1.);
#900=LINE('',#870,#890);
#910=CARTESIAN_POINT('',(12.908770501965,-9.05000000000033,
0.999999999999993));
#920=VERTEX_POINT('',#910);
#930=EDGE_CURVE('',#920,#110,#900,.T.);
#940=ORIENTED_EDGE('',*,*,#930,.T.);
#950=CARTESIAN_POINT('',(-18.024193656789,-24.4693254368286,
0.999999999999993));
#960=DIRECTION('',(0.894972271448765,0.446121769630039,0.));
#970=VECTOR('',#960,1.);
#980=LINE('',#950,#970);
#990=CARTESIAN_POINT('',(19.2000000034816,-5.91397609411782,
0.999999999999993));
#1000=VERTEX_POINT('',#990);
#1010=EDGE_CURVE('',#920,#1000,#980,.T.);
#1020=ORIENTED_EDGE('',*,*,#1010,.F.);
#1030=CARTESIAN_POINT('',(19.2000000034816,-8.75000000000003,
0.999999999999993));
#1040=DIRECTION('',(0.,1.,0.));
#1050=VECTOR('',#1040,1.);
#1060=LINE('',#1030,#1050);
#1070=CARTESIAN_POINT('',(19.2000000034816,-4.05000000003221,
0.999999999999993));
#1080=VERTEX_POINT('',#1070);
#1090=EDGE_CURVE('',#1000,#1080,#1060,.T.);
#1100=ORIENTED_EDGE('',*,*,#1090,.F.);
#1110=CARTESIAN_POINT('',(32.9477270883492,1.94999999996775,
0.999999999999993));
#1120=DIRECTION('',(0.,0.,1.));
#1130=DIRECTION('',(1.,0.,0.));
#1140=AXIS2_PLACEMENT_3D('',#1110,#1120,#1130);
#1150=CIRCLE('',#1140,15.);
#1160=CARTESIAN_POINT('',(19.2000000034803,7.94999999996481,
0.999999999999993));
#1170=VERTEX_POINT('',#1160);
#1180=EDGE_CURVE('',#1170,#1080,#1150,.T.);
#1190=ORIENTED_EDGE('',*,*,#1180,.T.);
#1200=CARTESIAN_POINT('',(19.2000000034803,-8.75000000000003,
0.999999999999993));
#1210=DIRECTION('',(0.,1.,0.));
#1220=VECTOR('',#1210,1.);
#1230=LINE('',#1200,#1220);
#1240=CARTESIAN_POINT('',(19.2000000034803,12.7371090223834,
0.999999999999993));
#1250=VERTEX_POINT('',#1240);
#1260=EDGE_CURVE('',#1170,#1250,#1230,.T.);
#1270=ORIENTED_EDGE('',*,*,#1260,.F.);
#1280=CARTESIAN_POINT('',(22.9887570615508,-8.75000000000003,
0.999999999999993));
#1290=DIRECTION('',(0.17364817766693,-0.984807753012208,0.));
#1300=VECTOR('',#1290,1.);
#1310=LINE('',#1280,#1300);
#1320=EDGE_CURVE('',#580,#1250,#1310,.T.);
#1330=ORIENTED_EDGE('',*,*,#1320,.T.);
#1340=EDGE_LOOP('',(#1330,#1270,#1190,#1100,#1020,#940,#860,#850,#780,
#700,#620));
#1350=FACE_OUTER_BOUND('',#1340,.T.);
#1360=ADVANCED_FACE('',(#1350),#520,.T.);
#1370=COLOUR_RGB('',0.560784339904785,0.588235318660736,
0.600000023841858);
#1380=FILL_AREA_STYLE_COLOUR('',#1370);
#1390=FILL_AREA_STYLE('',(#1380));
#1400=SURFACE_STYLE_FILL_AREA(#1390);
#1410=SURFACE_SIDE_STYLE('',(#1400));
#1420=SURFACE_STYLE_USAGE(.BOTH.,#1410);
#1430=PRESENTATION_STYLE_ASSIGNMENT((#1420));
#1440=CARTESIAN_POINT('',(12.908770501965,-9.05000000000033,
0.999999999999993));
#1450=DIRECTION('',(-0.,-1.,-0.));
#1460=DIRECTION('',(-1.,0.,0.));
#1470=AXIS2_PLACEMENT_3D('',#1440,#1450,#1460);
#1480=PLANE('',#1470);
#1490=CARTESIAN_POINT('',(12.908770501965,-9.05000000000033,
0.999999999999993));
#1500=DIRECTION('',(0.,0.,1.));
#1510=VECTOR('',#1500,1.);
#1520=LINE('',#1490,#1510);
#1530=CARTESIAN_POINT('',(12.908770501965,-9.05000000000033,3.2));
#1540=VERTEX_POINT('',#1530);
#1550=EDGE_CURVE('',#920,#1540,#1520,.T.);
#1560=ORIENTED_EDGE('',*,*,#1550,.T.);
#1570=ORIENTED_EDGE('',*,*,#930,.F.);
#1580=ORIENTED_EDGE('',*,*,#360,.T.);
#1590=CARTESIAN_POINT('',(-18.024193656789,-9.05000000000033,3.2));
#1600=DIRECTION('',(-1.,0.,0.));
#1610=VECTOR('',#1600,1.);
#1620=LINE('',#1590,#1610);
#1630=EDGE_CURVE('',#1540,#290,#1620,.T.);
#1640=ORIENTED_EDGE('',*,*,#1630,.T.);
#1650=EDGE_LOOP('',(#1640,#1580,#1570,#1560));
#1660=FACE_OUTER_BOUND('',#1650,.T.);
#1670=ADVANCED_FACE('',(#1660),#1480,.T.);
#1680=COLOUR_RGB('',0.560784339904785,0.588235318660736,
0.600000023841858);
#1690=FILL_AREA_STYLE_COLOUR('',#1680);
#1700=FILL_AREA_STYLE('',(#1690));
#1710=SURFACE_STYLE_FILL_AREA(#1700);
#1720=SURFACE_SIDE_STYLE('',(#1710));
#1730=SURFACE_STYLE_USAGE(.BOTH.,#1720);
#1740=PRESENTATION_STYLE_ASSIGNMENT((#1730));
#1750=CARTESIAN_POINT('',(19.2000000034803,-5.91397609411845,
0.999999999999993));
#1760=DIRECTION('',(0.446121769630039,-0.894972271448765,0.));
#1770=DIRECTION('',(-0.894972271448765,-0.446121769630039,0.));
#1780=AXIS2_PLACEMENT_3D('',#1750,#1760,#1770);
#1790=PLANE('',#1780);
#1800=CARTESIAN_POINT('',(19.2000000034816,-5.91397609411782,
0.999999999999993));
#1810=DIRECTION('',(0.,0.,1.));
#1820=VECTOR('',#1810,1.);
#1830=LINE('',#1800,#1820);
#1840=CARTESIAN_POINT('',(19.2000000034816,-5.91397609411782,3.2));
#1850=VERTEX_POINT('',#1840);
#1860=EDGE_CURVE('',#1000,#1850,#1830,.T.);
#1870=ORIENTED_EDGE('',*,*,#1860,.T.);
#1880=ORIENTED_EDGE('',*,*,#1010,.T.);
#1890=ORIENTED_EDGE('',*,*,#1550,.F.);
#1900=CARTESIAN_POINT('',(-18.024193656789,-24.4693254368286,3.2));
#1910=DIRECTION('',(0.894972271448765,0.446121769630039,0.));
#1920=VECTOR('',#1910,1.);
#1930=LINE('',#1900,#1920);
#1940=EDGE_CURVE('',#1540,#1850,#1930,.T.);
#1950=ORIENTED_EDGE('',*,*,#1940,.F.);
#1960=EDGE_LOOP('',(#1950,#1890,#1880,#1870));
#1970=FACE_OUTER_BOUND('',#1960,.T.);
#1980=ADVANCED_FACE('',(#1970),#1790,.T.);
#1990=COLOUR_RGB('',0.560784339904785,0.588235318660736,
0.600000023841858);
#2000=FILL_AREA_STYLE_COLOUR('',#1990);
#2010=FILL_AREA_STYLE('',(#2000));
#2020=SURFACE_STYLE_FILL_AREA(#2010);
#2030=SURFACE_SIDE_STYLE('',(#2020));
#2040=SURFACE_STYLE_USAGE(.BOTH.,#2030);
#2050=PRESENTATION_STYLE_ASSIGNMENT((#2040));
#2060=CARTESIAN_POINT('',(19.2000000034816,-4.45383413752596,
0.999999999999993));
#2070=DIRECTION('',(1.,0.,0.));
#2080=DIRECTION('',(0.,-1.,0.));
#2090=AXIS2_PLACEMENT_3D('',#2060,#2070,#2080);
#2100=PLANE('',#2090);
#2110=CARTESIAN_POINT('',(19.2000000034816,-4.05000000003221,
0.999999999999993));
#2120=DIRECTION('',(0.,0.,1.));
#2130=VECTOR('',#2120,1.);
#2140=LINE('',#2110,#2130);
#2150=CARTESIAN_POINT('',(19.2000000034816,-4.05000000003221,3.2));
#2160=VERTEX_POINT('',#2150);
#2170=EDGE_CURVE('',#1080,#2160,#2140,.T.);
#2180=ORIENTED_EDGE('',*,*,#2170,.T.);
#2190=ORIENTED_EDGE('',*,*,#1090,.T.);
#2200=ORIENTED_EDGE('',*,*,#1860,.F.);
#2210=CARTESIAN_POINT('',(19.2000000034816,-8.75000000000003,3.2));
#2220=DIRECTION('',(0.,1.,0.));
#2230=VECTOR('',#2220,1.);
#2240=LINE('',#2210,#2230);
#2250=EDGE_CURVE('',#1850,#2160,#2240,.T.);
#2260=ORIENTED_EDGE('',*,*,#2250,.F.);
#2270=EDGE_LOOP('',(#2260,#2200,#2190,#2180));
#2280=FACE_OUTER_BOUND('',#2270,.T.);
#2290=ADVANCED_FACE('',(#2280),#2100,.T.);
#2300=COLOUR_RGB('',0.560784339904785,0.588235318660736,
0.600000023841858);
#2310=FILL_AREA_STYLE_COLOUR('',#2300);
#2320=FILL_AREA_STYLE('',(#2310));
#2330=SURFACE_STYLE_FILL_AREA(#2320);
#2340=SURFACE_SIDE_STYLE('',(#2330));
#2350=SURFACE_STYLE_USAGE(.BOTH.,#2340);
#2360=PRESENTATION_STYLE_ASSIGNMENT((#2350));
#2370=CARTESIAN_POINT('',(-61.5090880212541,3.44999999999869,
0.999999999999993));
#2380=DIRECTION('',(0.,0.,1.));
#2390=DIRECTION('',(1.,0.,0.));
#2400=AXIS2_PLACEMENT_3D('',#2370,#2380,#2390);
#2410=CYLINDRICAL_SURFACE('',#2400,15.);
#2420=ORIENTED_EDGE('',*,*,#840,.F.);
#2430=CARTESIAN_POINT('',(-47.1999999999999,7.94999999999874,
0.999999999999993));
#2440=DIRECTION('',(0.,0.,1.));
#2450=VECTOR('',#2440,1.);
#2460=LINE('',#2430,#2450);
#2470=CARTESIAN_POINT('',(-47.1999999999999,7.94999999999874,3.2));
#2480=VERTEX_POINT('',#2470);
#2490=EDGE_CURVE('',#760,#2480,#2460,.T.);
#2500=ORIENTED_EDGE('',*,*,#2490,.F.);
#2510=CARTESIAN_POINT('',(-61.5090880212541,3.44999999999869,3.2));
#2520=DIRECTION('',(0.,0.,1.));
#2530=DIRECTION('',(1.,0.,0.));
#2540=AXIS2_PLACEMENT_3D('',#2510,#2520,#2530);
#2550=CIRCLE('',#2540,15.);
#2560=EDGE_CURVE('',#210,#2480,#2550,.T.);
#2570=ORIENTED_EDGE('',*,*,#2560,.T.);
#2580=ORIENTED_EDGE('',*,*,#220,.F.);
#2590=EDGE_LOOP('',(#2580,#2570,#2500,#2420));
#2600=FACE_OUTER_BOUND('',#2590,.T.);
#2610=ADVANCED_FACE('',(#2600),#2410,.F.);
#2620=COLOUR_RGB('',0.560784339904785,0.588235318660736,
0.600000023841858);
#2630=FILL_AREA_STYLE_COLOUR('',#2620);
#2640=FILL_AREA_STYLE('',(#2630));
#2650=SURFACE_STYLE_FILL_AREA(#2640);
#2660=SURFACE_SIDE_STYLE('',(#2650));
#2670=SURFACE_STYLE_USAGE(.BOTH.,#2660);
#2680=PRESENTATION_STYLE_ASSIGNMENT((#2670));
#2690=CARTESIAN_POINT('',(32.9477270883492,1.94999999996775,
0.999999999999993));
#2700=DIRECTION('',(0.,0.,1.));
#2710=DIRECTION('',(1.,0.,0.));
#2720=AXIS2_PLACEMENT_3D('',#2690,#2700,#2710);
#2730=CYLINDRICAL_SURFACE('',#2720,15.);
#2740=CARTESIAN_POINT('',(19.2000000034803,7.94999999996481,
0.999999999999993));
#2750=DIRECTION('',(0.,0.,1.));
#2760=VECTOR('',#2750,1.);
#2770=LINE('',#2740,#2760);
#2780=CARTESIAN_POINT('',(19.2000000034803,7.94999999996481,3.2));
#2790=VERTEX_POINT('',#2780);
#2800=EDGE_CURVE('',#1170,#2790,#2770,.T.);
#2810=ORIENTED_EDGE('',*,*,#2800,.T.);
#2820=ORIENTED_EDGE('',*,*,#1180,.F.);
#2830=ORIENTED_EDGE('',*,*,#2170,.F.);
#2840=CARTESIAN_POINT('',(32.9477270883492,1.94999999996775,3.2));
#2850=DIRECTION('',(0.,0.,1.));
#2860=DIRECTION('',(1.,0.,0.));
#2870=AXIS2_PLACEMENT_3D('',#2840,#2850,#2860);
#2880=CIRCLE('',#2870,15.);
#2890=EDGE_CURVE('',#2790,#2160,#2880,.T.);
#2900=ORIENTED_EDGE('',*,*,#2890,.T.);
#2910=EDGE_LOOP('',(#2900,#2830,#2820,#2810));
#2920=FACE_OUTER_BOUND('',#2910,.T.);
#2930=ADVANCED_FACE('',(#2920),#2730,.F.);
#2940=COLOUR_RGB('',0.560784339904785,0.588235318660736,
0.600000023841858);
#2950=FILL_AREA_STYLE_COLOUR('',#2940);
#2960=FILL_AREA_STYLE('',(#2950));
#2970=SURFACE_STYLE_FILL_AREA(#2960);
#2980=SURFACE_SIDE_STYLE('',(#2970));
#2990=SURFACE_STYLE_USAGE(.BOTH.,#2980);
#3000=PRESENTATION_STYLE_ASSIGNMENT((#2990));
#3010=CARTESIAN_POINT('',(19.2000000034803,12.7371090223834,
0.999999999999993));
#3020=DIRECTION('',(1.,0.,0.));
#3030=DIRECTION('',(0.,-1.,0.));
#3040=AXIS2_PLACEMENT_3D('',#3010,#3020,#3030);
#3050=PLANE('',#3040);
#3060=CARTESIAN_POINT('',(19.2000000034803,12.7371090223834,
0.999999999999993));
#3070=DIRECTION('',(0.,0.,1.));
#3080=VECTOR('',#3070,1.);
#3090=LINE('',#3060,#3080);
#3100=CARTESIAN_POINT('',(19.2000000034803,12.7371090223834,3.2));
#3110=VERTEX_POINT('',#3100);
#3120=EDGE_CURVE('',#1250,#3110,#3090,.T.);
#3130=ORIENTED_EDGE('',*,*,#3120,.T.);
#3140=ORIENTED_EDGE('',*,*,#1260,.T.);
#3150=ORIENTED_EDGE('',*,*,#2800,.F.);
#3160=CARTESIAN_POINT('',(19.2000000034803,-8.75000000000003,3.2));
#3170=DIRECTION('',(0.,1.,0.));
#3180=VECTOR('',#3170,1.);
#3190=LINE('',#3160,#3180);
#3200=EDGE_CURVE('',#2790,#3110,#3190,.T.);
#3210=ORIENTED_EDGE('',*,*,#3200,.F.);
#3220=EDGE_LOOP('',(#3210,#3150,#3140,#3130));
#3230=FACE_OUTER_BOUND('',#3220,.T.);
#3240=ADVANCED_FACE('',(#3230),#3050,.T.);
#3250=COLOUR_RGB('',0.560784339904785,0.588235318660736,
0.600000023841858);
#3260=FILL_AREA_STYLE_COLOUR('',#3250);
#3270=FILL_AREA_STYLE('',(#3260));
#3280=SURFACE_STYLE_FILL_AREA(#3270);
#3290=SURFACE_SIDE_STYLE('',(#3280));
#3300=SURFACE_STYLE_USAGE(.BOTH.,#3290);
#3310=PRESENTATION_STYLE_ASSIGNMENT((#3300));
#3320=CARTESIAN_POINT('',(17.9193563662149,19.9999999998155,
0.999999999999993));
#3330=DIRECTION('',(0.984807753012208,0.17364817766693,0.));
#3340=DIRECTION('',(0.17364817766693,-0.984807753012208,0.));
#3350=AXIS2_PLACEMENT_3D('',#3320,#3330,#3340);
#3360=PLANE('',#3350);
#3370=CARTESIAN_POINT('',(17.9193563662149,19.9999999998155,
0.999999999999993));
#3380=DIRECTION('',(0.,0.,1.));
#3390=VECTOR('',#3380,1.);
#3400=LINE('',#3370,#3390);
#3410=CARTESIAN_POINT('',(17.9193563662149,19.9999999998155,3.2));
#3420=VERTEX_POINT('',#3410);
#3430=EDGE_CURVE('',#580,#3420,#3400,.T.);
#3440=ORIENTED_EDGE('',*,*,#3430,.T.);
#3450=ORIENTED_EDGE('',*,*,#1320,.F.);
#3460=ORIENTED_EDGE('',*,*,#3120,.F.);
#3470=CARTESIAN_POINT('',(22.9887570615508,-8.75000000000003,3.2));
#3480=DIRECTION('',(0.17364817766693,-0.984807753012208,0.));
#3490=VECTOR('',#3480,1.);
#3500=LINE('',#3470,#3490);
#3510=EDGE_CURVE('',#3420,#3110,#3500,.T.);
#3520=ORIENTED_EDGE('',*,*,#3510,.T.);
#3530=EDGE_LOOP('',(#3520,#3460,#3450,#3440));
#3540=FACE_OUTER_BOUND('',#3530,.T.);
#3550=ADVANCED_FACE('',(#3540),#3360,.T.);
#3560=COLOUR_RGB('',0.560784339904785,0.588235318660736,
0.600000023841858);
#3570=FILL_AREA_STYLE_COLOUR('',#3560);
#3580=FILL_AREA_STYLE('',(#3570));
#3590=SURFACE_STYLE_FILL_AREA(#3580);
#3600=SURFACE_SIDE_STYLE('',(#3590));
#3610=SURFACE_STYLE_USAGE(.BOTH.,#3600);
#3620=PRESENTATION_STYLE_ASSIGNMENT((#3610));
#3630=CARTESIAN_POINT('',(14.908411778324,-7.93195999985282,3.2));
#3640=DIRECTION('',(0.,0.,-1.));
#3650=DIRECTION('',(-1.,0.,0.));
#3660=AXIS2_PLACEMENT_3D('',#3630,#3640,#3650);
#3670=PLANE('',#3660);
#3680=ORIENTED_EDGE('',*,*,#3510,.F.);
#3690=ORIENTED_EDGE('',*,*,#3200,.T.);
#3700=ORIENTED_EDGE('',*,*,#2890,.F.);
#3710=ORIENTED_EDGE('',*,*,#2250,.T.);
#3720=ORIENTED_EDGE('',*,*,#1940,.T.);
#3730=ORIENTED_EDGE('',*,*,#1630,.F.);
#3740=ORIENTED_EDGE('',*,*,#300,.F.);
#3750=ORIENTED_EDGE('',*,*,#2560,.F.);
#3760=CARTESIAN_POINT('',(-47.1999999999999,-8.75000000000003,3.2));
#3770=DIRECTION('',(0.,1.,0.));
#3780=VECTOR('',#3770,1.);
#3790=LINE('',#3760,#3780);
#3800=CARTESIAN_POINT('',(-47.1999999999999,12.7371090224148,3.2));
#3810=VERTEX_POINT('',#3800);
#3820=EDGE_CURVE('',#2480,#3810,#3790,.T.);
#3830=ORIENTED_EDGE('',*,*,#3820,.F.);
#3840=CARTESIAN_POINT('',(-50.9887570580759,-8.75000000000003,3.2));
#3850=DIRECTION('',(0.17364817766693,0.984807753012208,0.));
#3860=VECTOR('',#3850,1.);
#3870=LINE('',#3840,#3860);
#3880=CARTESIAN_POINT('',(-45.9193563627401,19.9999999998155,3.2));
#3890=VERTEX_POINT('',#3880);
#3900=EDGE_CURVE('',#3810,#3890,#3870,.T.);
#3910=ORIENTED_EDGE('',*,*,#3900,.F.);
#3920=CARTESIAN_POINT('',(-18.024193656789,19.9999999998155,3.2));
#3930=DIRECTION('',(1.,0.,0.));
#3940=VECTOR('',#3930,1.);
#3950=LINE('',#3920,#3940);
#3960=EDGE_CURVE('',#3890,#3420,#3950,.T.);
#3970=ORIENTED_EDGE('',*,*,#3960,.F.);
#3980=EDGE_LOOP('',(#3970,#3910,#3830,#3750,#3740,#3730,#3720,#3710,
#3700,#3690,#3680));
#3990=FACE_OUTER_BOUND('',#3980,.T.);
#4000=ADVANCED_FACE('',(#3990),#3670,.F.);
#4010=COLOUR_RGB('',0.560784339904785,0.588235318660736,
0.600000023841858);
#4020=FILL_AREA_STYLE_COLOUR('',#4010);
#4030=FILL_AREA_STYLE('',(#4020));
#4040=SURFACE_STYLE_FILL_AREA(#4030);
#4050=SURFACE_SIDE_STYLE('',(#4040));
#4060=SURFACE_STYLE_USAGE(.BOTH.,#4050);
#4070=PRESENTATION_STYLE_ASSIGNMENT((#4060));
#4080=CARTESIAN_POINT('',(-47.1999999999999,12.7371090224148,
0.999999999999993));
#4090=DIRECTION('',(-0.984807753012208,0.17364817766693,0.));
#4100=DIRECTION('',(0.17364817766693,0.984807753012208,0.));
#4110=AXIS2_PLACEMENT_3D('',#4080,#4090,#4100);
#4120=PLANE('',#4110);
#4130=CARTESIAN_POINT('',(-47.1999999999999,12.7371090224148,
0.999999999999993));
#4140=DIRECTION('',(0.,0.,1.));
#4150=VECTOR('',#4140,1.);
#4160=LINE('',#4130,#4150);
#4170=EDGE_CURVE('',#680,#3810,#4160,.T.);
#4180=ORIENTED_EDGE('',*,*,#4170,.T.);
#4190=ORIENTED_EDGE('',*,*,#690,.F.);
#4200=CARTESIAN_POINT('',(-45.9193563627401,19.9999999998155,
0.999999999999993));
#4210=DIRECTION('',(0.,0.,1.));
#4220=VECTOR('',#4210,1.);
#4230=LINE('',#4200,#4220);
#4240=EDGE_CURVE('',#600,#3890,#4230,.T.);
#4250=ORIENTED_EDGE('',*,*,#4240,.F.);
#4260=ORIENTED_EDGE('',*,*,#3900,.T.);
#4270=EDGE_LOOP('',(#4260,#4250,#4190,#4180));
#4280=FACE_OUTER_BOUND('',#4270,.T.);
#4290=ADVANCED_FACE('',(#4280),#4120,.T.);
#4300=COLOUR_RGB('',0.560784339904785,0.588235318660736,
0.600000023841858);
#4310=FILL_AREA_STYLE_COLOUR('',#4300);
#4320=FILL_AREA_STYLE('',(#4310));
#4330=SURFACE_STYLE_FILL_AREA(#4320);
#4340=SURFACE_SIDE_STYLE('',(#4330));
#4350=SURFACE_STYLE_USAGE(.BOTH.,#4340);
#4360=PRESENTATION_STYLE_ASSIGNMENT((#4350));
#4370=CARTESIAN_POINT('',(-47.1999999999999,7.94999999999874,
0.999999999999993));
#4380=DIRECTION('',(-1.,0.,0.));
#4390=DIRECTION('',(0.,1.,0.));
#4400=AXIS2_PLACEMENT_3D('',#4370,#4380,#4390);
#4410=PLANE('',#4400);
#4420=ORIENTED_EDGE('',*,*,#2490,.T.);
#4430=ORIENTED_EDGE('',*,*,#770,.F.);
#4440=ORIENTED_EDGE('',*,*,#4170,.F.);
#4450=ORIENTED_EDGE('',*,*,#3820,.T.);
#4460=EDGE_LOOP('',(#4450,#4440,#4430,#4420));
#4470=FACE_OUTER_BOUND('',#4460,.T.);
#4480=ADVANCED_FACE('',(#4470),#4410,.T.);
#4490=COLOUR_RGB('',0.560784339904785,0.588235318660736,
0.600000023841858);
#4500=FILL_AREA_STYLE_COLOUR('',#4490);
#4510=FILL_AREA_STYLE('',(#4500));
#4520=SURFACE_STYLE_FILL_AREA(#4510);
#4530=SURFACE_SIDE_STYLE('',(#4520));
#4540=SURFACE_STYLE_USAGE(.BOTH.,#4530);
#4550=PRESENTATION_STYLE_ASSIGNMENT((#4540));
#4560=CARTESIAN_POINT('',(-45.9193563627401,19.9999999998155,
0.999999999999993));
#4570=DIRECTION('',(-0.,1.,0.));
#4580=DIRECTION('',(1.,0.,0.));
#4590=AXIS2_PLACEMENT_3D('',#4560,#4570,#4580);
#4600=PLANE('',#4590);
#4610=ORIENTED_EDGE('',*,*,#3960,.T.);
#4620=ORIENTED_EDGE('',*,*,#4240,.T.);
#4630=ORIENTED_EDGE('',*,*,#610,.T.);
#4640=ORIENTED_EDGE('',*,*,#3430,.F.);
#4650=EDGE_LOOP('',(#4640,#4630,#4620,#4610));
#4660=FACE_OUTER_BOUND('',#4650,.T.);
#4670=ADVANCED_FACE('',(#4660),#4600,.T.);
#4680=COLOUR_RGB('',0.560784339904785,0.588235318660736,
0.600000023841858);
#4690=FILL_AREA_STYLE_COLOUR('',#4680);
#4700=FILL_AREA_STYLE('',(#4690));
#4710=SURFACE_STYLE_FILL_AREA(#4700);
#4720=SURFACE_SIDE_STYLE('',(#4710));
#4730=SURFACE_STYLE_USAGE(.BOTH.,#4720);
#4740=PRESENTATION_STYLE_ASSIGNMENT((#4730));
#4750=CLOSED_SHELL('',(#400,#1360,#1670,#1980,#2290,#2610,#2930,#3240,
#3550,#4000,#4290,#4480,#4670));
#4760=MANIFOLD_SOLID_BREP('',#4750);
#4770=CARTESIAN_POINT('',(0.,0.,0.));
#4780=DIRECTION('',(0.,0.,1.));
#4790=DIRECTION('',(1.,0.,0.));
#4800=AXIS2_PLACEMENT_3D('',#4770,#4780,#4790);
#4810=APPLICATION_CONTEXT(' ');
#4820=APPLICATION_PROTOCOL_DEFINITION(' ','automotive_design',1998,#4810
);
#4830=PRODUCT_CONTEXT('',#4810,'mechanical');
#4840=PRODUCT_DEFINITION_CONTEXT('part definition',#4810,'design');
#4850=PRODUCT('D-PT_4-TWIN-select','D-PT_4-TWIN-select','',(#4830));
#4860=PRODUCT_RELATED_PRODUCT_CATEGORY('part',' ',(#4850));
#4870=PRODUCT_DEFINITION_FORMATION_WITH_SPECIFIED_SOURCE('','',#4850,
.BOUGHT.);
#4880=PRODUCT_DEFINITION('',' ',#4870,#4840);
#4890=PRODUCT_DEFINITION_SHAPE('','',#4880);
#4900=DIMENSIONAL_EXPONENTS(1.,0.,0.,0.,0.,0.,0.);
#4910=DIMENSIONAL_EXPONENTS(0.,0.,0.,0.,0.,0.,0.);
#4920=DIMENSIONAL_EXPONENTS(0.,0.,0.,0.,0.,0.,0.);
#4930=(LENGTH_UNIT() NAMED_UNIT(*) SI_UNIT(.MILLI.,.METRE.));
#4940=(NAMED_UNIT(*) PLANE_ANGLE_UNIT() SI_UNIT($,.RADIAN.));
#4950=(NAMED_UNIT(*) SI_UNIT($,.STERADIAN.) SOLID_ANGLE_UNIT());
#4960=(GEOMETRIC_REPRESENTATION_CONTEXT(3) 
GLOBAL_UNCERTAINTY_ASSIGNED_CONTEXT((#4970)) 
GLOBAL_UNIT_ASSIGNED_CONTEXT((#4930,#4940,#4950)) REPRESENTATION_CONTEXT
('',''));
#4970=UNCERTAINTY_MEASURE_WITH_UNIT(LENGTH_MEASURE(1.E-6),#4930,
'distance_accuracy_value','maximum gap value');
#4980=ADVANCED_BREP_SHAPE_REPRESENTATION('',(#4800,#4760),#4960);
#4990=SHAPE_DEFINITION_REPRESENTATION(#4890,#4980);
#5000=COLOUR_RGB('',0.560784339904785,0.588235318660736,
0.600000023841858);
#5010=FILL_AREA_STYLE_COLOUR('',#5000);
#5020=FILL_AREA_STYLE('',(#5010));
#5030=SURFACE_STYLE_FILL_AREA(#5020);
#5040=SURFACE_SIDE_STYLE('',(#5030));
#5050=SURFACE_STYLE_USAGE(.BOTH.,#5040);
#5060=PRESENTATION_STYLE_ASSIGNMENT((#5050));
#5070=STYLED_ITEM('',(#5060),#4760);
#5080=OVER_RIDING_STYLED_ITEM('',(#470),#400,#5070);
#5090=OVER_RIDING_STYLED_ITEM('',(#1430),#1360,#5070);
#5100=OVER_RIDING_STYLED_ITEM('',(#1740),#1670,#5070);
#5110=OVER_RIDING_STYLED_ITEM('',(#2050),#1980,#5070);
#5120=OVER_RIDING_STYLED_ITEM('',(#2360),#2290,#5070);
#5130=OVER_RIDING_STYLED_ITEM('',(#2680),#2610,#5070);
#5140=OVER_RIDING_STYLED_ITEM('',(#3000),#2930,#5070);
#5150=OVER_RIDING_STYLED_ITEM('',(#3310),#3240,#5070);
#5160=OVER_RIDING_STYLED_ITEM('',(#3620),#3550,#5070);
#5170=OVER_RIDING_STYLED_ITEM('',(#4070),#4000,#5070);
#5180=OVER_RIDING_STYLED_ITEM('',(#4360),#4290,#5070);
#5190=OVER_RIDING_STYLED_ITEM('',(#4550),#4480,#5070);
#5200=OVER_RIDING_STYLED_ITEM('',(#4740),#4670,#5070);
#5210=DRAUGHTING_MODEL('',(#5070,#5080,#5090,#5100,#5110,#5120,#5130,
#5140,#5150,#5160,#5170,#5180,#5190,#5200),#4960);
#5220=CARTESIAN_POINT('',(-1.,47.200000000058,9.05000000000034));
#5230=DIRECTION('',(1.,-4.93038065763132E-32,2.22044604925031E-16));
#5240=DIRECTION('',(0.,1.,2.22044604925031E-16));
#5250=AXIS2_PLACEMENT_3D('',#5220,#5230,#5240);
#5260=ITEM_DEFINED_TRANSFORMATION('D-PT_4-TWIN-select','',#4800,#5250);
#5270=APPLICATION_CONTEXT(' ');
#5280=APPLICATION_PROTOCOL_DEFINITION(' ','automotive_design',1998,#5270
);
#5290=PRODUCT_CONTEXT('',#5270,'mechanical');
#5300=PRODUCT_DEFINITION_CONTEXT('part definition',#5270,'design');
#5310=PRODUCT('D-PT_4-TWIN-select','D-PT_4-TWIN-select','',(#5290));
#5320=PRODUCT_RELATED_PRODUCT_CATEGORY('part',' ',(#5310));
#5330=PRODUCT_DEFINITION_FORMATION_WITH_SPECIFIED_SOURCE('','',#5310,
.BOUGHT.);
#5340=PRODUCT_DEFINITION('',' ',#5330,#5300);
#5350=PRODUCT_DEFINITION_SHAPE('','',#5340);
#5360=DIMENSIONAL_EXPONENTS(1.,0.,0.,0.,0.,0.,0.);
#5370=DIMENSIONAL_EXPONENTS(0.,0.,0.,0.,0.,0.,0.);
#5380=DIMENSIONAL_EXPONENTS(0.,0.,0.,0.,0.,0.,0.);
#5390=(LENGTH_UNIT() NAMED_UNIT(*) SI_UNIT(.MILLI.,.METRE.));
#5400=(NAMED_UNIT(*) PLANE_ANGLE_UNIT() SI_UNIT($,.RADIAN.));
#5410=(NAMED_UNIT(*) SI_UNIT($,.STERADIAN.) SOLID_ANGLE_UNIT());
#5420=(GEOMETRIC_REPRESENTATION_CONTEXT(3) 
GLOBAL_UNCERTAINTY_ASSIGNED_CONTEXT((#5430)) 
GLOBAL_UNIT_ASSIGNED_CONTEXT((#5390,#5400,#5410)) REPRESENTATION_CONTEXT
('',''));
#5430=UNCERTAINTY_MEASURE_WITH_UNIT(LENGTH_MEASURE(1.E-6),#5390,
'distance_accuracy_value','maximum gap value');
#5440=SHAPE_REPRESENTATION('',(#4800,#5250),#5420);
#5450=SHAPE_DEFINITION_REPRESENTATION(#5350,#5440);
#5460=(REPRESENTATION_RELATIONSHIP('','',#4980,#5440) 
REPRESENTATION_RELATIONSHIP_WITH_TRANSFORMATION(#5260) 
SHAPE_REPRESENTATION_RELATIONSHIP());
#5470=NEXT_ASSEMBLY_USAGE_OCCURRENCE('1','','D-PT_4-TWIN-select',#5340,
#4880,'');
#5480=PRODUCT_DEFINITION_SHAPE('','',#5470);
#5490=CONTEXT_DEPENDENT_SHAPE_REPRESENTATION(#5460,#5480);
ENDSEC;
END-ISO-10303-21;
