ISO-10303-21;
HEADER;
FILE_DESCRIPTION(('Creo Elements/Direct Modeling STEP Export'),'2;1');
FILE_NAME(
'C:/temp/JobSpoolerServerData/JobServer Files/acf37e04-36fd-4df0-895e-35
76d79d6384/work/output/model.stp','2019-02-27T 0:14:02',(''),(''),
'Creo Elements/Direct Modeling STEP processor for AP214 (Solid Model)',
'Creo Elements/Direct Modeling 20.1A  29-Sep-2018 (C) Parametric Technol
ogy GmbH','');
FILE_SCHEMA(('AUTOMOTIVE_DESIGN { 1 0 10303 214 1 1 1 1 }'));
ENDSEC;
DATA;
#10=CARTESIAN_POINT('',(-5.61597167625371,105.547305129908,
-32.1093324844086));
#20=DIRECTION('',(-0.899488395669469,0.042077814131751,
-0.434913880686577));
#30=DIRECTION('',(-0.128661159931098,-0.976729363512683,
0.171598532561597));
#40=AXIS2_PLACEMENT_3D('',#10,#20,#30);
#50=PLANE('',#40);
#60=CARTESIAN_POINT('',(122.909371259386,1.23837082703407,
-308.017165732896));
#70=DIRECTION('',(-0.899488395669469,0.042077814131751,
-0.434913880686577));
#80=DIRECTION('',(-0.128661159931098,-0.976729363512683,
0.171598532561597));
#90=AXIS2_PLACEMENT_3D('',#60,#70,#80);
#100=CIRCLE('',#90,6.3);
#110=CARTESIAN_POINT('',(122.098805951821,-4.91502416309583,
-306.936094977758));
#120=VERTEX_POINT('',#110);
#130=CARTESIAN_POINT('',(123.719936566952,7.39176581716398,
-309.098236488034));
#140=VERTEX_POINT('',#130);
#150=EDGE_CURVE('',#120,#140,#100,.T.);
#160=ORIENTED_EDGE('',*,*,#150,.T.);
#170=EDGE_CURVE('',#140,#120,#100,.T.);
#180=ORIENTED_EDGE('',*,*,#170,.T.);
#190=EDGE_LOOP('',(#180,#160));
#200=FACE_BOUND('',#190,.T.);
#210=CARTESIAN_POINT('',(118.534891821729,-31.9704275323971,
-302.182815625802));
#220=DIRECTION('',(-0.899488395669469,0.042077814131751,
-0.434913880686577));
#230=DIRECTION('',(-0.128661159931098,-0.976729363512683,
0.171598532561597));
#240=AXIS2_PLACEMENT_3D('',#210,#220,#230);
#250=CIRCLE('',#240,6.3);
#260=CARTESIAN_POINT('',(117.724326514163,-38.123822522527,
-301.101744870664));
#270=VERTEX_POINT('',#260);
#280=CARTESIAN_POINT('',(119.345457129295,-25.8170325422672,
-303.26388638094));
#290=VERTEX_POINT('',#280);
#300=EDGE_CURVE('',#270,#290,#250,.T.);
#310=ORIENTED_EDGE('',*,*,#300,.T.);
#320=EDGE_CURVE('',#290,#270,#250,.T.);
#330=ORIENTED_EDGE('',*,*,#320,.T.);
#340=EDGE_LOOP('',(#330,#310));
#350=FACE_BOUND('',#340,.T.);
#360=CARTESIAN_POINT('',(127.283850697044,34.4471691864653,
-313.85151583999));
#370=DIRECTION('',(-0.899488395669469,0.042077814131751,
-0.434913880686577));
#380=DIRECTION('',(-0.128661159931098,-0.976729363512683,
0.171598532561597));
#390=AXIS2_PLACEMENT_3D('',#360,#370,#380);
#400=CIRCLE('',#390,6.3);
#410=CARTESIAN_POINT('',(126.473285389478,28.2937741963354,
-312.770445084852));
#420=VERTEX_POINT('',#410);
#430=CARTESIAN_POINT('',(128.09441600461,40.6005641765952,
-314.932586595128));
#440=VERTEX_POINT('',#430);
#450=EDGE_CURVE('',#420,#440,#400,.T.);
#460=ORIENTED_EDGE('',*,*,#450,.T.);
#470=EDGE_CURVE('',#440,#420,#400,.T.);
#480=ORIENTED_EDGE('',*,*,#470,.T.);
#490=EDGE_LOOP('',(#480,#460));
#500=FACE_BOUND('',#490,.T.);
#510=CARTESIAN_POINT('',(111.513977248851,-43.0157959576704,
-288.730804812903));
#520=DIRECTION('',(0.417572666707424,-0.210307413112337,
-0.883970508562841));
#530=VECTOR('',#520,1.);
#540=LINE('',#510,#530);
#550=CARTESIAN_POINT('',(111.513977248851,-43.0157959576704,
-288.730804812903));
#560=VERTEX_POINT('',#550);
#570=CARTESIAN_POINT('',(121.953293916537,-48.273481285479,
-310.830067526975));
#580=VERTEX_POINT('',#570);
#590=EDGE_CURVE('',#560,#580,#540,.T.);
#600=ORIENTED_EDGE('',*,*,#590,.T.);
#610=CARTESIAN_POINT('',(122.578837002925,40.9829293044203,
-303.488278613201));
#620=DIRECTION('',(0.128661159931098,0.976729363512683,
-0.171598532561597));
#630=VECTOR('',#620,1.);
#640=LINE('',#610,#630);
#650=CARTESIAN_POINT('',(123.865448602236,50.7502229395471,
-305.204263938817));
#660=VERTEX_POINT('',#650);
#670=EDGE_CURVE('',#560,#660,#640,.T.);
#680=ORIENTED_EDGE('',*,*,#670,.F.);
#690=CARTESIAN_POINT('',(134.304765269922,45.4925376117386,
-327.303526652888));
#700=DIRECTION('',(-0.417572666707424,0.210307413112337,
0.883970508562841));
#710=VECTOR('',#700,1.);
#720=LINE('',#690,#710);
#730=CARTESIAN_POINT('',(134.304765269922,45.4925376117386,
-327.303526652888));
#740=VERTEX_POINT('',#730);
#750=EDGE_CURVE('',#740,#660,#720,.T.);
#760=ORIENTED_EDGE('',*,*,#750,.T.);
#770=CARTESIAN_POINT('',(133.018153670611,35.7252439766118,
-325.587541327272));
#780=DIRECTION('',(-0.128661159931098,-0.976729363512683,
0.171598532561597));
#790=VECTOR('',#780,1.);
#800=LINE('',#770,#790);
#810=EDGE_CURVE('',#740,#580,#800,.T.);
#820=ORIENTED_EDGE('',*,*,#810,.F.);
#830=EDGE_LOOP('',(#820,#760,#680,#600));
#840=FACE_OUTER_BOUND('',#830,.T.);
#850=ADVANCED_FACE('',(#200,#350,#500,#840),#50,.F.);
#860=COLOUR_RGB('',0.823529481887817,0.823529481887817,0.784313797950745
);
#870=FILL_AREA_STYLE_COLOUR('',#860);
#880=FILL_AREA_STYLE('',(#870));
#890=SURFACE_STYLE_FILL_AREA(#880);
#900=SURFACE_SIDE_STYLE('',(#890));
#910=SURFACE_STYLE_USAGE(.BOTH.,#900);
#920=PRESENTATION_STYLE_ASSIGNMENT((#910));
#930=CARTESIAN_POINT('',(-9.21392525893159,105.715616386435,
-33.8489880071549));
#940=DIRECTION('',(-0.899488395669469,0.042077814131751,
-0.434913880686577));
#950=DIRECTION('',(-0.128661159931098,-0.976729363512683,
0.171598532561597));
#960=AXIS2_PLACEMENT_3D('',#930,#940,#950);
#970=PLANE('',#960);
#980=CARTESIAN_POINT('',(119.311417676709,1.40668208356108,
-309.756821255642));
#990=DIRECTION('',(-0.899488395669469,0.042077814131751,
-0.434913880686577));
#1000=DIRECTION('',(-0.128661159931098,-0.976729363512683,
0.171598532561597));
#1010=AXIS2_PLACEMENT_3D('',#980,#990,#1000);
#1020=CIRCLE('',#1010,6.3);
#1030=CARTESIAN_POINT('',(118.500852369143,-4.74671290656882,
-308.675750500504));
#1040=VERTEX_POINT('',#1030);
#1050=CARTESIAN_POINT('',(120.121982984275,7.56007707369099,
-310.83789201078));
#1060=VERTEX_POINT('',#1050);
#1070=EDGE_CURVE('',#1040,#1060,#1020,.T.);
#1080=ORIENTED_EDGE('',*,*,#1070,.F.);
#1090=EDGE_CURVE('',#1060,#1040,#1020,.T.);
#1100=ORIENTED_EDGE('',*,*,#1090,.F.);
#1110=EDGE_LOOP('',(#1100,#1080));
#1120=FACE_BOUND('',#1110,.T.);
#1130=CARTESIAN_POINT('',(114.936938239051,-31.8021162758701,
-303.922471148548));
#1140=DIRECTION('',(-0.899488395669469,0.042077814131751,
-0.434913880686577));
#1150=DIRECTION('',(-0.128661159931098,-0.976729363512683,
0.171598532561597));
#1160=AXIS2_PLACEMENT_3D('',#1130,#1140,#1150);
#1170=CIRCLE('',#1160,6.3);
#1180=CARTESIAN_POINT('',(114.126372931485,-37.955511266,
-302.84140039341));
#1190=VERTEX_POINT('',#1180);
#1200=CARTESIAN_POINT('',(115.747503546617,-25.6487212857402,
-305.003541903686));
#1210=VERTEX_POINT('',#1200);
#1220=EDGE_CURVE('',#1190,#1210,#1170,.T.);
#1230=ORIENTED_EDGE('',*,*,#1220,.F.);
#1240=EDGE_CURVE('',#1210,#1190,#1170,.T.);
#1250=ORIENTED_EDGE('',*,*,#1240,.F.);
#1260=EDGE_LOOP('',(#1250,#1230));
#1270=FACE_BOUND('',#1260,.T.);
#1280=CARTESIAN_POINT('',(123.685897114366,34.6154804429923,
-315.591171362737));
#1290=DIRECTION('',(-0.899488395669469,0.042077814131751,
-0.434913880686577));
#1300=DIRECTION('',(-0.128661159931098,-0.976729363512683,
0.171598532561597));
#1310=AXIS2_PLACEMENT_3D('',#1280,#1290,#1300);
#1320=CIRCLE('',#1310,6.3);
#1330=CARTESIAN_POINT('',(122.8753318068,28.4620854528624,
-314.510100607598));
#1340=VERTEX_POINT('',#1330);
#1350=CARTESIAN_POINT('',(124.496462421932,40.7688754331222,
-316.672242117875));
#1360=VERTEX_POINT('',#1350);
#1370=EDGE_CURVE('',#1340,#1360,#1320,.T.);
#1380=ORIENTED_EDGE('',*,*,#1370,.F.);
#1390=EDGE_CURVE('',#1360,#1340,#1320,.T.);
#1400=ORIENTED_EDGE('',*,*,#1390,.F.);
#1410=EDGE_LOOP('',(#1400,#1380));
#1420=FACE_BOUND('',#1410,.T.);
#1430=CARTESIAN_POINT('',(-7.92731365962061,115.482910021561,
-35.5649733327709));
#1440=DIRECTION('',(-0.417572666707424,0.210307413112337,
0.883970508562841));
#1450=VECTOR('',#1440,1.);
#1460=LINE('',#1430,#1450);
#1470=CARTESIAN_POINT('',(130.706811687244,45.6608488682656,
-329.043182175635));
#1480=VERTEX_POINT('',#1470);
#1490=CARTESIAN_POINT('',(120.267495019558,50.9185341960741,
-306.943919461563));
#1500=VERTEX_POINT('',#1490);
#1510=EDGE_CURVE('',#1480,#1500,#1460,.T.);
#1520=ORIENTED_EDGE('',*,*,#1510,.F.);
#1530=CARTESIAN_POINT('',(118.980883420247,41.1512405609473,
-305.227934135947));
#1540=DIRECTION('',(0.128661159931098,0.976729363512683,
-0.171598532561597));
#1550=VECTOR('',#1540,1.);
#1560=LINE('',#1530,#1550);
#1570=CARTESIAN_POINT('',(107.916023666173,-42.8474847011434,
-290.47046033565));
#1580=VERTEX_POINT('',#1570);
#1590=EDGE_CURVE('',#1580,#1500,#1560,.T.);
#1600=ORIENTED_EDGE('',*,*,#1590,.T.);
#1610=CARTESIAN_POINT('',(-20.278785013006,21.7168911243439,
-19.0915142068575));
#1620=DIRECTION('',(0.417572666707424,-0.210307413112337,
-0.883970508562841));
#1630=VECTOR('',#1620,1.);
#1640=LINE('',#1610,#1630);
#1650=CARTESIAN_POINT('',(118.355340333859,-48.1051700289519,
-312.569723049721));
#1660=VERTEX_POINT('',#1650);
#1670=EDGE_CURVE('',#1580,#1660,#1640,.T.);
#1680=ORIENTED_EDGE('',*,*,#1670,.F.);
#1690=CARTESIAN_POINT('',(129.420200087933,35.8935552331388,
-327.327196850019));
#1700=DIRECTION('',(-0.128661159931098,-0.976729363512683,
0.171598532561597));
#1710=VECTOR('',#1700,1.);
#1720=LINE('',#1690,#1710);
#1730=EDGE_CURVE('',#1480,#1660,#1720,.T.);
#1740=ORIENTED_EDGE('',*,*,#1730,.T.);
#1750=EDGE_LOOP('',(#1740,#1680,#1600,#1520));
#1760=FACE_OUTER_BOUND('',#1750,.T.);
#1770=ADVANCED_FACE('',(#1120,#1270,#1420,#1760),#970,.T.);
#1780=COLOUR_RGB('',0.823529481887817,0.823529481887817,
0.784313797950745);
#1790=FILL_AREA_STYLE_COLOUR('',#1780);
#1800=FILL_AREA_STYLE('',(#1790));
#1810=SURFACE_STYLE_FILL_AREA(#1800);
#1820=SURFACE_SIDE_STYLE('',(#1810));
#1830=SURFACE_STYLE_USAGE(.BOTH.,#1820);
#1840=PRESENTATION_STYLE_ASSIGNMENT((#1830));
#1850=CARTESIAN_POINT('',(118.534891821729,-31.9704275323971,
-302.182815625802));
#1860=DIRECTION('',(-0.899488395669469,0.042077814131751,
-0.434913880686577));
#1870=DIRECTION('',(-0.128661159931098,-0.976729363512683,
0.171598532561597));
#1880=AXIS2_PLACEMENT_3D('',#1850,#1860,#1870);
#1890=CYLINDRICAL_SURFACE('',#1880,6.3);
#1900=CARTESIAN_POINT('',(119.345457129295,-25.8170325422672,
-303.26388638094));
#1910=DIRECTION('',(-0.899488395669469,0.042077814131751,
-0.434913880686577));
#1920=VECTOR('',#1910,1.);
#1930=LINE('',#1900,#1920);
#1940=EDGE_CURVE('',#290,#1210,#1930,.T.);
#1950=ORIENTED_EDGE('',*,*,#1940,.T.);
#1960=ORIENTED_EDGE('',*,*,#320,.F.);
#1970=CARTESIAN_POINT('',(117.724326514163,-38.123822522527,
-301.101744870664));
#1980=DIRECTION('',(-0.899488395669469,0.042077814131751,
-0.434913880686577));
#1990=VECTOR('',#1980,1.);
#2000=LINE('',#1970,#1990);
#2010=EDGE_CURVE('',#270,#1190,#2000,.T.);
#2020=ORIENTED_EDGE('',*,*,#2010,.F.);
#2030=ORIENTED_EDGE('',*,*,#1240,.T.);
#2040=EDGE_LOOP('',(#2030,#2020,#1960,#1950));
#2050=FACE_OUTER_BOUND('',#2040,.T.);
#2060=ADVANCED_FACE('',(#2050),#1890,.F.);
#2070=COLOUR_RGB('',0.823529481887817,0.823529481887817,
0.784313797950745);
#2080=FILL_AREA_STYLE_COLOUR('',#2070);
#2090=FILL_AREA_STYLE('',(#2080));
#2100=SURFACE_STYLE_FILL_AREA(#2090);
#2110=SURFACE_SIDE_STYLE('',(#2100));
#2120=SURFACE_STYLE_USAGE(.BOTH.,#2110);
#2130=PRESENTATION_STYLE_ASSIGNMENT((#2120));
#2140=CARTESIAN_POINT('',(118.534891821729,-31.9704275323971,
-302.182815625802));
#2150=DIRECTION('',(-0.899488395669469,0.042077814131751,
-0.434913880686577));
#2160=DIRECTION('',(-0.128661159931098,-0.976729363512683,
0.171598532561597));
#2170=AXIS2_PLACEMENT_3D('',#2140,#2150,#2160);
#2180=CYLINDRICAL_SURFACE('',#2170,6.3);
#2190=ORIENTED_EDGE('',*,*,#300,.F.);
#2200=ORIENTED_EDGE('',*,*,#1940,.F.);
#2210=ORIENTED_EDGE('',*,*,#1220,.T.);
#2220=ORIENTED_EDGE('',*,*,#2010,.T.);
#2230=EDGE_LOOP('',(#2220,#2210,#2200,#2190));
#2240=FACE_OUTER_BOUND('',#2230,.T.);
#2250=ADVANCED_FACE('',(#2240),#2180,.F.);
#2260=COLOUR_RGB('',0.823529481887817,0.823529481887817,
0.784313797950745);
#2270=FILL_AREA_STYLE_COLOUR('',#2260);
#2280=FILL_AREA_STYLE('',(#2270));
#2290=SURFACE_STYLE_FILL_AREA(#2280);
#2300=SURFACE_SIDE_STYLE('',(#2290));
#2310=SURFACE_STYLE_USAGE(.BOTH.,#2300);
#2320=PRESENTATION_STYLE_ASSIGNMENT((#2310));
#2330=CARTESIAN_POINT('',(123.865448602236,50.7502229395471,
-305.204263938817));
#2340=DIRECTION('',(-0.417572666707423,0.210307413112337,
0.883970508562841));
#2350=DIRECTION('',(0.899488395669469,-0.042077814131751,
0.434913880686577));
#2360=AXIS2_PLACEMENT_3D('',#2330,#2340,#2350);
#2370=PLANE('',#2360);
#2380=CARTESIAN_POINT('',(123.865448602236,50.7502229395471,
-305.204263938817));
#2390=DIRECTION('',(-0.899488395669469,0.042077814131751,
-0.434913880686577));
#2400=VECTOR('',#2390,1.);
#2410=LINE('',#2380,#2400);
#2420=EDGE_CURVE('',#660,#1500,#2410,.T.);
#2430=ORIENTED_EDGE('',*,*,#2420,.T.);
#2440=ORIENTED_EDGE('',*,*,#670,.T.);
#2450=CARTESIAN_POINT('',(111.513977248851,-43.0157959576704,
-288.730804812903));
#2460=DIRECTION('',(-0.899488395669469,0.042077814131751,
-0.434913880686577));
#2470=VECTOR('',#2460,1.);
#2480=LINE('',#2450,#2470);
#2490=EDGE_CURVE('',#560,#1580,#2480,.T.);
#2500=ORIENTED_EDGE('',*,*,#2490,.F.);
#2510=ORIENTED_EDGE('',*,*,#1590,.F.);
#2520=EDGE_LOOP('',(#2510,#2500,#2440,#2430));
#2530=FACE_OUTER_BOUND('',#2520,.T.);
#2540=ADVANCED_FACE('',(#2530),#2370,.T.);
#2550=COLOUR_RGB('',0.823529481887817,0.823529481887817,
0.784313797950745);
#2560=FILL_AREA_STYLE_COLOUR('',#2550);
#2570=FILL_AREA_STYLE('',(#2560));
#2580=SURFACE_STYLE_FILL_AREA(#2570);
#2590=SURFACE_SIDE_STYLE('',(#2580));
#2600=SURFACE_STYLE_USAGE(.BOTH.,#2590);
#2610=PRESENTATION_STYLE_ASSIGNMENT((#2600));
#2620=CARTESIAN_POINT('',(134.304765269922,45.4925376117386,
-327.303526652888));
#2630=DIRECTION('',(0.128661159931098,0.976729363512683,
-0.171598532561597));
#2640=DIRECTION('',(-0.417572666707424,0.210307413112337,
0.883970508562841));
#2650=AXIS2_PLACEMENT_3D('',#2620,#2630,#2640);
#2660=PLANE('',#2650);
#2670=CARTESIAN_POINT('',(134.304765269922,45.4925376117386,
-327.303526652888));
#2680=DIRECTION('',(-0.899488395669469,0.042077814131751,
-0.434913880686577));
#2690=VECTOR('',#2680,1.);
#2700=LINE('',#2670,#2690);
#2710=EDGE_CURVE('',#740,#1480,#2700,.T.);
#2720=ORIENTED_EDGE('',*,*,#2710,.T.);
#2730=ORIENTED_EDGE('',*,*,#750,.F.);
#2740=ORIENTED_EDGE('',*,*,#2420,.F.);
#2750=ORIENTED_EDGE('',*,*,#1510,.T.);
#2760=EDGE_LOOP('',(#2750,#2740,#2730,#2720));
#2770=FACE_OUTER_BOUND('',#2760,.T.);
#2780=ADVANCED_FACE('',(#2770),#2660,.T.);
#2790=COLOUR_RGB('',0.823529481887817,0.823529481887817,
0.784313797950745);
#2800=FILL_AREA_STYLE_COLOUR('',#2790);
#2810=FILL_AREA_STYLE('',(#2800));
#2820=SURFACE_STYLE_FILL_AREA(#2810);
#2830=SURFACE_SIDE_STYLE('',(#2820));
#2840=SURFACE_STYLE_USAGE(.BOTH.,#2830);
#2850=PRESENTATION_STYLE_ASSIGNMENT((#2840));
#2860=CARTESIAN_POINT('',(121.953293916537,-48.273481285479,
-310.830067526975));
#2870=DIRECTION('',(0.417572666707423,-0.210307413112337,
-0.883970508562841));
#2880=DIRECTION('',(-0.899488395669469,0.042077814131751,
-0.434913880686577));
#2890=AXIS2_PLACEMENT_3D('',#2860,#2870,#2880);
#2900=PLANE('',#2890);
#2910=CARTESIAN_POINT('',(121.953293916537,-48.273481285479,
-310.830067526975));
#2920=DIRECTION('',(-0.899488395669469,0.042077814131751,
-0.434913880686577));
#2930=VECTOR('',#2920,1.);
#2940=LINE('',#2910,#2930);
#2950=EDGE_CURVE('',#580,#1660,#2940,.T.);
#2960=ORIENTED_EDGE('',*,*,#2950,.T.);
#2970=ORIENTED_EDGE('',*,*,#810,.T.);
#2980=ORIENTED_EDGE('',*,*,#2710,.F.);
#2990=ORIENTED_EDGE('',*,*,#1730,.F.);
#3000=EDGE_LOOP('',(#2990,#2980,#2970,#2960));
#3010=FACE_OUTER_BOUND('',#3000,.T.);
#3020=ADVANCED_FACE('',(#3010),#2900,.T.);
#3030=COLOUR_RGB('',0.823529481887817,0.823529481887817,
0.784313797950745);
#3040=FILL_AREA_STYLE_COLOUR('',#3030);
#3050=FILL_AREA_STYLE('',(#3040));
#3060=SURFACE_STYLE_FILL_AREA(#3050);
#3070=SURFACE_SIDE_STYLE('',(#3060));
#3080=SURFACE_STYLE_USAGE(.BOTH.,#3070);
#3090=PRESENTATION_STYLE_ASSIGNMENT((#3080));
#3100=CARTESIAN_POINT('',(111.513977248851,-43.0157959576704,
-288.730804812903));
#3110=DIRECTION('',(-0.128661159931098,-0.976729363512683,
0.171598532561597));
#3120=DIRECTION('',(0.417572666707424,-0.210307413112337,
-0.883970508562841));
#3130=AXIS2_PLACEMENT_3D('',#3100,#3110,#3120);
#3140=PLANE('',#3130);
#3150=ORIENTED_EDGE('',*,*,#1670,.T.);
#3160=ORIENTED_EDGE('',*,*,#2490,.T.);
#3170=ORIENTED_EDGE('',*,*,#590,.F.);
#3180=ORIENTED_EDGE('',*,*,#2950,.F.);
#3190=EDGE_LOOP('',(#3180,#3170,#3160,#3150));
#3200=FACE_OUTER_BOUND('',#3190,.T.);
#3210=ADVANCED_FACE('',(#3200),#3140,.T.);
#3220=COLOUR_RGB('',0.823529481887817,0.823529481887817,
0.784313797950745);
#3230=FILL_AREA_STYLE_COLOUR('',#3220);
#3240=FILL_AREA_STYLE('',(#3230));
#3250=SURFACE_STYLE_FILL_AREA(#3240);
#3260=SURFACE_SIDE_STYLE('',(#3250));
#3270=SURFACE_STYLE_USAGE(.BOTH.,#3260);
#3280=PRESENTATION_STYLE_ASSIGNMENT((#3270));
#3290=CARTESIAN_POINT('',(127.283850697044,34.4471691864653,
-313.85151583999));
#3300=DIRECTION('',(-0.899488395669469,0.042077814131751,
-0.434913880686577));
#3310=DIRECTION('',(-0.128661159931098,-0.976729363512683,
0.171598532561597));
#3320=AXIS2_PLACEMENT_3D('',#3290,#3300,#3310);
#3330=CYLINDRICAL_SURFACE('',#3320,6.3);
#3340=CARTESIAN_POINT('',(128.09441600461,40.6005641765952,
-314.932586595128));
#3350=DIRECTION('',(-0.899488395669469,0.042077814131751,
-0.434913880686577));
#3360=VECTOR('',#3350,1.);
#3370=LINE('',#3340,#3360);
#3380=EDGE_CURVE('',#440,#1360,#3370,.T.);
#3390=ORIENTED_EDGE('',*,*,#3380,.T.);
#3400=ORIENTED_EDGE('',*,*,#470,.F.);
#3410=CARTESIAN_POINT('',(126.473285389478,28.2937741963354,
-312.770445084852));
#3420=DIRECTION('',(-0.899488395669469,0.042077814131751,
-0.434913880686577));
#3430=VECTOR('',#3420,1.);
#3440=LINE('',#3410,#3430);
#3450=EDGE_CURVE('',#420,#1340,#3440,.T.);
#3460=ORIENTED_EDGE('',*,*,#3450,.F.);
#3470=ORIENTED_EDGE('',*,*,#1390,.T.);
#3480=EDGE_LOOP('',(#3470,#3460,#3400,#3390));
#3490=FACE_OUTER_BOUND('',#3480,.T.);
#3500=ADVANCED_FACE('',(#3490),#3330,.F.);
#3510=COLOUR_RGB('',0.823529481887817,0.823529481887817,
0.784313797950745);
#3520=FILL_AREA_STYLE_COLOUR('',#3510);
#3530=FILL_AREA_STYLE('',(#3520));
#3540=SURFACE_STYLE_FILL_AREA(#3530);
#3550=SURFACE_SIDE_STYLE('',(#3540));
#3560=SURFACE_STYLE_USAGE(.BOTH.,#3550);
#3570=PRESENTATION_STYLE_ASSIGNMENT((#3560));
#3580=CARTESIAN_POINT('',(127.283850697044,34.4471691864653,
-313.85151583999));
#3590=DIRECTION('',(-0.899488395669469,0.042077814131751,
-0.434913880686577));
#3600=DIRECTION('',(-0.128661159931098,-0.976729363512683,
0.171598532561597));
#3610=AXIS2_PLACEMENT_3D('',#3580,#3590,#3600);
#3620=CYLINDRICAL_SURFACE('',#3610,6.3);
#3630=ORIENTED_EDGE('',*,*,#450,.F.);
#3640=ORIENTED_EDGE('',*,*,#3380,.F.);
#3650=ORIENTED_EDGE('',*,*,#1370,.T.);
#3660=ORIENTED_EDGE('',*,*,#3450,.T.);
#3670=EDGE_LOOP('',(#3660,#3650,#3640,#3630));
#3680=FACE_OUTER_BOUND('',#3670,.T.);
#3690=ADVANCED_FACE('',(#3680),#3620,.F.);
#3700=COLOUR_RGB('',0.823529481887817,0.823529481887817,
0.784313797950745);
#3710=FILL_AREA_STYLE_COLOUR('',#3700);
#3720=FILL_AREA_STYLE('',(#3710));
#3730=SURFACE_STYLE_FILL_AREA(#3720);
#3740=SURFACE_SIDE_STYLE('',(#3730));
#3750=SURFACE_STYLE_USAGE(.BOTH.,#3740);
#3760=PRESENTATION_STYLE_ASSIGNMENT((#3750));
#3770=CARTESIAN_POINT('',(122.909371259386,1.23837082703407,
-308.017165732896));
#3780=DIRECTION('',(-0.899488395669469,0.042077814131751,
-0.434913880686577));
#3790=DIRECTION('',(-0.128661159931098,-0.976729363512683,
0.171598532561597));
#3800=AXIS2_PLACEMENT_3D('',#3770,#3780,#3790);
#3810=CYLINDRICAL_SURFACE('',#3800,6.3);
#3820=CARTESIAN_POINT('',(123.719936566952,7.39176581716398,
-309.098236488034));
#3830=DIRECTION('',(-0.899488395669469,0.042077814131751,
-0.434913880686577));
#3840=VECTOR('',#3830,1.);
#3850=LINE('',#3820,#3840);
#3860=EDGE_CURVE('',#140,#1060,#3850,.T.);
#3870=ORIENTED_EDGE('',*,*,#3860,.T.);
#3880=ORIENTED_EDGE('',*,*,#170,.F.);
#3890=CARTESIAN_POINT('',(122.098805951821,-4.91502416309583,
-306.936094977758));
#3900=DIRECTION('',(-0.899488395669469,0.042077814131751,
-0.434913880686577));
#3910=VECTOR('',#3900,1.);
#3920=LINE('',#3890,#3910);
#3930=EDGE_CURVE('',#120,#1040,#3920,.T.);
#3940=ORIENTED_EDGE('',*,*,#3930,.F.);
#3950=ORIENTED_EDGE('',*,*,#1090,.T.);
#3960=EDGE_LOOP('',(#3950,#3940,#3880,#3870));
#3970=FACE_OUTER_BOUND('',#3960,.T.);
#3980=ADVANCED_FACE('',(#3970),#3810,.F.);
#3990=COLOUR_RGB('',0.823529481887817,0.823529481887817,
0.784313797950745);
#4000=FILL_AREA_STYLE_COLOUR('',#3990);
#4010=FILL_AREA_STYLE('',(#4000));
#4020=SURFACE_STYLE_FILL_AREA(#4010);
#4030=SURFACE_SIDE_STYLE('',(#4020));
#4040=SURFACE_STYLE_USAGE(.BOTH.,#4030);
#4050=PRESENTATION_STYLE_ASSIGNMENT((#4040));
#4060=CARTESIAN_POINT('',(122.909371259386,1.23837082703407,
-308.017165732896));
#4070=DIRECTION('',(-0.899488395669469,0.042077814131751,
-0.434913880686577));
#4080=DIRECTION('',(-0.128661159931098,-0.976729363512683,
0.171598532561597));
#4090=AXIS2_PLACEMENT_3D('',#4060,#4070,#4080);
#4100=CYLINDRICAL_SURFACE('',#4090,6.3);
#4110=ORIENTED_EDGE('',*,*,#150,.F.);
#4120=ORIENTED_EDGE('',*,*,#3860,.F.);
#4130=ORIENTED_EDGE('',*,*,#1070,.T.);
#4140=ORIENTED_EDGE('',*,*,#3930,.T.);
#4150=EDGE_LOOP('',(#4140,#4130,#4120,#4110));
#4160=FACE_OUTER_BOUND('',#4150,.T.);
#4170=ADVANCED_FACE('',(#4160),#4100,.F.);
#4180=COLOUR_RGB('',0.823529481887817,0.823529481887817,
0.784313797950745);
#4190=FILL_AREA_STYLE_COLOUR('',#4180);
#4200=FILL_AREA_STYLE('',(#4190));
#4210=SURFACE_STYLE_FILL_AREA(#4200);
#4220=SURFACE_SIDE_STYLE('',(#4210));
#4230=SURFACE_STYLE_USAGE(.BOTH.,#4220);
#4240=PRESENTATION_STYLE_ASSIGNMENT((#4230));
#4250=CLOSED_SHELL('',(#2060,#2250,#2540,#2780,#3020,#3210,#3500,#3690,
#3980,#4170,#1770,#850));
#4260=MANIFOLD_SOLID_BREP('',#4250);
#4270=CARTESIAN_POINT('',(0.,0.,0.));
#4280=DIRECTION('',(0.,0.,1.));
#4290=DIRECTION('',(1.,0.,0.));
#4300=AXIS2_PLACEMENT_3D('',#4270,#4280,#4290);
#4310=APPLICATION_CONTEXT(' ');
#4320=APPLICATION_PROTOCOL_DEFINITION(' ','automotive_design',1998,#4310
);
#4330=PRODUCT_CONTEXT('',#4310,'mechanical');
#4340=PRODUCT_DEFINITION_CONTEXT('part definition',#4310,'design');
#4350=PRODUCT('HV_M12_1_VS_3','HV_M12_1_VS_3','',(#4330));
#4360=PRODUCT_RELATED_PRODUCT_CATEGORY('part',' ',(#4350));
#4370=PRODUCT_DEFINITION_FORMATION_WITH_SPECIFIED_SOURCE('','',#4350,
.BOUGHT.);
#4380=PRODUCT_DEFINITION('',' ',#4370,#4340);
#4390=PRODUCT_DEFINITION_SHAPE('','',#4380);
#4400=DIMENSIONAL_EXPONENTS(1.,0.,0.,0.,0.,0.,0.);
#4410=DIMENSIONAL_EXPONENTS(0.,0.,0.,0.,0.,0.,0.);
#4420=DIMENSIONAL_EXPONENTS(0.,0.,0.,0.,0.,0.,0.);
#4430=(LENGTH_UNIT() NAMED_UNIT(*) SI_UNIT(.MILLI.,.METRE.));
#4440=(NAMED_UNIT(*) PLANE_ANGLE_UNIT() SI_UNIT($,.RADIAN.));
#4450=(NAMED_UNIT(*) SI_UNIT($,.STERADIAN.) SOLID_ANGLE_UNIT());
#4460=(GEOMETRIC_REPRESENTATION_CONTEXT(3) 
GLOBAL_UNCERTAINTY_ASSIGNED_CONTEXT((#4470)) 
GLOBAL_UNIT_ASSIGNED_CONTEXT((#4430,#4440,#4450)) REPRESENTATION_CONTEXT
('',''));
#4470=UNCERTAINTY_MEASURE_WITH_UNIT(LENGTH_MEASURE(1.E-6),#4430,
'distance_accuracy_value','maximum gap value');
#4480=ADVANCED_BREP_SHAPE_REPRESENTATION('',(#4300,#4260),#4460);
#4490=SHAPE_DEFINITION_REPRESENTATION(#4390,#4480);
#4500=COLOUR_RGB('',0.823529481887817,0.823529481887817,
0.784313797950745);
#4510=FILL_AREA_STYLE_COLOUR('',#4500);
#4520=FILL_AREA_STYLE('',(#4510));
#4530=SURFACE_STYLE_FILL_AREA(#4520);
#4540=SURFACE_SIDE_STYLE('',(#4530));
#4550=SURFACE_STYLE_USAGE(.BOTH.,#4540);
#4560=PRESENTATION_STYLE_ASSIGNMENT((#4550));
#4570=STYLED_ITEM('',(#4560),#4260);
#4580=OVER_RIDING_STYLED_ITEM('',(#920),#850,#4570);
#4590=OVER_RIDING_STYLED_ITEM('',(#1840),#1770,#4570);
#4600=OVER_RIDING_STYLED_ITEM('',(#2130),#2060,#4570);
#4610=OVER_RIDING_STYLED_ITEM('',(#2320),#2250,#4570);
#4620=OVER_RIDING_STYLED_ITEM('',(#2610),#2540,#4570);
#4630=OVER_RIDING_STYLED_ITEM('',(#2850),#2780,#4570);
#4640=OVER_RIDING_STYLED_ITEM('',(#3090),#3020,#4570);
#4650=OVER_RIDING_STYLED_ITEM('',(#3280),#3210,#4570);
#4660=OVER_RIDING_STYLED_ITEM('',(#3570),#3500,#4570);
#4670=OVER_RIDING_STYLED_ITEM('',(#3760),#3690,#4570);
#4680=OVER_RIDING_STYLED_ITEM('',(#4050),#3980,#4570);
#4690=OVER_RIDING_STYLED_ITEM('',(#4240),#4170,#4570);
#4700=DRAUGHTING_MODEL('',(#4570,#4580,#4590,#4600,#4610,#4620,#4630,
#4640,#4650,#4660,#4670,#4680,#4690),#4460);
#4710=CARTESIAN_POINT('',(-21.8785090658635,335.841245994001,
27.4574956376115));
#4720=DIRECTION('',(-0.171598532561597,0.883970508562841,
0.434913880686577));
#4730=DIRECTION('',(0.128661159931098,-0.417572666707423,
0.899488395669469));
#4740=AXIS2_PLACEMENT_3D('',#4710,#4720,#4730);
#4750=ITEM_DEFINED_TRANSFORMATION('HV_M12_1_VS_3','',#4300,#4740);
#4760=APPLICATION_CONTEXT(' ');
#4770=APPLICATION_PROTOCOL_DEFINITION(' ','automotive_design',1998,#4760
);
#4780=PRODUCT_CONTEXT('',#4760,'mechanical');
#4790=PRODUCT_DEFINITION_CONTEXT('part definition',#4760,'design');
#4800=PRODUCT('HV_M12_1_VS_3','HV_M12_1_VS_3','',(#4780));
#4810=PRODUCT_RELATED_PRODUCT_CATEGORY('part',' ',(#4800));
#4820=PRODUCT_DEFINITION_FORMATION_WITH_SPECIFIED_SOURCE('','',#4800,
.BOUGHT.);
#4830=PRODUCT_DEFINITION('',' ',#4820,#4790);
#4840=PRODUCT_DEFINITION_SHAPE('','',#4830);
#4850=DIMENSIONAL_EXPONENTS(1.,0.,0.,0.,0.,0.,0.);
#4860=DIMENSIONAL_EXPONENTS(0.,0.,0.,0.,0.,0.,0.);
#4870=DIMENSIONAL_EXPONENTS(0.,0.,0.,0.,0.,0.,0.);
#4880=(LENGTH_UNIT() NAMED_UNIT(*) SI_UNIT(.MILLI.,.METRE.));
#4890=(NAMED_UNIT(*) PLANE_ANGLE_UNIT() SI_UNIT($,.RADIAN.));
#4900=(NAMED_UNIT(*) SI_UNIT($,.STERADIAN.) SOLID_ANGLE_UNIT());
#4910=(GEOMETRIC_REPRESENTATION_CONTEXT(3) 
GLOBAL_UNCERTAINTY_ASSIGNED_CONTEXT((#4920)) 
GLOBAL_UNIT_ASSIGNED_CONTEXT((#4880,#4890,#4900)) REPRESENTATION_CONTEXT
('',''));
#4920=UNCERTAINTY_MEASURE_WITH_UNIT(LENGTH_MEASURE(1.E-6),#4880,
'distance_accuracy_value','maximum gap value');
#4930=SHAPE_REPRESENTATION('',(#4300,#4740),#4910);
#4940=SHAPE_DEFINITION_REPRESENTATION(#4840,#4930);
#4950=(REPRESENTATION_RELATIONSHIP('','',#4480,#4930) 
REPRESENTATION_RELATIONSHIP_WITH_TRANSFORMATION(#4750) 
SHAPE_REPRESENTATION_RELATIONSHIP());
#4960=NEXT_ASSEMBLY_USAGE_OCCURRENCE('1','','HV_M12_1_VS_3',#4830,#4380,
'');
#4970=PRODUCT_DEFINITION_SHAPE('','',#4960);
#4980=CONTEXT_DEPENDENT_SHAPE_REPRESENTATION(#4950,#4970);
ENDSEC;
END-ISO-10303-21;
