ISO-10303-21;
HEADER;
FILE_DESCRIPTION(('Creo Elements/Direct Modeling STEP Export'),'2;1');
FILE_NAME(
'D:/temp/JobSpoolerServerData/JobServer Files/32b99d26-2d76-40c3-9714-70
eee0aa9a7c/work/output/model.stp','2018-11-13T12:14:29',(''),(''),
'Creo Elements/Direct Modeling STEP processor for AP214 (Solid Model)',
'Creo Elements/Direct Modeling 18.1I  14-Aug-2016 (C) Parametric Technol
ogy GmbH','');
FILE_SCHEMA(('AUTOMOTIVE_DESIGN { 1 0 10303 214 1 1 1 1 }'));
ENDSEC;
DATA;
#10=CARTESIAN_POINT('',(50.733934,48.4600563392781,-92.05));
#20=DIRECTION('',(-9.45898322234894E-59,4.48415508583941E-44,1.));
#30=DIRECTION('',(0.629320391049801,-0.777145961457,3.48484301550697E-44
));
#40=AXIS2_PLACEMENT_3D('',#10,#20,#30);
#50=CYLINDRICAL_SURFACE('',#40,8.5);
#60=CARTESIAN_POINT('',(45.3847106760767,55.0657970116626,-92.05));
#70=DIRECTION('',(-9.45898322234894E-59,4.48415508583941E-44,1.));
#80=VECTOR('',#70,1.);
#90=LINE('',#60,#80);
#100=CARTESIAN_POINT('',(45.3847106760767,55.0657970116626,-92.85));
#110=VERTEX_POINT('',#100);
#120=CARTESIAN_POINT('',(45.3847106760767,55.0657970116626,-92.05));
#130=VERTEX_POINT('',#120);
#140=EDGE_CURVE('',#110,#130,#90,.T.);
#150=ORIENTED_EDGE('',*,*,#140,.F.);
#160=CARTESIAN_POINT('',(50.733934,48.4600563392781,-92.05));
#170=DIRECTION('',(-9.45898322234894E-59,4.48415508583941E-44,1.));
#180=DIRECTION('',(0.629320391049801,-0.777145961457,
3.48484301550697E-44));
#190=AXIS2_PLACEMENT_3D('',#160,#170,#180);
#200=CIRCLE('',#190,8.5);
#210=CARTESIAN_POINT('',(56.0831573239233,41.8543156668936,-92.05));
#220=VERTEX_POINT('',#210);
#230=EDGE_CURVE('',#130,#220,#200,.T.);
#240=ORIENTED_EDGE('',*,*,#230,.F.);
#250=CARTESIAN_POINT('',(56.0831573239233,41.8543156668936,-92.05));
#260=DIRECTION('',(-9.45898322234894E-59,4.48415508583941E-44,1.));
#270=VECTOR('',#260,1.);
#280=LINE('',#250,#270);
#290=CARTESIAN_POINT('',(56.0831573239233,41.8543156668936,-92.85));
#300=VERTEX_POINT('',#290);
#310=EDGE_CURVE('',#300,#220,#280,.T.);
#320=ORIENTED_EDGE('',*,*,#310,.T.);
#330=CARTESIAN_POINT('',(50.733934,48.4600563392781,-92.85));
#340=DIRECTION('',(-9.45898322234894E-59,4.48415508583941E-44,1.));
#350=DIRECTION('',(0.629320391049801,-0.777145961457,
3.48484301550697E-44));
#360=AXIS2_PLACEMENT_3D('',#330,#340,#350);
#370=CIRCLE('',#360,8.5);
#380=EDGE_CURVE('',#110,#300,#370,.T.);
#390=ORIENTED_EDGE('',*,*,#380,.T.);
#400=EDGE_LOOP('',(#390,#320,#240,#150));
#410=FACE_OUTER_BOUND('',#400,.T.);
#420=ADVANCED_FACE('',(#410),#50,.T.);
#430=CARTESIAN_POINT('',(50.733934,48.4600563392781,-92.05));
#440=DIRECTION('',(0.,0.,1.));
#450=DIRECTION('',(1.,-3.68207743719406E-102,0.));
#460=AXIS2_PLACEMENT_3D('',#430,#440,#450);
#470=CYLINDRICAL_SURFACE('',#460,5.4);
#480=CARTESIAN_POINT('',(56.133934,48.4600563392781,-92.05));
#490=DIRECTION('',(0.,0.,1.));
#500=VECTOR('',#490,1.);
#510=LINE('',#480,#500);
#520=CARTESIAN_POINT('',(56.133934,48.4600563392781,-92.85));
#530=VERTEX_POINT('',#520);
#540=CARTESIAN_POINT('',(56.133934,48.4600563392781,-92.05));
#550=VERTEX_POINT('',#540);
#560=EDGE_CURVE('',#530,#550,#510,.T.);
#570=ORIENTED_EDGE('',*,*,#560,.F.);
#580=CARTESIAN_POINT('',(50.733934,48.4600563392781,-92.05));
#590=DIRECTION('',(0.,0.,1.));
#600=DIRECTION('',(1.,-3.68207743719406E-102,0.));
#610=AXIS2_PLACEMENT_3D('',#580,#590,#600);
#620=CIRCLE('',#610,5.4);
#630=CARTESIAN_POINT('',(45.333934,48.4600563392781,-92.05));
#640=VERTEX_POINT('',#630);
#650=EDGE_CURVE('',#640,#550,#620,.T.);
#660=ORIENTED_EDGE('',*,*,#650,.T.);
#670=CARTESIAN_POINT('',(45.333934,48.4600563392781,-92.05));
#680=DIRECTION('',(0.,0.,1.));
#690=VECTOR('',#680,1.);
#700=LINE('',#670,#690);
#710=CARTESIAN_POINT('',(45.333934,48.4600563392781,-92.85));
#720=VERTEX_POINT('',#710);
#730=EDGE_CURVE('',#720,#640,#700,.T.);
#740=ORIENTED_EDGE('',*,*,#730,.T.);
#750=CARTESIAN_POINT('',(50.733934,48.4600563392781,-92.85));
#760=DIRECTION('',(0.,0.,1.));
#770=DIRECTION('',(1.,-3.68207743719406E-102,0.));
#780=AXIS2_PLACEMENT_3D('',#750,#760,#770);
#790=CIRCLE('',#780,5.4);
#800=EDGE_CURVE('',#720,#530,#790,.T.);
#810=ORIENTED_EDGE('',*,*,#800,.F.);
#820=EDGE_LOOP('',(#810,#740,#660,#570));
#830=FACE_OUTER_BOUND('',#820,.T.);
#840=ADVANCED_FACE('',(#830),#470,.F.);
#850=CARTESIAN_POINT('',(46.2814922333226,53.9583640165864,-92.85));
#860=DIRECTION('',(-9.45898322234894E-59,4.48415508583941E-44,1.));
#870=DIRECTION('',(0.629320391049801,-0.777145961457,
3.48484301550697E-44));
#880=AXIS2_PLACEMENT_3D('',#850,#860,#870);
#890=PLANE('',#880);
#900=EDGE_CURVE('',#530,#720,#790,.T.);
#910=ORIENTED_EDGE('',*,*,#900,.T.);
#920=ORIENTED_EDGE('',*,*,#800,.T.);
#930=EDGE_LOOP('',(#920,#910));
#940=FACE_BOUND('',#930,.T.);
#950=EDGE_CURVE('',#300,#110,#370,.T.);
#960=ORIENTED_EDGE('',*,*,#950,.F.);
#970=ORIENTED_EDGE('',*,*,#380,.F.);
#980=EDGE_LOOP('',(#970,#960));
#990=FACE_OUTER_BOUND('',#980,.T.);
#1000=ADVANCED_FACE('',(#940,#990),#890,.F.);
#1010=CARTESIAN_POINT('',(50.733934,48.4600563392781,-92.05));
#1020=DIRECTION('',(-9.45898322234894E-59,4.48415508583941E-44,1.));
#1030=DIRECTION('',(0.629320391049801,-0.777145961457,
3.48484301550697E-44));
#1040=AXIS2_PLACEMENT_3D('',#1010,#1020,#1030);
#1050=CYLINDRICAL_SURFACE('',#1040,8.5);
#1060=EDGE_CURVE('',#220,#130,#200,.T.);
#1070=ORIENTED_EDGE('',*,*,#1060,.F.);
#1080=ORIENTED_EDGE('',*,*,#140,.T.);
#1090=ORIENTED_EDGE('',*,*,#950,.T.);
#1100=ORIENTED_EDGE('',*,*,#310,.F.);
#1110=EDGE_LOOP('',(#1100,#1090,#1080,#1070));
#1120=FACE_OUTER_BOUND('',#1110,.T.);
#1130=ADVANCED_FACE('',(#1120),#1050,.T.);
#1140=CARTESIAN_POINT('',(50.733934,48.4600563392781,-92.05));
#1150=DIRECTION('',(0.,0.,1.));
#1160=DIRECTION('',(1.,-3.68207743719406E-102,0.));
#1170=AXIS2_PLACEMENT_3D('',#1140,#1150,#1160);
#1180=CYLINDRICAL_SURFACE('',#1170,5.4);
#1190=ORIENTED_EDGE('',*,*,#900,.F.);
#1200=ORIENTED_EDGE('',*,*,#730,.F.);
#1210=EDGE_CURVE('',#550,#640,#620,.T.);
#1220=ORIENTED_EDGE('',*,*,#1210,.T.);
#1230=ORIENTED_EDGE('',*,*,#560,.T.);
#1240=EDGE_LOOP('',(#1230,#1220,#1200,#1190));
#1250=FACE_OUTER_BOUND('',#1240,.T.);
#1260=ADVANCED_FACE('',(#1250),#1180,.F.);
#1270=CARTESIAN_POINT('',(50.7339340000005,56.0850563392781,-92.05));
#1280=DIRECTION('',(-8.21130707281233E-59,4.48415508583941E-44,1.));
#1290=DIRECTION('',(1.,-4.64137289409124E-14,2.16337665755977E-57));
#1300=AXIS2_PLACEMENT_3D('',#1270,#1280,#1290);
#1310=PLANE('',#1300);
#1320=ORIENTED_EDGE('',*,*,#1210,.F.);
#1330=ORIENTED_EDGE('',*,*,#650,.F.);
#1340=EDGE_LOOP('',(#1330,#1320));
#1350=FACE_BOUND('',#1340,.T.);
#1360=ORIENTED_EDGE('',*,*,#1060,.T.);
#1370=ORIENTED_EDGE('',*,*,#230,.T.);
#1380=EDGE_LOOP('',(#1370,#1360));
#1390=FACE_OUTER_BOUND('',#1380,.T.);
#1400=ADVANCED_FACE('',(#1350,#1390),#1310,.T.);
#1410=CLOSED_SHELL('',(#1400,#420,#840,#1000,#1130,#1260));
#1420=MANIFOLD_SOLID_BREP('',#1410);
#1430=CARTESIAN_POINT('',(0.,0.,0.));
#1440=DIRECTION('',(0.,0.,1.));
#1450=DIRECTION('',(1.,0.,0.));
#1460=AXIS2_PLACEMENT_3D('',#1430,#1440,#1450);
#1470=APPLICATION_CONTEXT(' ');
#1480=APPLICATION_PROTOCOL_DEFINITION(' ','automotive_design',1998,#1470
);
#1490=PRODUCT_CONTEXT('',#1470,'mechanical');
#1500=PRODUCT_DEFINITION_CONTEXT('part definition',#1470,'design');
#1510=PRODUCT('PV-FT_FLAT_GASKET','PV-FT_FLAT_GASKET','',(#1490));
#1520=PRODUCT_RELATED_PRODUCT_CATEGORY('part',' ',(#1510));
#1530=PRODUCT_DEFINITION_FORMATION_WITH_SPECIFIED_SOURCE('','',#1510,
.BOUGHT.);
#1540=PRODUCT_DEFINITION('',' ',#1530,#1500);
#1550=PRODUCT_DEFINITION_SHAPE('','',#1540);
#1560=DIMENSIONAL_EXPONENTS(1.,0.,0.,0.,0.,0.,0.);
#1570=DIMENSIONAL_EXPONENTS(0.,0.,0.,0.,0.,0.,0.);
#1580=DIMENSIONAL_EXPONENTS(0.,0.,0.,0.,0.,0.,0.);
#1590=(LENGTH_UNIT() NAMED_UNIT(*) SI_UNIT(.MILLI.,.METRE.));
#1600=(NAMED_UNIT(*) PLANE_ANGLE_UNIT() SI_UNIT($,.RADIAN.));
#1610=(NAMED_UNIT(*) SI_UNIT($,.STERADIAN.) SOLID_ANGLE_UNIT());
#1620=(GEOMETRIC_REPRESENTATION_CONTEXT(3) 
GLOBAL_UNCERTAINTY_ASSIGNED_CONTEXT((#1630)) 
GLOBAL_UNIT_ASSIGNED_CONTEXT((#1590,#1600,#1610)) REPRESENTATION_CONTEXT
('',''));
#1630=UNCERTAINTY_MEASURE_WITH_UNIT(LENGTH_MEASURE(1.E-6),#1590,
'distance_accuracy_value','maximum gap value');
#1640=ADVANCED_BREP_SHAPE_REPRESENTATION('',(#1460,#1420),#1620);
#1650=SHAPE_DEFINITION_REPRESENTATION(#1550,#1640);
#1660=COLOUR_RGB('',0.313725501298904,0.313725501298904,
0.313725501298904);
#1670=FILL_AREA_STYLE_COLOUR('',#1660);
#1680=FILL_AREA_STYLE('',(#1670));
#1690=SURFACE_STYLE_FILL_AREA(#1680);
#1700=SURFACE_SIDE_STYLE('',(#1690));
#1710=SURFACE_STYLE_USAGE(.BOTH.,#1700);
#1720=PRESENTATION_STYLE_ASSIGNMENT((#1710));
#1730=STYLED_ITEM('',(#1720),#1420);
#1740=DRAUGHTING_MODEL('',(#1730),#1620);
#1750=CARTESIAN_POINT('',(-42.233934000002,-92.049999999998,
-39.9600563392804));
#1760=DIRECTION('',(-4.64137289409124E-14,-1.,0.));
#1770=DIRECTION('',(1.,-4.64137289409124E-14,4.64137289409124E-14));
#1780=AXIS2_PLACEMENT_3D('',#1750,#1760,#1770);
#1790=ITEM_DEFINED_TRANSFORMATION('PV-FT_FLAT_GASKET','',#1460,#1780);
#1800=APPLICATION_CONTEXT(' ');
#1810=APPLICATION_PROTOCOL_DEFINITION(' ','automotive_design',1998,#1800
);
#1820=PRODUCT_CONTEXT('',#1800,'mechanical');
#1830=PRODUCT_DEFINITION_CONTEXT('part definition',#1800,'design');
#1840=PRODUCT('PV-FT_FLAT_GASKET','PV-FT_FLAT_GASKET','',(#1820));
#1850=PRODUCT_RELATED_PRODUCT_CATEGORY('part',' ',(#1840));
#1860=PRODUCT_DEFINITION_FORMATION_WITH_SPECIFIED_SOURCE('','',#1840,
.BOUGHT.);
#1870=PRODUCT_DEFINITION('',' ',#1860,#1830);
#1880=PRODUCT_DEFINITION_SHAPE('','',#1870);
#1890=DIMENSIONAL_EXPONENTS(1.,0.,0.,0.,0.,0.,0.);
#1900=DIMENSIONAL_EXPONENTS(0.,0.,0.,0.,0.,0.,0.);
#1910=DIMENSIONAL_EXPONENTS(0.,0.,0.,0.,0.,0.,0.);
#1920=(LENGTH_UNIT() NAMED_UNIT(*) SI_UNIT(.MILLI.,.METRE.));
#1930=(NAMED_UNIT(*) PLANE_ANGLE_UNIT() SI_UNIT($,.RADIAN.));
#1940=(NAMED_UNIT(*) SI_UNIT($,.STERADIAN.) SOLID_ANGLE_UNIT());
#1950=(GEOMETRIC_REPRESENTATION_CONTEXT(3) 
GLOBAL_UNCERTAINTY_ASSIGNED_CONTEXT((#1960)) 
GLOBAL_UNIT_ASSIGNED_CONTEXT((#1920,#1930,#1940)) REPRESENTATION_CONTEXT
('',''));
#1960=UNCERTAINTY_MEASURE_WITH_UNIT(LENGTH_MEASURE(1.E-6),#1920,
'distance_accuracy_value','maximum gap value');
#1970=SHAPE_REPRESENTATION('',(#1460,#1780),#1950);
#1980=SHAPE_DEFINITION_REPRESENTATION(#1880,#1970);
#1990=(REPRESENTATION_RELATIONSHIP('','',#1640,#1970) 
REPRESENTATION_RELATIONSHIP_WITH_TRANSFORMATION(#1790) 
SHAPE_REPRESENTATION_RELATIONSHIP());
#2000=NEXT_ASSEMBLY_USAGE_OCCURRENCE('1','','PV-FT_FLAT_GASKET',#1870,
#1540,'');
#2010=PRODUCT_DEFINITION_SHAPE('','',#2000);
#2020=CONTEXT_DEPENDENT_SHAPE_REPRESENTATION(#1990,#2010);
ENDSEC;
END-ISO-10303-21;
