ISO-10303-21;
HEADER;
FILE_DESCRIPTION(('Creo Elements/Direct Modeling STEP Export'),'2;1');
FILE_NAME(
'C:/temp/JobSpoolerServerData/JobServer Files/c060655f-ee1a-4bec-9853-30
e1d80cdafc/work/output/model.stp','2020-10-01T 9:39:42',(''),(''),
'Creo Elements/Direct Modeling STEP processor for AP214 (Solid Model)',
'Creo Elements/Direct Modeling 20.1A  29-Sep-2018 (C) Parametric Technol
ogy GmbH','');
FILE_SCHEMA(('AUTOMOTIVE_DESIGN { 1 0 10303 214 1 1 1 1 }'));
ENDSEC;
DATA;
#10=CARTESIAN_POINT('',(49.1706118247427,43.4560942357015,0.));
#20=DIRECTION('',(1.,0.,0.));
#30=DIRECTION('',(0.,1.,0.));
#40=AXIS2_PLACEMENT_3D('',#10,#20,#30);
#50=PLANE('',#40);
#60=CARTESIAN_POINT('',(49.1706118247427,43.4560942357015,
-4.44089209850063E-16));
#70=DIRECTION('',(1.,0.,0.));
#80=DIRECTION('',(0.,0.,1.));
#90=AXIS2_PLACEMENT_3D('',#60,#70,#80);
#100=CIRCLE('',#90,1.15);
#110=CARTESIAN_POINT('',(49.1706118247427,43.4560942357015,1.15));
#120=VERTEX_POINT('',#110);
#130=CARTESIAN_POINT('',(49.1706118247427,43.4560942357015,-1.15));
#140=VERTEX_POINT('',#130);
#150=EDGE_CURVE('',#120,#140,#100,.T.);
#160=ORIENTED_EDGE('',*,*,#150,.F.);
#170=EDGE_CURVE('',#140,#120,#100,.T.);
#180=ORIENTED_EDGE('',*,*,#170,.F.);
#190=EDGE_LOOP('',(#180,#160));
#200=FACE_BOUND('',#190,.T.);
#210=CARTESIAN_POINT('',(49.1706118247427,43.4560942357015,
-4.44089209850063E-16));
#220=DIRECTION('',(1.,0.,0.));
#230=DIRECTION('',(0.,-1.,0.));
#240=AXIS2_PLACEMENT_3D('',#210,#220,#230);
#250=CIRCLE('',#240,2.);
#260=CARTESIAN_POINT('',(49.1706118247427,41.4560942357015,
-4.44089209850063E-16));
#270=VERTEX_POINT('',#260);
#280=CARTESIAN_POINT('',(49.1706118247427,45.4560942357015,
-6.89018569679533E-16));
#290=VERTEX_POINT('',#280);
#300=EDGE_CURVE('',#270,#290,#250,.T.);
#310=ORIENTED_EDGE('',*,*,#300,.T.);
#320=EDGE_CURVE('',#290,#270,#250,.T.);
#330=ORIENTED_EDGE('',*,*,#320,.T.);
#340=EDGE_LOOP('',(#330,#310));
#350=FACE_OUTER_BOUND('',#340,.T.);
#360=ADVANCED_FACE('',(#200,#350),#50,.T.);
#370=COLOUR_RGB('',0.729411780834198,0.768627524375916,0.784313797950745
);
#380=FILL_AREA_STYLE_COLOUR('',#370);
#390=FILL_AREA_STYLE('',(#380));
#400=SURFACE_STYLE_FILL_AREA(#390);
#410=SURFACE_SIDE_STYLE('',(#400));
#420=SURFACE_STYLE_USAGE(.BOTH.,#410);
#430=PRESENTATION_STYLE_ASSIGNMENT((#420));
#440=CARTESIAN_POINT('',(34.9706118247427,43.4560942357015,0.));
#450=DIRECTION('',(1.,0.,0.));
#460=DIRECTION('',(0.,-1.,0.));
#470=AXIS2_PLACEMENT_3D('',#440,#450,#460);
#480=PLANE('',#470);
#490=CARTESIAN_POINT('',(34.9706118247427,44.0060942357015,
-4.44089209850063E-16));
#500=DIRECTION('',(0.,0.,-1.));
#510=VECTOR('',#500,1.);
#520=LINE('',#490,#510);
#530=CARTESIAN_POINT('',(34.9706118247427,44.0060942357015,
1.91245914989053));
#540=VERTEX_POINT('',#530);
#550=CARTESIAN_POINT('',(34.9706118247427,44.0060942357015,
-1.91245914989053));
#560=VERTEX_POINT('',#550);
#570=EDGE_CURVE('',#540,#560,#520,.T.);
#580=ORIENTED_EDGE('',*,*,#570,.T.);
#590=CARTESIAN_POINT('',(34.9706118247427,43.4560942357015,
-4.44089209850063E-16));
#600=DIRECTION('',(1.,0.,0.));
#610=DIRECTION('',(0.,-1.,0.));
#620=AXIS2_PLACEMENT_3D('',#590,#600,#610);
#630=CIRCLE('',#620,1.98997487421324);
#640=CARTESIAN_POINT('',(34.9706118247427,42.9060942357015,
1.91245914989053));
#650=VERTEX_POINT('',#640);
#660=EDGE_CURVE('',#540,#650,#630,.T.);
#670=ORIENTED_EDGE('',*,*,#660,.F.);
#680=CARTESIAN_POINT('',(34.9706118247427,42.9060942357015,
-4.44089209850063E-16));
#690=DIRECTION('',(0.,0.,1.));
#700=VECTOR('',#690,1.);
#710=LINE('',#680,#700);
#720=CARTESIAN_POINT('',(34.9706118247427,42.9060942357015,
-1.91245914989053));
#730=VERTEX_POINT('',#720);
#740=EDGE_CURVE('',#730,#650,#710,.T.);
#750=ORIENTED_EDGE('',*,*,#740,.T.);
#760=EDGE_CURVE('',#730,#560,#630,.T.);
#770=ORIENTED_EDGE('',*,*,#760,.F.);
#780=EDGE_LOOP('',(#770,#750,#670,#580));
#790=FACE_OUTER_BOUND('',#780,.T.);
#800=ADVANCED_FACE('',(#790),#480,.F.);
#810=COLOUR_RGB('',0.729411780834198,0.768627524375916,0.784313797950745
);
#820=FILL_AREA_STYLE_COLOUR('',#810);
#830=FILL_AREA_STYLE('',(#820));
#840=SURFACE_STYLE_FILL_AREA(#830);
#850=SURFACE_SIDE_STYLE('',(#840));
#860=SURFACE_STYLE_USAGE(.BOTH.,#850);
#870=PRESENTATION_STYLE_ASSIGNMENT((#860));
#880=CARTESIAN_POINT('',(31.2706118247427,44.0060942357015,
-4.44089209850063E-16));
#890=DIRECTION('',(-1.30614473485313E-16,1.,0.));
#900=DIRECTION('',(1.,1.30614473485313E-16,0.));
#910=AXIS2_PLACEMENT_3D('',#880,#890,#900);
#920=PLANE('',#910);
#930=ORIENTED_EDGE('',*,*,#570,.F.);
#940=CARTESIAN_POINT('',(35.1706118247427,44.0060942357015,
-4.44089209850063E-16));
#950=DIRECTION('',(-1.30614473485313E-16,1.,0.));
#960=DIRECTION('',(1.,1.30614473485313E-16,0.));
#970=AXIS2_PLACEMENT_3D('',#940,#950,#960);
#980=CIRCLE('',#970,1.92288845230294);
#990=CARTESIAN_POINT('',(33.2477233724398,44.0060942357015,
-4.44089209850063E-16));
#1000=VERTEX_POINT('',#990);
#1010=EDGE_CURVE('',#560,#1000,#980,.T.);
#1020=ORIENTED_EDGE('',*,*,#1010,.F.);
#1030=EDGE_CURVE('',#1000,#540,#980,.T.);
#1040=ORIENTED_EDGE('',*,*,#1030,.F.);
#1050=EDGE_LOOP('',(#1040,#1020,#930));
#1060=FACE_OUTER_BOUND('',#1050,.T.);
#1070=ADVANCED_FACE('',(#1060),#920,.F.);
#1080=COLOUR_RGB('',0.729411780834198,0.768627524375916,
0.784313797950745);
#1090=FILL_AREA_STYLE_COLOUR('',#1080);
#1100=FILL_AREA_STYLE('',(#1090));
#1110=SURFACE_STYLE_FILL_AREA(#1100);
#1120=SURFACE_SIDE_STYLE('',(#1110));
#1130=SURFACE_STYLE_USAGE(.BOTH.,#1120);
#1140=PRESENTATION_STYLE_ASSIGNMENT((#1130));
#1150=CARTESIAN_POINT('',(35.1706118247427,43.4560942357015,
-4.44089209850063E-16));
#1160=DIRECTION('',(1.,0.,0.));
#1170=DIRECTION('',(0.,-1.,0.));
#1180=AXIS2_PLACEMENT_3D('',#1150,#1160,#1170);
#1190=SPHERICAL_SURFACE('',#1180,2.);
#1200=CARTESIAN_POINT('',(35.1706118247427,43.4560942357015,
-4.44089209850063E-16));
#1210=DIRECTION('',(0.,0.,-1.));
#1220=DIRECTION('',(1.,-0.,0.));
#1230=AXIS2_PLACEMENT_3D('',#1200,#1210,#1220);
#1240=CIRCLE('',#1230,2.);
#1250=CARTESIAN_POINT('',(35.1706118247427,41.4560942357015,
-4.44089209850063E-16));
#1260=VERTEX_POINT('',#1250);
#1270=CARTESIAN_POINT('',(33.2477233724398,42.9060942357015,
-4.44089209850063E-16));
#1280=VERTEX_POINT('',#1270);
#1290=EDGE_CURVE('',#1260,#1280,#1240,.T.);
#1300=ORIENTED_EDGE('',*,*,#1290,.F.);
#1310=CARTESIAN_POINT('',(35.1706118247427,42.9060942357015,
-4.44089209850063E-16));
#1320=DIRECTION('',(0.,-1.,0.));
#1330=DIRECTION('',(-1.,0.,0.));
#1340=AXIS2_PLACEMENT_3D('',#1310,#1320,#1330);
#1350=CIRCLE('',#1340,1.92288845230294);
#1360=EDGE_CURVE('',#650,#1280,#1350,.T.);
#1370=ORIENTED_EDGE('',*,*,#1360,.T.);
#1380=ORIENTED_EDGE('',*,*,#660,.T.);
#1390=ORIENTED_EDGE('',*,*,#1030,.T.);
#1400=CARTESIAN_POINT('',(35.1706118247427,45.4560942357015,
-4.44089209850063E-16));
#1410=VERTEX_POINT('',#1400);
#1420=EDGE_CURVE('',#1000,#1410,#1240,.T.);
#1430=ORIENTED_EDGE('',*,*,#1420,.F.);
#1440=CARTESIAN_POINT('',(35.1706118247427,43.4560942357015,
-4.44089209850063E-16));
#1450=DIRECTION('',(1.,0.,0.));
#1460=DIRECTION('',(0.,-1.,0.));
#1470=AXIS2_PLACEMENT_3D('',#1440,#1450,#1460);
#1480=CIRCLE('',#1470,2.);
#1490=EDGE_CURVE('',#1410,#1260,#1480,.T.);
#1500=ORIENTED_EDGE('',*,*,#1490,.F.);
#1510=EDGE_LOOP('',(#1500,#1430,#1390,#1380,#1370,#1300));
#1520=FACE_OUTER_BOUND('',#1510,.T.);
#1530=ADVANCED_FACE('',(#1520),#1190,.T.);
#1540=COLOUR_RGB('',0.729411780834198,0.768627524375916,
0.784313797950745);
#1550=FILL_AREA_STYLE_COLOUR('',#1540);
#1560=FILL_AREA_STYLE('',(#1550));
#1570=SURFACE_STYLE_FILL_AREA(#1560);
#1580=SURFACE_SIDE_STYLE('',(#1570));
#1590=SURFACE_STYLE_USAGE(.BOTH.,#1580);
#1600=PRESENTATION_STYLE_ASSIGNMENT((#1590));
#1610=CARTESIAN_POINT('',(53.1706118247427,43.4560942357015,
-4.44089209850063E-16));
#1620=DIRECTION('',(1.,0.,0.));
#1630=DIRECTION('',(0.,0.,1.));
#1640=AXIS2_PLACEMENT_3D('',#1610,#1620,#1630);
#1650=CYLINDRICAL_SURFACE('',#1640,1.15);
#1660=CARTESIAN_POINT('',(53.1706118247427,43.4560942357015,-1.15));
#1670=DIRECTION('',(1.,0.,0.));
#1680=VECTOR('',#1670,1.);
#1690=LINE('',#1660,#1680);
#1700=CARTESIAN_POINT('',(53.1706118247427,43.4560942357015,-1.15));
#1710=VERTEX_POINT('',#1700);
#1720=EDGE_CURVE('',#140,#1710,#1690,.T.);
#1730=ORIENTED_EDGE('',*,*,#1720,.F.);
#1740=CARTESIAN_POINT('',(53.1706118247427,43.4560942357015,
-4.44089209850063E-16));
#1750=DIRECTION('',(1.,0.,0.));
#1760=DIRECTION('',(0.,0.,1.));
#1770=AXIS2_PLACEMENT_3D('',#1740,#1750,#1760);
#1780=CIRCLE('',#1770,1.15);
#1790=CARTESIAN_POINT('',(53.1706118247427,43.4560942357015,1.15));
#1800=VERTEX_POINT('',#1790);
#1810=EDGE_CURVE('',#1710,#1800,#1780,.T.);
#1820=ORIENTED_EDGE('',*,*,#1810,.F.);
#1830=CARTESIAN_POINT('',(53.1706118247427,43.4560942357015,1.15));
#1840=DIRECTION('',(1.,0.,0.));
#1850=VECTOR('',#1840,1.);
#1860=LINE('',#1830,#1850);
#1870=EDGE_CURVE('',#120,#1800,#1860,.T.);
#1880=ORIENTED_EDGE('',*,*,#1870,.T.);
#1890=ORIENTED_EDGE('',*,*,#170,.T.);
#1900=EDGE_LOOP('',(#1890,#1880,#1820,#1730));
#1910=FACE_OUTER_BOUND('',#1900,.T.);
#1920=ADVANCED_FACE('',(#1910),#1650,.T.);
#1930=COLOUR_RGB('',0.729411780834198,0.768627524375916,
0.784313797950745);
#1940=FILL_AREA_STYLE_COLOUR('',#1930);
#1950=FILL_AREA_STYLE('',(#1940));
#1960=SURFACE_STYLE_FILL_AREA(#1950);
#1970=SURFACE_SIDE_STYLE('',(#1960));
#1980=SURFACE_STYLE_USAGE(.BOTH.,#1970);
#1990=PRESENTATION_STYLE_ASSIGNMENT((#1980));
#2000=CARTESIAN_POINT('',(31.2706118247427,42.9060942357015,
-4.44089209850063E-16));
#2010=DIRECTION('',(-0.,-1.,-0.));
#2020=DIRECTION('',(-1.,0.,0.));
#2030=AXIS2_PLACEMENT_3D('',#2000,#2010,#2020);
#2040=PLANE('',#2030);
#2050=ORIENTED_EDGE('',*,*,#740,.F.);
#2060=ORIENTED_EDGE('',*,*,#1360,.F.);
#2070=EDGE_CURVE('',#1280,#730,#1350,.T.);
#2080=ORIENTED_EDGE('',*,*,#2070,.F.);
#2090=EDGE_LOOP('',(#2080,#2060,#2050));
#2100=FACE_OUTER_BOUND('',#2090,.T.);
#2110=ADVANCED_FACE('',(#2100),#2040,.F.);
#2120=COLOUR_RGB('',0.729411780834198,0.768627524375916,
0.784313797950745);
#2130=FILL_AREA_STYLE_COLOUR('',#2120);
#2140=FILL_AREA_STYLE('',(#2130));
#2150=SURFACE_STYLE_FILL_AREA(#2140);
#2160=SURFACE_SIDE_STYLE('',(#2150));
#2170=SURFACE_STYLE_USAGE(.BOTH.,#2160);
#2180=PRESENTATION_STYLE_ASSIGNMENT((#2170));
#2190=CARTESIAN_POINT('',(53.1706118247427,43.4560942357015,
-4.44089209850063E-16));
#2200=DIRECTION('',(1.,0.,0.));
#2210=DIRECTION('',(0.,-1.,0.));
#2220=AXIS2_PLACEMENT_3D('',#2190,#2200,#2210);
#2230=PLANE('',#2220);
#2240=EDGE_CURVE('',#1800,#1710,#1780,.T.);
#2250=ORIENTED_EDGE('',*,*,#2240,.T.);
#2260=ORIENTED_EDGE('',*,*,#1810,.T.);
#2270=EDGE_LOOP('',(#2260,#2250));
#2280=FACE_BOUND('',#2270,.T.);
#2290=CARTESIAN_POINT('',(53.1706118247427,43.4560942357015,
-4.44089209850063E-16));
#2300=DIRECTION('',(1.,0.,0.));
#2310=DIRECTION('',(0.,1.,0.));
#2320=AXIS2_PLACEMENT_3D('',#2290,#2300,#2310);
#2330=CIRCLE('',#2320,1.5);
#2340=CARTESIAN_POINT('',(53.1706118247427,44.9560942357015,
-4.44089209850063E-16));
#2350=VERTEX_POINT('',#2340);
#2360=CARTESIAN_POINT('',(53.1706118247427,41.9560942357015,
-2.6039218997796E-16));
#2370=VERTEX_POINT('',#2360);
#2380=EDGE_CURVE('',#2350,#2370,#2330,.T.);
#2390=ORIENTED_EDGE('',*,*,#2380,.F.);
#2400=EDGE_CURVE('',#2370,#2350,#2330,.T.);
#2410=ORIENTED_EDGE('',*,*,#2400,.F.);
#2420=EDGE_LOOP('',(#2410,#2390));
#2430=FACE_OUTER_BOUND('',#2420,.T.);
#2440=ADVANCED_FACE('',(#2280,#2430),#2230,.F.);
#2450=COLOUR_RGB('',0.729411780834198,0.768627524375916,
0.784313797950745);
#2460=FILL_AREA_STYLE_COLOUR('',#2450);
#2470=FILL_AREA_STYLE('',(#2460));
#2480=SURFACE_STYLE_FILL_AREA(#2470);
#2490=SURFACE_SIDE_STYLE('',(#2480));
#2500=SURFACE_STYLE_USAGE(.BOTH.,#2490);
#2510=PRESENTATION_STYLE_ASSIGNMENT((#2500));
#2520=CARTESIAN_POINT('',(58.1706118247427,43.4560942357015,
-4.44089209850063E-16));
#2530=DIRECTION('',(1.,0.,0.));
#2540=DIRECTION('',(0.,1.,0.));
#2550=AXIS2_PLACEMENT_3D('',#2520,#2530,#2540);
#2560=CYLINDRICAL_SURFACE('',#2550,1.5);
#2570=CARTESIAN_POINT('',(58.1706118247427,41.9560942357015,
-2.6039218997796E-16));
#2580=DIRECTION('',(1.,0.,0.));
#2590=VECTOR('',#2580,1.);
#2600=LINE('',#2570,#2590);
#2610=CARTESIAN_POINT('',(57.6706118247427,41.9560942357015,
-2.6039218997796E-16));
#2620=VERTEX_POINT('',#2610);
#2630=EDGE_CURVE('',#2370,#2620,#2600,.T.);
#2640=ORIENTED_EDGE('',*,*,#2630,.F.);
#2650=CARTESIAN_POINT('',(57.6706118247427,43.4560942357015,
-4.44089209850063E-16));
#2660=DIRECTION('',(1.,0.,0.));
#2670=DIRECTION('',(0.,-1.,0.));
#2680=AXIS2_PLACEMENT_3D('',#2650,#2660,#2670);
#2690=CIRCLE('',#2680,1.5);
#2700=CARTESIAN_POINT('',(57.6706118247427,44.9560942357015,
-4.44089209850063E-16));
#2710=VERTEX_POINT('',#2700);
#2720=EDGE_CURVE('',#2620,#2710,#2690,.T.);
#2730=ORIENTED_EDGE('',*,*,#2720,.F.);
#2740=CARTESIAN_POINT('',(58.1706118247427,44.9560942357015,
-4.44089209850063E-16));
#2750=DIRECTION('',(1.,0.,0.));
#2760=VECTOR('',#2750,1.);
#2770=LINE('',#2740,#2760);
#2780=EDGE_CURVE('',#2350,#2710,#2770,.T.);
#2790=ORIENTED_EDGE('',*,*,#2780,.T.);
#2800=ORIENTED_EDGE('',*,*,#2400,.T.);
#2810=EDGE_LOOP('',(#2800,#2790,#2730,#2640));
#2820=FACE_OUTER_BOUND('',#2810,.T.);
#2830=ADVANCED_FACE('',(#2820),#2560,.T.);
#2840=COLOUR_RGB('',0.729411780834198,0.768627524375916,
0.784313797950745);
#2850=FILL_AREA_STYLE_COLOUR('',#2840);
#2860=FILL_AREA_STYLE('',(#2850));
#2870=SURFACE_STYLE_FILL_AREA(#2860);
#2880=SURFACE_SIDE_STYLE('',(#2870));
#2890=SURFACE_STYLE_USAGE(.BOTH.,#2880);
#2900=PRESENTATION_STYLE_ASSIGNMENT((#2890));
#2910=CARTESIAN_POINT('',(58.1706118247427,43.4560942357015,
-4.44089209850063E-16));
#2920=DIRECTION('',(-1.,0.,0.));
#2930=DIRECTION('',(0.,1.,0.));
#2940=AXIS2_PLACEMENT_3D('',#2910,#2920,#2930);
#2950=CONICAL_SURFACE('',#2940,1.,0.785398163397448);
#2960=CARTESIAN_POINT('',(58.1706118247427,44.4560942357015,
-4.44089209850063E-16));
#2970=DIRECTION('',(-0.707106781186548,0.707106781186548,0.));
#2980=VECTOR('',#2970,1.41421356237309);
#2990=LINE('',#2960,#2980);
#3000=CARTESIAN_POINT('',(58.1706118247427,44.4560942357015,
-4.44089209850063E-16));
#3010=VERTEX_POINT('',#3000);
#3020=EDGE_CURVE('',#3010,#2710,#2990,.T.);
#3030=ORIENTED_EDGE('',*,*,#3020,.F.);
#3040=ORIENTED_EDGE('',*,*,#2720,.T.);
#3050=CARTESIAN_POINT('',(58.1706118247427,42.4560942357015,
-5.66553889764798E-16));
#3060=DIRECTION('',(-0.707106781186548,-0.707106781186548,
-8.65956056235494E-17));
#3070=VECTOR('',#3060,1.41421356237309);
#3080=LINE('',#3050,#3070);
#3090=CARTESIAN_POINT('',(58.1706118247427,42.4560942357015,
-5.66553889764798E-16));
#3100=VERTEX_POINT('',#3090);
#3110=EDGE_CURVE('',#3100,#2620,#3080,.T.);
#3120=ORIENTED_EDGE('',*,*,#3110,.T.);
#3130=CARTESIAN_POINT('',(58.1706118247427,43.4560942357015,
-4.44089209850063E-16));
#3140=DIRECTION('',(1.,0.,0.));
#3150=DIRECTION('',(0.,-1.,0.));
#3160=AXIS2_PLACEMENT_3D('',#3130,#3140,#3150);
#3170=CIRCLE('',#3160,1.);
#3180=EDGE_CURVE('',#3100,#3010,#3170,.T.);
#3190=ORIENTED_EDGE('',*,*,#3180,.F.);
#3200=EDGE_LOOP('',(#3190,#3120,#3040,#3030));
#3210=FACE_OUTER_BOUND('',#3200,.T.);
#3220=ADVANCED_FACE('',(#3210),#2950,.T.);
#3230=COLOUR_RGB('',0.729411780834198,0.768627524375916,
0.784313797950745);
#3240=FILL_AREA_STYLE_COLOUR('',#3230);
#3250=FILL_AREA_STYLE('',(#3240));
#3260=SURFACE_STYLE_FILL_AREA(#3250);
#3270=SURFACE_SIDE_STYLE('',(#3260));
#3280=SURFACE_STYLE_USAGE(.BOTH.,#3270);
#3290=PRESENTATION_STYLE_ASSIGNMENT((#3280));
#3300=CARTESIAN_POINT('',(58.1706118247427,42.4560942357015,
-4.44089209850063E-16));
#3310=DIRECTION('',(1.,0.,0.));
#3320=DIRECTION('',(0.,-1.,0.));
#3330=AXIS2_PLACEMENT_3D('',#3300,#3310,#3320);
#3340=PLANE('',#3330);
#3350=EDGE_CURVE('',#3010,#3100,#3170,.T.);
#3360=ORIENTED_EDGE('',*,*,#3350,.T.);
#3370=ORIENTED_EDGE('',*,*,#3180,.T.);
#3380=EDGE_LOOP('',(#3370,#3360));
#3390=FACE_OUTER_BOUND('',#3380,.T.);
#3400=ADVANCED_FACE('',(#3390),#3340,.T.);
#3410=COLOUR_RGB('',0.729411780834198,0.768627524375916,
0.784313797950745);
#3420=FILL_AREA_STYLE_COLOUR('',#3410);
#3430=FILL_AREA_STYLE('',(#3420));
#3440=SURFACE_STYLE_FILL_AREA(#3430);
#3450=SURFACE_SIDE_STYLE('',(#3440));
#3460=SURFACE_STYLE_USAGE(.BOTH.,#3450);
#3470=PRESENTATION_STYLE_ASSIGNMENT((#3460));
#3480=CARTESIAN_POINT('',(46.6706118247427,43.4560942357015,
-4.44089209850063E-16));
#3490=DIRECTION('',(1.,0.,0.));
#3500=DIRECTION('',(0.,-1.,0.));
#3510=AXIS2_PLACEMENT_3D('',#3480,#3490,#3500);
#3520=CYLINDRICAL_SURFACE('',#3510,2.);
#3530=CARTESIAN_POINT('',(46.6706118247427,45.4560942357015,
-6.89018569679533E-16));
#3540=DIRECTION('',(1.,0.,0.));
#3550=VECTOR('',#3540,1.);
#3560=LINE('',#3530,#3550);
#3570=EDGE_CURVE('',#1410,#290,#3560,.T.);
#3580=ORIENTED_EDGE('',*,*,#3570,.F.);
#3590=ORIENTED_EDGE('',*,*,#320,.F.);
#3600=CARTESIAN_POINT('',(46.6706118247427,41.4560942357015,
-4.44089209850063E-16));
#3610=DIRECTION('',(1.,0.,0.));
#3620=VECTOR('',#3610,1.);
#3630=LINE('',#3600,#3620);
#3640=EDGE_CURVE('',#1260,#270,#3630,.T.);
#3650=ORIENTED_EDGE('',*,*,#3640,.T.);
#3660=ORIENTED_EDGE('',*,*,#1490,.T.);
#3670=EDGE_LOOP('',(#3660,#3650,#3590,#3580));
#3680=FACE_OUTER_BOUND('',#3670,.T.);
#3690=ADVANCED_FACE('',(#3680),#3520,.T.);
#3700=COLOUR_RGB('',0.729411780834198,0.768627524375916,
0.784313797950745);
#3710=FILL_AREA_STYLE_COLOUR('',#3700);
#3720=FILL_AREA_STYLE('',(#3710));
#3730=SURFACE_STYLE_FILL_AREA(#3720);
#3740=SURFACE_SIDE_STYLE('',(#3730));
#3750=SURFACE_STYLE_USAGE(.BOTH.,#3740);
#3760=PRESENTATION_STYLE_ASSIGNMENT((#3750));
#3770=CARTESIAN_POINT('',(46.6706118247427,43.4560942357015,
-4.44089209850063E-16));
#3780=DIRECTION('',(1.,0.,0.));
#3790=DIRECTION('',(0.,-1.,0.));
#3800=AXIS2_PLACEMENT_3D('',#3770,#3780,#3790);
#3810=CYLINDRICAL_SURFACE('',#3800,2.);
#3820=ORIENTED_EDGE('',*,*,#300,.F.);
#3830=ORIENTED_EDGE('',*,*,#3570,.T.);
#3840=EDGE_CURVE('',#1260,#1410,#1480,.T.);
#3850=ORIENTED_EDGE('',*,*,#3840,.T.);
#3860=ORIENTED_EDGE('',*,*,#3640,.F.);
#3870=EDGE_LOOP('',(#3860,#3850,#3830,#3820));
#3880=FACE_OUTER_BOUND('',#3870,.T.);
#3890=ADVANCED_FACE('',(#3880),#3810,.T.);
#3900=COLOUR_RGB('',0.729411780834198,0.768627524375916,
0.784313797950745);
#3910=FILL_AREA_STYLE_COLOUR('',#3900);
#3920=FILL_AREA_STYLE('',(#3910));
#3930=SURFACE_STYLE_FILL_AREA(#3920);
#3940=SURFACE_SIDE_STYLE('',(#3930));
#3950=SURFACE_STYLE_USAGE(.BOTH.,#3940);
#3960=PRESENTATION_STYLE_ASSIGNMENT((#3950));
#3970=CARTESIAN_POINT('',(58.1706118247427,43.4560942357015,
-4.44089209850063E-16));
#3980=DIRECTION('',(1.,0.,0.));
#3990=DIRECTION('',(0.,1.,0.));
#4000=AXIS2_PLACEMENT_3D('',#3970,#3980,#3990);
#4010=CYLINDRICAL_SURFACE('',#4000,1.5);
#4020=ORIENTED_EDGE('',*,*,#2380,.T.);
#4030=ORIENTED_EDGE('',*,*,#2780,.F.);
#4040=EDGE_CURVE('',#2710,#2620,#2690,.T.);
#4050=ORIENTED_EDGE('',*,*,#4040,.F.);
#4060=ORIENTED_EDGE('',*,*,#2630,.T.);
#4070=EDGE_LOOP('',(#4060,#4050,#4030,#4020));
#4080=FACE_OUTER_BOUND('',#4070,.T.);
#4090=ADVANCED_FACE('',(#4080),#4010,.T.);
#4100=COLOUR_RGB('',0.729411780834198,0.768627524375916,
0.784313797950745);
#4110=FILL_AREA_STYLE_COLOUR('',#4100);
#4120=FILL_AREA_STYLE('',(#4110));
#4130=SURFACE_STYLE_FILL_AREA(#4120);
#4140=SURFACE_SIDE_STYLE('',(#4130));
#4150=SURFACE_STYLE_USAGE(.BOTH.,#4140);
#4160=PRESENTATION_STYLE_ASSIGNMENT((#4150));
#4170=CARTESIAN_POINT('',(58.1706118247427,43.4560942357015,
-4.44089209850063E-16));
#4180=DIRECTION('',(-1.,0.,0.));
#4190=DIRECTION('',(0.,1.,0.));
#4200=AXIS2_PLACEMENT_3D('',#4170,#4180,#4190);
#4210=CONICAL_SURFACE('',#4200,1.,0.785398163397448);
#4220=ORIENTED_EDGE('',*,*,#3350,.F.);
#4230=ORIENTED_EDGE('',*,*,#3110,.F.);
#4240=ORIENTED_EDGE('',*,*,#4040,.T.);
#4250=ORIENTED_EDGE('',*,*,#3020,.T.);
#4260=EDGE_LOOP('',(#4250,#4240,#4230,#4220));
#4270=FACE_OUTER_BOUND('',#4260,.T.);
#4280=ADVANCED_FACE('',(#4270),#4210,.T.);
#4290=COLOUR_RGB('',0.729411780834198,0.768627524375916,
0.784313797950745);
#4300=FILL_AREA_STYLE_COLOUR('',#4290);
#4310=FILL_AREA_STYLE('',(#4300));
#4320=SURFACE_STYLE_FILL_AREA(#4310);
#4330=SURFACE_SIDE_STYLE('',(#4320));
#4340=SURFACE_STYLE_USAGE(.BOTH.,#4330);
#4350=PRESENTATION_STYLE_ASSIGNMENT((#4340));
#4360=CARTESIAN_POINT('',(53.1706118247427,43.4560942357015,
-4.44089209850063E-16));
#4370=DIRECTION('',(1.,0.,0.));
#4380=DIRECTION('',(0.,0.,1.));
#4390=AXIS2_PLACEMENT_3D('',#4360,#4370,#4380);
#4400=CYLINDRICAL_SURFACE('',#4390,1.15);
#4410=ORIENTED_EDGE('',*,*,#2240,.F.);
#4420=ORIENTED_EDGE('',*,*,#1720,.T.);
#4430=ORIENTED_EDGE('',*,*,#150,.T.);
#4440=ORIENTED_EDGE('',*,*,#1870,.F.);
#4450=EDGE_LOOP('',(#4440,#4430,#4420,#4410));
#4460=FACE_OUTER_BOUND('',#4450,.T.);
#4470=ADVANCED_FACE('',(#4460),#4400,.T.);
#4480=COLOUR_RGB('',0.729411780834198,0.768627524375916,
0.784313797950745);
#4490=FILL_AREA_STYLE_COLOUR('',#4480);
#4500=FILL_AREA_STYLE('',(#4490));
#4510=SURFACE_STYLE_FILL_AREA(#4500);
#4520=SURFACE_SIDE_STYLE('',(#4510));
#4530=SURFACE_STYLE_USAGE(.BOTH.,#4520);
#4540=PRESENTATION_STYLE_ASSIGNMENT((#4530));
#4550=CARTESIAN_POINT('',(35.1706118247427,43.4560942357015,
-4.44089209850063E-16));
#4560=DIRECTION('',(1.,0.,0.));
#4570=DIRECTION('',(0.,-1.,0.));
#4580=AXIS2_PLACEMENT_3D('',#4550,#4560,#4570);
#4590=SPHERICAL_SURFACE('',#4580,2.);
#4600=ORIENTED_EDGE('',*,*,#2070,.T.);
#4610=ORIENTED_EDGE('',*,*,#1290,.T.);
#4620=ORIENTED_EDGE('',*,*,#3840,.F.);
#4630=ORIENTED_EDGE('',*,*,#1420,.T.);
#4640=ORIENTED_EDGE('',*,*,#1010,.T.);
#4650=ORIENTED_EDGE('',*,*,#760,.T.);
#4660=EDGE_LOOP('',(#4650,#4640,#4630,#4620,#4610,#4600));
#4670=FACE_OUTER_BOUND('',#4660,.T.);
#4680=ADVANCED_FACE('',(#4670),#4590,.T.);
#4690=COLOUR_RGB('',0.729411780834198,0.768627524375916,
0.784313797950745);
#4700=FILL_AREA_STYLE_COLOUR('',#4690);
#4710=FILL_AREA_STYLE('',(#4700));
#4720=SURFACE_STYLE_FILL_AREA(#4710);
#4730=SURFACE_SIDE_STYLE('',(#4720));
#4740=SURFACE_STYLE_USAGE(.BOTH.,#4730);
#4750=PRESENTATION_STYLE_ASSIGNMENT((#4740));
#4760=CLOSED_SHELL('',(#360,#800,#1070,#1530,#1920,#2110,#2440,#2830,
#3220,#3400,#3690,#3890,#4090,#4280,#4470,#4680));
#4770=MANIFOLD_SOLID_BREP('',#4760);
#4780=CARTESIAN_POINT('',(0.,0.,0.));
#4790=DIRECTION('',(0.,0.,1.));
#4800=DIRECTION('',(1.,0.,0.));
#4810=AXIS2_PLACEMENT_3D('',#4780,#4790,#4800);
#4820=APPLICATION_CONTEXT(' ');
#4830=APPLICATION_PROTOCOL_DEFINITION(' ','automotive_design',1998,#4820
);
#4840=PRODUCT_CONTEXT('',#4820,'mechanical');
#4850=PRODUCT_DEFINITION_CONTEXT('part definition',#4820,'design');
#4860=PRODUCT('HC_CST-select','HC_CST-select','',(#4840));
#4870=PRODUCT_RELATED_PRODUCT_CATEGORY('part',' ',(#4860));
#4880=PRODUCT_DEFINITION_FORMATION_WITH_SPECIFIED_SOURCE('','',#4860,
.BOUGHT.);
#4890=PRODUCT_DEFINITION('',' ',#4880,#4850);
#4900=PRODUCT_DEFINITION_SHAPE('','',#4890);
#4910=DIMENSIONAL_EXPONENTS(1.,0.,0.,0.,0.,0.,0.);
#4920=DIMENSIONAL_EXPONENTS(0.,0.,0.,0.,0.,0.,0.);
#4930=DIMENSIONAL_EXPONENTS(0.,0.,0.,0.,0.,0.,0.);
#4940=(LENGTH_UNIT() NAMED_UNIT(*) SI_UNIT(.MILLI.,.METRE.));
#4950=(NAMED_UNIT(*) PLANE_ANGLE_UNIT() SI_UNIT($,.RADIAN.));
#4960=(NAMED_UNIT(*) SI_UNIT($,.STERADIAN.) SOLID_ANGLE_UNIT());
#4970=(GEOMETRIC_REPRESENTATION_CONTEXT(3) 
GLOBAL_UNCERTAINTY_ASSIGNED_CONTEXT((#4980)) 
GLOBAL_UNIT_ASSIGNED_CONTEXT((#4940,#4950,#4960)) REPRESENTATION_CONTEXT
('',''));
#4980=UNCERTAINTY_MEASURE_WITH_UNIT(LENGTH_MEASURE(0.0026),#4940,
'distance_accuracy_value','maximum gap value');
#4990=ADVANCED_BREP_SHAPE_REPRESENTATION('',(#4810,#4770),#4970);
#5000=SHAPE_DEFINITION_REPRESENTATION(#4900,#4990);
#5010=COLOUR_RGB('',0.729411780834198,0.768627524375916,
0.784313797950745);
#5020=FILL_AREA_STYLE_COLOUR('',#5010);
#5030=FILL_AREA_STYLE('',(#5020));
#5040=SURFACE_STYLE_FILL_AREA(#5030);
#5050=SURFACE_SIDE_STYLE('',(#5040));
#5060=SURFACE_STYLE_USAGE(.BOTH.,#5050);
#5070=PRESENTATION_STYLE_ASSIGNMENT((#5060));
#5080=STYLED_ITEM('',(#5070),#4770);
#5090=OVER_RIDING_STYLED_ITEM('',(#430),#360,#5080);
#5100=OVER_RIDING_STYLED_ITEM('',(#870),#800,#5080);
#5110=OVER_RIDING_STYLED_ITEM('',(#1140),#1070,#5080);
#5120=OVER_RIDING_STYLED_ITEM('',(#1600),#1530,#5080);
#5130=OVER_RIDING_STYLED_ITEM('',(#1990),#1920,#5080);
#5140=OVER_RIDING_STYLED_ITEM('',(#2180),#2110,#5080);
#5150=OVER_RIDING_STYLED_ITEM('',(#2510),#2440,#5080);
#5160=OVER_RIDING_STYLED_ITEM('',(#2900),#2830,#5080);
#5170=OVER_RIDING_STYLED_ITEM('',(#3290),#3220,#5080);
#5180=OVER_RIDING_STYLED_ITEM('',(#3470),#3400,#5080);
#5190=OVER_RIDING_STYLED_ITEM('',(#3760),#3690,#5080);
#5200=OVER_RIDING_STYLED_ITEM('',(#3960),#3890,#5080);
#5210=OVER_RIDING_STYLED_ITEM('',(#4160),#4090,#5080);
#5220=OVER_RIDING_STYLED_ITEM('',(#4350),#4280,#5080);
#5230=OVER_RIDING_STYLED_ITEM('',(#4540),#4470,#5080);
#5240=OVER_RIDING_STYLED_ITEM('',(#4750),#4680,#5080);
#5250=DRAUGHTING_MODEL('',(#5080,#5090,#5100,#5110,#5120,#5130,#5140,
#5150,#5160,#5170,#5180,#5190,#5200,#5210,#5220,#5230,#5240),#4970);
#5260=CARTESIAN_POINT('',(2.,45.4560942357015,58.1706118247424));
#5270=DIRECTION('',(-1.,0.,0.));
#5280=DIRECTION('',(0.,0.,-1.));
#5290=AXIS2_PLACEMENT_3D('',#5260,#5270,#5280);
#5300=ITEM_DEFINED_TRANSFORMATION('HC_CST-select','',#4810,#5290);
#5310=APPLICATION_CONTEXT(' ');
#5320=APPLICATION_PROTOCOL_DEFINITION(' ','automotive_design',1998,#5310
);
#5330=PRODUCT_CONTEXT('',#5310,'mechanical');
#5340=PRODUCT_DEFINITION_CONTEXT('part definition',#5310,'design');
#5350=PRODUCT('HC_CST-select','HC_CST-select','',(#5330));
#5360=PRODUCT_RELATED_PRODUCT_CATEGORY('part',' ',(#5350));
#5370=PRODUCT_DEFINITION_FORMATION_WITH_SPECIFIED_SOURCE('','',#5350,
.BOUGHT.);
#5380=PRODUCT_DEFINITION('',' ',#5370,#5340);
#5390=PRODUCT_DEFINITION_SHAPE('','',#5380);
#5400=DIMENSIONAL_EXPONENTS(1.,0.,0.,0.,0.,0.,0.);
#5410=DIMENSIONAL_EXPONENTS(0.,0.,0.,0.,0.,0.,0.);
#5420=DIMENSIONAL_EXPONENTS(0.,0.,0.,0.,0.,0.,0.);
#5430=(LENGTH_UNIT() NAMED_UNIT(*) SI_UNIT(.MILLI.,.METRE.));
#5440=(NAMED_UNIT(*) PLANE_ANGLE_UNIT() SI_UNIT($,.RADIAN.));
#5450=(NAMED_UNIT(*) SI_UNIT($,.STERADIAN.) SOLID_ANGLE_UNIT());
#5460=(GEOMETRIC_REPRESENTATION_CONTEXT(3) 
GLOBAL_UNCERTAINTY_ASSIGNED_CONTEXT((#5470)) 
GLOBAL_UNIT_ASSIGNED_CONTEXT((#5430,#5440,#5450)) REPRESENTATION_CONTEXT
('',''));
#5470=UNCERTAINTY_MEASURE_WITH_UNIT(LENGTH_MEASURE(0.0026),#5430,
'distance_accuracy_value','maximum gap value');
#5480=SHAPE_REPRESENTATION('',(#4810,#5290),#5460);
#5490=SHAPE_DEFINITION_REPRESENTATION(#5390,#5480);
#5500=(REPRESENTATION_RELATIONSHIP('','',#4990,#5480) 
REPRESENTATION_RELATIONSHIP_WITH_TRANSFORMATION(#5300) 
SHAPE_REPRESENTATION_RELATIONSHIP());
#5510=NEXT_ASSEMBLY_USAGE_OCCURRENCE('1','','HC_CST-select',#5380,#4890,
'');
#5520=PRODUCT_DEFINITION_SHAPE('','',#5510);
#5530=CONTEXT_DEPENDENT_SHAPE_REPRESENTATION(#5500,#5520);
ENDSEC;
END-ISO-10303-21;
