ISO-10303-21;
HEADER;
FILE_DESCRIPTION(('Creo Elements/Direct Modeling STEP Export'),'2;1');
FILE_NAME(
'D:/temp/JobSpoolerServerData/JobServer Files/4d9c2097-9bb9-4e5b-8079-63
43d64c482b/work/output/model.stp','2018-05-24T15:39:27',(''),(''),
'Creo Elements/Direct Modeling STEP processor for AP214 (Solid Model)',
'Creo Elements/Direct Modeling 18.1I  14-Aug-2016 (C) Parametric Technol
ogy GmbH','');
FILE_SCHEMA(('AUTOMOTIVE_DESIGN { 1 0 10303 214 1 1 1 1 }'));
ENDSEC;
DATA;
#10=CARTESIAN_POINT('',(0.,0.,-1.));
#20=DIRECTION('',(0.,0.,1.));
#30=DIRECTION('',(1.,0.,0.));
#40=AXIS2_PLACEMENT_3D('',#10,#20,#30);
#50=PLANE('',#40);
#60=CARTESIAN_POINT('',(0.,0.,-1.));
#70=DIRECTION('',(0.,0.,1.));
#80=DIRECTION('',(1.,0.,0.));
#90=AXIS2_PLACEMENT_3D('',#60,#70,#80);
#100=CIRCLE('',#90,12.5);
#110=CARTESIAN_POINT('',(12.5,0.,-1.));
#120=VERTEX_POINT('',#110);
#130=CARTESIAN_POINT('',(-12.5,1.53080849893419E-15,-1.));
#140=VERTEX_POINT('',#130);
#150=EDGE_CURVE('',#120,#140,#100,.T.);
#160=ORIENTED_EDGE('',*,*,#150,.F.);
#170=EDGE_CURVE('',#140,#120,#100,.T.);
#180=ORIENTED_EDGE('',*,*,#170,.F.);
#190=EDGE_LOOP('',(#180,#160));
#200=FACE_OUTER_BOUND('',#190,.T.);
#210=ADVANCED_FACE('',(#200),#50,.F.);
#220=COLOUR_RGB('',0.709803938865662,0.713725507259369,0.709803938865662
);
#230=FILL_AREA_STYLE_COLOUR('',#220);
#240=FILL_AREA_STYLE('',(#230));
#250=SURFACE_STYLE_FILL_AREA(#240);
#260=SURFACE_SIDE_STYLE('',(#250));
#270=SURFACE_STYLE_USAGE(.BOTH.,#260);
#280=PRESENTATION_STYLE_ASSIGNMENT((#270));
#290=CARTESIAN_POINT('',(0.,0.,5.1));
#300=DIRECTION('',(0.,0.,1.));
#310=DIRECTION('',(1.,0.,0.));
#320=AXIS2_PLACEMENT_3D('',#290,#300,#310);
#330=PLANE('',#320);
#340=CARTESIAN_POINT('',(0.,0.,5.1));
#350=DIRECTION('',(0.,0.,-1.));
#360=DIRECTION('',(-1.,1.22464679914735E-16,0.));
#370=AXIS2_PLACEMENT_3D('',#340,#350,#360);
#380=CIRCLE('',#370,13.25);
#390=CARTESIAN_POINT('',(-13.25,1.62265700887024E-15,5.1));
#400=VERTEX_POINT('',#390);
#410=CARTESIAN_POINT('',(13.25,0.,5.1));
#420=VERTEX_POINT('',#410);
#430=EDGE_CURVE('',#400,#420,#380,.T.);
#440=ORIENTED_EDGE('',*,*,#430,.F.);
#450=EDGE_CURVE('',#420,#400,#380,.T.);
#460=ORIENTED_EDGE('',*,*,#450,.F.);
#470=EDGE_LOOP('',(#460,#440));
#480=FACE_BOUND('',#470,.T.);
#490=CARTESIAN_POINT('',(0.,0.,5.1));
#500=DIRECTION('',(0.,0.,1.));
#510=DIRECTION('',(1.,0.,0.));
#520=AXIS2_PLACEMENT_3D('',#490,#500,#510);
#530=CIRCLE('',#520,15.);
#540=CARTESIAN_POINT('',(15.,0.,5.1));
#550=VERTEX_POINT('',#540);
#560=CARTESIAN_POINT('',(-15.,1.83697019872103E-15,5.1));
#570=VERTEX_POINT('',#560);
#580=EDGE_CURVE('',#550,#570,#530,.T.);
#590=ORIENTED_EDGE('',*,*,#580,.F.);
#600=EDGE_CURVE('',#570,#550,#530,.T.);
#610=ORIENTED_EDGE('',*,*,#600,.F.);
#620=EDGE_LOOP('',(#610,#590));
#630=FACE_OUTER_BOUND('',#620,.T.);
#640=ADVANCED_FACE('',(#480,#630),#330,.F.);
#650=COLOUR_RGB('',0.709803938865662,0.713725507259369,0.709803938865662
);
#660=FILL_AREA_STYLE_COLOUR('',#650);
#670=FILL_AREA_STYLE('',(#660));
#680=SURFACE_STYLE_FILL_AREA(#670);
#690=SURFACE_SIDE_STYLE('',(#680));
#700=SURFACE_STYLE_USAGE(.BOTH.,#690);
#710=PRESENTATION_STYLE_ASSIGNMENT((#700));
#720=CARTESIAN_POINT('',(0.,0.,0.));
#730=DIRECTION('',(0.,0.,1.));
#740=DIRECTION('',(1.,0.,0.));
#750=AXIS2_PLACEMENT_3D('',#720,#730,#740);
#760=CYLINDRICAL_SURFACE('',#750,12.5);
#770=CARTESIAN_POINT('',(-12.5,1.53080849893419E-15,0.));
#780=DIRECTION('',(0.,0.,1.));
#790=VECTOR('',#780,1.);
#800=LINE('',#770,#790);
#810=CARTESIAN_POINT('',(-12.5,1.53080849893419E-15,3.6));
#820=VERTEX_POINT('',#810);
#830=EDGE_CURVE('',#140,#820,#800,.T.);
#840=ORIENTED_EDGE('',*,*,#830,.T.);
#850=ORIENTED_EDGE('',*,*,#150,.T.);
#860=CARTESIAN_POINT('',(12.5,0.,0.));
#870=DIRECTION('',(0.,0.,1.));
#880=VECTOR('',#870,1.);
#890=LINE('',#860,#880);
#900=CARTESIAN_POINT('',(12.5,-1.53080849893419E-15,3.6));
#910=VERTEX_POINT('',#900);
#920=EDGE_CURVE('',#120,#910,#890,.T.);
#930=ORIENTED_EDGE('',*,*,#920,.F.);
#940=CARTESIAN_POINT('',(0.,0.,3.6));
#950=DIRECTION('',(0.,0.,1.));
#960=DIRECTION('',(-1.,1.22464679914735E-16,0.));
#970=AXIS2_PLACEMENT_3D('',#940,#950,#960);
#980=CIRCLE('',#970,12.5);
#990=EDGE_CURVE('',#910,#820,#980,.T.);
#1000=ORIENTED_EDGE('',*,*,#990,.F.);
#1010=EDGE_LOOP('',(#1000,#930,#850,#840));
#1020=FACE_OUTER_BOUND('',#1010,.T.);
#1030=ADVANCED_FACE('',(#1020),#760,.T.);
#1040=COLOUR_RGB('',0.709803938865662,0.713725507259369,
0.709803938865662);
#1050=FILL_AREA_STYLE_COLOUR('',#1040);
#1060=FILL_AREA_STYLE('',(#1050));
#1070=SURFACE_STYLE_FILL_AREA(#1060);
#1080=SURFACE_SIDE_STYLE('',(#1070));
#1090=SURFACE_STYLE_USAGE(.BOTH.,#1080);
#1100=PRESENTATION_STYLE_ASSIGNMENT((#1090));
#1110=CARTESIAN_POINT('',(0.,0.,4.725));
#1120=DIRECTION('',(0.,0.,-1.));
#1130=DIRECTION('',(-1.,1.22464679914735E-16,0.));
#1140=AXIS2_PLACEMENT_3D('',#1110,#1120,#1130);
#1150=CYLINDRICAL_SURFACE('',#1140,13.25);
#1160=CARTESIAN_POINT('',(13.25,0.,4.725));
#1170=DIRECTION('',(0.,0.,-1.));
#1180=VECTOR('',#1170,1.);
#1190=LINE('',#1160,#1180);
#1200=CARTESIAN_POINT('',(13.25,-1.62265700887024E-15,4.35));
#1210=VERTEX_POINT('',#1200);
#1220=EDGE_CURVE('',#420,#1210,#1190,.T.);
#1230=ORIENTED_EDGE('',*,*,#1220,.T.);
#1240=ORIENTED_EDGE('',*,*,#430,.T.);
#1250=CARTESIAN_POINT('',(-13.25,1.62265700887024E-15,4.725));
#1260=DIRECTION('',(0.,0.,-1.));
#1270=VECTOR('',#1260,1.);
#1280=LINE('',#1250,#1270);
#1290=CARTESIAN_POINT('',(-13.25,1.62265700887024E-15,4.35));
#1300=VERTEX_POINT('',#1290);
#1310=EDGE_CURVE('',#400,#1300,#1280,.T.);
#1320=ORIENTED_EDGE('',*,*,#1310,.F.);
#1330=CARTESIAN_POINT('',(0.,0.,4.35));
#1340=DIRECTION('',(0.,0.,1.));
#1350=DIRECTION('',(-1.,1.22464679914735E-16,0.));
#1360=AXIS2_PLACEMENT_3D('',#1330,#1340,#1350);
#1370=CIRCLE('',#1360,13.25);
#1380=EDGE_CURVE('',#1210,#1300,#1370,.T.);
#1390=ORIENTED_EDGE('',*,*,#1380,.T.);
#1400=EDGE_LOOP('',(#1390,#1320,#1240,#1230));
#1410=FACE_OUTER_BOUND('',#1400,.T.);
#1420=ADVANCED_FACE('',(#1410),#1150,.T.);
#1430=COLOUR_RGB('',0.313725501298904,0.313725501298904,
0.313725501298904);
#1440=FILL_AREA_STYLE_COLOUR('',#1430);
#1450=FILL_AREA_STYLE('',(#1440));
#1460=SURFACE_STYLE_FILL_AREA(#1450);
#1470=SURFACE_SIDE_STYLE('',(#1460));
#1480=SURFACE_STYLE_USAGE(.BOTH.,#1470);
#1490=PRESENTATION_STYLE_ASSIGNMENT((#1480));
#1500=CARTESIAN_POINT('',(0.,0.,4.35));
#1510=DIRECTION('',(0.,0.,1.));
#1520=DIRECTION('',(-1.,1.22464679914735E-16,0.));
#1530=AXIS2_PLACEMENT_3D('',#1500,#1510,#1520);
#1540=TOROIDAL_SURFACE('',#1530,12.5,0.75);
#1550=CARTESIAN_POINT('',(12.5,-1.53080849893419E-15,4.35));
#1560=DIRECTION('',(1.22464679914735E-16,1.,0.));
#1570=DIRECTION('',(0.,0.,1.));
#1580=AXIS2_PLACEMENT_3D('',#1550,#1560,#1570);
#1590=CIRCLE('',#1580,0.75);
#1600=EDGE_CURVE('',#1210,#910,#1590,.T.);
#1610=ORIENTED_EDGE('',*,*,#1600,.T.);
#1620=ORIENTED_EDGE('',*,*,#1380,.F.);
#1630=CARTESIAN_POINT('',(-12.5,1.53080849893419E-15,4.35));
#1640=DIRECTION('',(-1.22464679914735E-16,-1.,0.));
#1650=DIRECTION('',(0.,0.,1.));
#1660=AXIS2_PLACEMENT_3D('',#1630,#1640,#1650);
#1670=CIRCLE('',#1660,0.75);
#1680=EDGE_CURVE('',#1300,#820,#1670,.T.);
#1690=ORIENTED_EDGE('',*,*,#1680,.F.);
#1700=ORIENTED_EDGE('',*,*,#990,.T.);
#1710=EDGE_LOOP('',(#1700,#1690,#1620,#1610));
#1720=FACE_OUTER_BOUND('',#1710,.T.);
#1730=ADVANCED_FACE('',(#1720),#1540,.T.);
#1740=COLOUR_RGB('',0.313725501298904,0.313725501298904,
0.313725501298904);
#1750=FILL_AREA_STYLE_COLOUR('',#1740);
#1760=FILL_AREA_STYLE('',(#1750));
#1770=SURFACE_STYLE_FILL_AREA(#1760);
#1780=SURFACE_SIDE_STYLE('',(#1770));
#1790=SURFACE_STYLE_USAGE(.BOTH.,#1780);
#1800=PRESENTATION_STYLE_ASSIGNMENT((#1790));
#1810=CARTESIAN_POINT('',(0.,0.,0.));
#1820=DIRECTION('',(0.,0.,1.));
#1830=DIRECTION('',(1.,0.,0.));
#1840=AXIS2_PLACEMENT_3D('',#1810,#1820,#1830);
#1850=CYLINDRICAL_SURFACE('',#1840,12.5);
#1860=ORIENTED_EDGE('',*,*,#830,.F.);
#1870=EDGE_CURVE('',#820,#910,#980,.T.);
#1880=ORIENTED_EDGE('',*,*,#1870,.F.);
#1890=ORIENTED_EDGE('',*,*,#920,.T.);
#1900=ORIENTED_EDGE('',*,*,#170,.T.);
#1910=EDGE_LOOP('',(#1900,#1890,#1880,#1860));
#1920=FACE_OUTER_BOUND('',#1910,.T.);
#1930=ADVANCED_FACE('',(#1920),#1850,.T.);
#1940=COLOUR_RGB('',0.709803938865662,0.713725507259369,
0.709803938865662);
#1950=FILL_AREA_STYLE_COLOUR('',#1940);
#1960=FILL_AREA_STYLE('',(#1950));
#1970=SURFACE_STYLE_FILL_AREA(#1960);
#1980=SURFACE_SIDE_STYLE('',(#1970));
#1990=SURFACE_STYLE_USAGE(.BOTH.,#1980);
#2000=PRESENTATION_STYLE_ASSIGNMENT((#1990));
#2010=CARTESIAN_POINT('',(0.,0.,4.725));
#2020=DIRECTION('',(0.,0.,-1.));
#2030=DIRECTION('',(-1.,1.22464679914735E-16,0.));
#2040=AXIS2_PLACEMENT_3D('',#2010,#2020,#2030);
#2050=CYLINDRICAL_SURFACE('',#2040,13.25);
#2060=ORIENTED_EDGE('',*,*,#1220,.F.);
#2070=EDGE_CURVE('',#1300,#1210,#1370,.T.);
#2080=ORIENTED_EDGE('',*,*,#2070,.T.);
#2090=ORIENTED_EDGE('',*,*,#1310,.T.);
#2100=ORIENTED_EDGE('',*,*,#450,.T.);
#2110=EDGE_LOOP('',(#2100,#2090,#2080,#2060));
#2120=FACE_OUTER_BOUND('',#2110,.T.);
#2130=ADVANCED_FACE('',(#2120),#2050,.T.);
#2140=COLOUR_RGB('',0.313725501298904,0.313725501298904,
0.313725501298904);
#2150=FILL_AREA_STYLE_COLOUR('',#2140);
#2160=FILL_AREA_STYLE('',(#2150));
#2170=SURFACE_STYLE_FILL_AREA(#2160);
#2180=SURFACE_SIDE_STYLE('',(#2170));
#2190=SURFACE_STYLE_USAGE(.BOTH.,#2180);
#2200=PRESENTATION_STYLE_ASSIGNMENT((#2190));
#2210=CARTESIAN_POINT('',(0.,0.,4.35));
#2220=DIRECTION('',(0.,0.,1.));
#2230=DIRECTION('',(-1.,1.22464679914735E-16,0.));
#2240=AXIS2_PLACEMENT_3D('',#2210,#2220,#2230);
#2250=TOROIDAL_SURFACE('',#2240,12.5,0.75);
#2260=ORIENTED_EDGE('',*,*,#2070,.F.);
#2270=ORIENTED_EDGE('',*,*,#1600,.F.);
#2280=ORIENTED_EDGE('',*,*,#1870,.T.);
#2290=ORIENTED_EDGE('',*,*,#1680,.T.);
#2300=EDGE_LOOP('',(#2290,#2280,#2270,#2260));
#2310=FACE_OUTER_BOUND('',#2300,.T.);
#2320=ADVANCED_FACE('',(#2310),#2250,.T.);
#2330=COLOUR_RGB('',0.313725501298904,0.313725501298904,
0.313725501298904);
#2340=FILL_AREA_STYLE_COLOUR('',#2330);
#2350=FILL_AREA_STYLE('',(#2340));
#2360=SURFACE_STYLE_FILL_AREA(#2350);
#2370=SURFACE_SIDE_STYLE('',(#2360));
#2380=SURFACE_STYLE_USAGE(.BOTH.,#2370);
#2390=PRESENTATION_STYLE_ASSIGNMENT((#2380));
#2400=CARTESIAN_POINT('',(0.,0.,0.));
#2410=DIRECTION('',(0.,0.,1.));
#2420=DIRECTION('',(1.,0.,0.));
#2430=AXIS2_PLACEMENT_3D('',#2400,#2410,#2420);
#2440=CYLINDRICAL_SURFACE('',#2430,15.);
#2450=CARTESIAN_POINT('',(-15.,1.83697019872103E-15,0.));
#2460=DIRECTION('',(0.,0.,1.));
#2470=VECTOR('',#2460,1.);
#2480=LINE('',#2450,#2470);
#2490=CARTESIAN_POINT('',(-15.,1.83697019872103E-15,6.62810758236673));
#2500=VERTEX_POINT('',#2490);
#2510=EDGE_CURVE('',#570,#2500,#2480,.T.);
#2520=ORIENTED_EDGE('',*,*,#2510,.F.);
#2530=CARTESIAN_POINT('',(0.,0.,6.62810758236672));
#2540=DIRECTION('',(0.,0.,1.));
#2550=DIRECTION('',(1.,0.,0.));
#2560=AXIS2_PLACEMENT_3D('',#2530,#2540,#2550);
#2570=CIRCLE('',#2560,15.);
#2580=CARTESIAN_POINT('',(15.,-1.83697019872103E-15,6.62810758236673));
#2590=VERTEX_POINT('',#2580);
#2600=EDGE_CURVE('',#2500,#2590,#2570,.T.);
#2610=ORIENTED_EDGE('',*,*,#2600,.F.);
#2620=CARTESIAN_POINT('',(15.,0.,0.));
#2630=DIRECTION('',(0.,0.,1.));
#2640=VECTOR('',#2630,1.);
#2650=LINE('',#2620,#2640);
#2660=EDGE_CURVE('',#550,#2590,#2650,.T.);
#2670=ORIENTED_EDGE('',*,*,#2660,.T.);
#2680=ORIENTED_EDGE('',*,*,#600,.T.);
#2690=EDGE_LOOP('',(#2680,#2670,#2610,#2520));
#2700=FACE_OUTER_BOUND('',#2690,.T.);
#2710=ADVANCED_FACE('',(#2700),#2440,.T.);
#2720=COLOUR_RGB('',0.709803938865662,0.713725507259369,
0.709803938865662);
#2730=FILL_AREA_STYLE_COLOUR('',#2720);
#2740=FILL_AREA_STYLE('',(#2730));
#2750=SURFACE_STYLE_FILL_AREA(#2740);
#2760=SURFACE_SIDE_STYLE('',(#2750));
#2770=SURFACE_STYLE_USAGE(.BOTH.,#2760);
#2780=PRESENTATION_STYLE_ASSIGNMENT((#2770));
#2790=CARTESIAN_POINT('',(0.,0.,-25.05));
#2800=DIRECTION('',(0.,0.,1.));
#2810=DIRECTION('',(1.,-1.22464679914735E-16,0.));
#2820=AXIS2_PLACEMENT_3D('',#2790,#2800,#2810);
#2830=SPHERICAL_SURFACE('',#2820,35.05);
#2840=CARTESIAN_POINT('',(0.,0.,-25.05));
#2850=DIRECTION('',(1.22464679914735E-16,1.,0.));
#2860=DIRECTION('',(1.,-1.22464679914735E-16,0.));
#2870=AXIS2_PLACEMENT_3D('',#2840,#2850,#2860);
#2880=CIRCLE('',#2870,35.05);
#2890=CARTESIAN_POINT('',(-1.00000000000002,1.22464679914737E-16,
9.98573176058979));
#2900=VERTEX_POINT('',#2890);
#2910=EDGE_CURVE('',#2500,#2900,#2880,.T.);
#2920=ORIENTED_EDGE('',*,*,#2910,.T.);
#2930=EDGE_CURVE('',#2590,#2500,#2570,.T.);
#2940=ORIENTED_EDGE('',*,*,#2930,.T.);
#2950=CARTESIAN_POINT('',(1.,-1.22464679914736E-16,9.98573176058979));
#2960=VERTEX_POINT('',#2950);
#2970=EDGE_CURVE('',#2960,#2590,#2880,.T.);
#2980=ORIENTED_EDGE('',*,*,#2970,.T.);
#2990=CARTESIAN_POINT('',(1.,-1.22464679914735E-16,-25.05));
#3000=DIRECTION('',(1.,-1.22464679914735E-16,0.));
#3010=DIRECTION('',(-1.22464679914735E-16,-1.,0.));
#3020=AXIS2_PLACEMENT_3D('',#2990,#3000,#3010);
#3030=CIRCLE('',#3020,35.0357317605898);
#3040=CARTESIAN_POINT('',(1.,9.22293337284836,8.75));
#3050=VERTEX_POINT('',#3040);
#3060=EDGE_CURVE('',#3050,#2960,#3030,.T.);
#3070=ORIENTED_EDGE('',*,*,#3060,.T.);
#3080=CARTESIAN_POINT('',(0.,0.,8.75));
#3090=DIRECTION('',(0.,0.,-1.));
#3100=DIRECTION('',(1.,0.,0.));
#3110=AXIS2_PLACEMENT_3D('',#3080,#3090,#3100);
#3120=CIRCLE('',#3110,9.27698765763974);
#3130=CARTESIAN_POINT('',(-0.999999999999999,9.22293337284834,8.75));
#3140=VERTEX_POINT('',#3130);
#3150=EDGE_CURVE('',#3140,#3050,#3120,.T.);
#3160=ORIENTED_EDGE('',*,*,#3150,.T.);
#3170=CARTESIAN_POINT('',(-1.,1.22464679914735E-16,-25.05));
#3180=DIRECTION('',(-1.,1.22464679914735E-16,0.));
#3190=DIRECTION('',(1.22464679914735E-16,1.,0.));
#3200=AXIS2_PLACEMENT_3D('',#3170,#3180,#3190);
#3210=CIRCLE('',#3200,35.0357317605898);
#3220=EDGE_CURVE('',#2900,#3140,#3210,.T.);
#3230=ORIENTED_EDGE('',*,*,#3220,.T.);
#3240=EDGE_LOOP('',(#3230,#3160,#3070,#2980,#2940,#2920));
#3250=FACE_OUTER_BOUND('',#3240,.T.);
#3260=ADVANCED_FACE('',(#3250),#2830,.T.);
#3270=COLOUR_RGB('',0.709803938865662,0.713725507259369,
0.709803938865662);
#3280=FILL_AREA_STYLE_COLOUR('',#3270);
#3290=FILL_AREA_STYLE('',(#3280));
#3300=SURFACE_STYLE_FILL_AREA(#3290);
#3310=SURFACE_SIDE_STYLE('',(#3300));
#3320=SURFACE_STYLE_USAGE(.BOTH.,#3310);
#3330=PRESENTATION_STYLE_ASSIGNMENT((#3320));
#3340=CARTESIAN_POINT('',(-0.999999999999998,15.6000114138457,8.75));
#3350=DIRECTION('',(-1.,1.22464679914735E-16,0.));
#3360=DIRECTION('',(0.,0.,1.));
#3370=AXIS2_PLACEMENT_3D('',#3340,#3350,#3360);
#3380=PLANE('',#3370);
#3390=CARTESIAN_POINT('',(-0.999999999999998,15.6000114138457,8.75));
#3400=DIRECTION('',(-1.22464679914735E-16,-1.,0.));
#3410=VECTOR('',#3400,1.);
#3420=LINE('',#3390,#3410);
#3430=CARTESIAN_POINT('',(-1.,-9.22293337284835,8.75));
#3440=VERTEX_POINT('',#3430);
#3450=EDGE_CURVE('',#3140,#3440,#3420,.T.);
#3460=ORIENTED_EDGE('',*,*,#3450,.F.);
#3470=EDGE_CURVE('',#3440,#2900,#3210,.T.);
#3480=ORIENTED_EDGE('',*,*,#3470,.F.);
#3490=ORIENTED_EDGE('',*,*,#3220,.F.);
#3500=EDGE_LOOP('',(#3490,#3480,#3460));
#3510=FACE_OUTER_BOUND('',#3500,.T.);
#3520=ADVANCED_FACE('',(#3510),#3380,.F.);
#3530=COLOUR_RGB('',0.709803938865662,0.713725507259369,
0.709803938865662);
#3540=FILL_AREA_STYLE_COLOUR('',#3530);
#3550=FILL_AREA_STYLE('',(#3540));
#3560=SURFACE_STYLE_FILL_AREA(#3550);
#3570=SURFACE_SIDE_STYLE('',(#3560));
#3580=SURFACE_STYLE_USAGE(.BOTH.,#3570);
#3590=PRESENTATION_STYLE_ASSIGNMENT((#3580));
#3600=CARTESIAN_POINT('',(1.,15.6000114138457,18.75));
#3610=DIRECTION('',(1.,-1.22464679914735E-16,0.));
#3620=DIRECTION('',(0.,0.,-1.));
#3630=AXIS2_PLACEMENT_3D('',#3600,#3610,#3620);
#3640=PLANE('',#3630);
#3650=CARTESIAN_POINT('',(1.,15.6000114138457,8.75));
#3660=DIRECTION('',(-1.22464679914735E-16,-1.,0.));
#3670=VECTOR('',#3660,1.);
#3680=LINE('',#3650,#3670);
#3690=CARTESIAN_POINT('',(1.,-9.22293337284836,8.75));
#3700=VERTEX_POINT('',#3690);
#3710=EDGE_CURVE('',#3050,#3700,#3680,.T.);
#3720=ORIENTED_EDGE('',*,*,#3710,.T.);
#3730=ORIENTED_EDGE('',*,*,#3060,.F.);
#3740=EDGE_CURVE('',#2960,#3700,#3030,.T.);
#3750=ORIENTED_EDGE('',*,*,#3740,.F.);
#3760=EDGE_LOOP('',(#3750,#3730,#3720));
#3770=FACE_OUTER_BOUND('',#3760,.T.);
#3780=ADVANCED_FACE('',(#3770),#3640,.F.);
#3790=COLOUR_RGB('',0.709803938865662,0.713725507259369,
0.709803938865662);
#3800=FILL_AREA_STYLE_COLOUR('',#3790);
#3810=FILL_AREA_STYLE('',(#3800));
#3820=SURFACE_STYLE_FILL_AREA(#3810);
#3830=SURFACE_SIDE_STYLE('',(#3820));
#3840=SURFACE_STYLE_USAGE(.BOTH.,#3830);
#3850=PRESENTATION_STYLE_ASSIGNMENT((#3840));
#3860=CARTESIAN_POINT('',(1.,15.6000114138457,8.75));
#3870=DIRECTION('',(0.,0.,-1.));
#3880=DIRECTION('',(-1.,1.22464679914735E-16,0.));
#3890=AXIS2_PLACEMENT_3D('',#3860,#3870,#3880);
#3900=PLANE('',#3890);
#3910=ORIENTED_EDGE('',*,*,#3450,.T.);
#3920=ORIENTED_EDGE('',*,*,#3150,.F.);
#3930=ORIENTED_EDGE('',*,*,#3710,.F.);
#3940=EDGE_CURVE('',#3700,#3440,#3120,.T.);
#3950=ORIENTED_EDGE('',*,*,#3940,.F.);
#3960=EDGE_LOOP('',(#3950,#3930,#3920,#3910));
#3970=FACE_OUTER_BOUND('',#3960,.T.);
#3980=ADVANCED_FACE('',(#3970),#3900,.F.);
#3990=COLOUR_RGB('',0.709803938865662,0.713725507259369,
0.709803938865662);
#4000=FILL_AREA_STYLE_COLOUR('',#3990);
#4010=FILL_AREA_STYLE('',(#4000));
#4020=SURFACE_STYLE_FILL_AREA(#4010);
#4030=SURFACE_SIDE_STYLE('',(#4020));
#4040=SURFACE_STYLE_USAGE(.BOTH.,#4030);
#4050=PRESENTATION_STYLE_ASSIGNMENT((#4040));
#4060=CARTESIAN_POINT('',(0.,0.,0.));
#4070=DIRECTION('',(0.,0.,1.));
#4080=DIRECTION('',(1.,0.,0.));
#4090=AXIS2_PLACEMENT_3D('',#4060,#4070,#4080);
#4100=CYLINDRICAL_SURFACE('',#4090,15.);
#4110=ORIENTED_EDGE('',*,*,#2930,.F.);
#4120=ORIENTED_EDGE('',*,*,#2510,.T.);
#4130=ORIENTED_EDGE('',*,*,#580,.T.);
#4140=ORIENTED_EDGE('',*,*,#2660,.F.);
#4150=EDGE_LOOP('',(#4140,#4130,#4120,#4110));
#4160=FACE_OUTER_BOUND('',#4150,.T.);
#4170=ADVANCED_FACE('',(#4160),#4100,.T.);
#4180=COLOUR_RGB('',0.709803938865662,0.713725507259369,
0.709803938865662);
#4190=FILL_AREA_STYLE_COLOUR('',#4180);
#4200=FILL_AREA_STYLE('',(#4190));
#4210=SURFACE_STYLE_FILL_AREA(#4200);
#4220=SURFACE_SIDE_STYLE('',(#4210));
#4230=SURFACE_STYLE_USAGE(.BOTH.,#4220);
#4240=PRESENTATION_STYLE_ASSIGNMENT((#4230));
#4250=CARTESIAN_POINT('',(0.,0.,-25.05));
#4260=DIRECTION('',(0.,0.,1.));
#4270=DIRECTION('',(1.,-1.22464679914735E-16,0.));
#4280=AXIS2_PLACEMENT_3D('',#4250,#4260,#4270);
#4290=SPHERICAL_SURFACE('',#4280,35.05);
#4300=ORIENTED_EDGE('',*,*,#2910,.F.);
#4310=ORIENTED_EDGE('',*,*,#3470,.T.);
#4320=ORIENTED_EDGE('',*,*,#3940,.T.);
#4330=ORIENTED_EDGE('',*,*,#3740,.T.);
#4340=ORIENTED_EDGE('',*,*,#2970,.F.);
#4350=ORIENTED_EDGE('',*,*,#2600,.T.);
#4360=EDGE_LOOP('',(#4350,#4340,#4330,#4320,#4310,#4300));
#4370=FACE_OUTER_BOUND('',#4360,.T.);
#4380=ADVANCED_FACE('',(#4370),#4290,.T.);
#4390=COLOUR_RGB('',0.709803938865662,0.713725507259369,
0.709803938865662);
#4400=FILL_AREA_STYLE_COLOUR('',#4390);
#4410=FILL_AREA_STYLE('',(#4400));
#4420=SURFACE_STYLE_FILL_AREA(#4410);
#4430=SURFACE_SIDE_STYLE('',(#4420));
#4440=SURFACE_STYLE_USAGE(.BOTH.,#4430);
#4450=PRESENTATION_STYLE_ASSIGNMENT((#4440));
#4460=CLOSED_SHELL('',(#2710,#3260,#3520,#3780,#3980,#4170,#4380,#210,
#640,#1030,#1420,#1730,#1930,#2130,#2320));
#4470=MANIFOLD_SOLID_BREP('',#4460);
#4480=CARTESIAN_POINT('',(0.,0.,0.));
#4490=DIRECTION('',(0.,0.,1.));
#4500=DIRECTION('',(1.,0.,0.));
#4510=AXIS2_PLACEMENT_3D('',#4480,#4490,#4500);
#4520=APPLICATION_CONTEXT(' ');
#4530=APPLICATION_PROTOCOL_DEFINITION(' ','automotive_design',1998,#4520
);
#4540=PRODUCT_CONTEXT('',#4520,'mechanical');
#4550=PRODUCT_DEFINITION_CONTEXT('part definition',#4520,'design');
#4560=PRODUCT('HC_BS_PG21-select','HC_BS_PG21-select','',(#4540));
#4570=PRODUCT_RELATED_PRODUCT_CATEGORY('part',' ',(#4560));
#4580=PRODUCT_DEFINITION_FORMATION_WITH_SPECIFIED_SOURCE('','',#4560,
.BOUGHT.);
#4590=PRODUCT_DEFINITION('',' ',#4580,#4550);
#4600=PRODUCT_DEFINITION_SHAPE('','',#4590);
#4610=DIMENSIONAL_EXPONENTS(1.,0.,0.,0.,0.,0.,0.);
#4620=DIMENSIONAL_EXPONENTS(0.,0.,0.,0.,0.,0.,0.);
#4630=DIMENSIONAL_EXPONENTS(0.,0.,0.,0.,0.,0.,0.);
#4640=(LENGTH_UNIT() NAMED_UNIT(*) SI_UNIT(.MILLI.,.METRE.));
#4650=(NAMED_UNIT(*) PLANE_ANGLE_UNIT() SI_UNIT($,.RADIAN.));
#4660=(NAMED_UNIT(*) SI_UNIT($,.STERADIAN.) SOLID_ANGLE_UNIT());
#4670=(GEOMETRIC_REPRESENTATION_CONTEXT(3) 
GLOBAL_UNCERTAINTY_ASSIGNED_CONTEXT((#4680)) 
GLOBAL_UNIT_ASSIGNED_CONTEXT((#4640,#4650,#4660)) REPRESENTATION_CONTEXT
('',''));
#4680=UNCERTAINTY_MEASURE_WITH_UNIT(LENGTH_MEASURE(1.E-6),#4640,
'distance_accuracy_value','maximum gap value');
#4690=ADVANCED_BREP_SHAPE_REPRESENTATION('',(#4510,#4470),#4670);
#4700=SHAPE_DEFINITION_REPRESENTATION(#4600,#4690);
#4710=COLOUR_RGB('',0.709803938865662,0.713725507259369,
0.709803938865662);
#4720=FILL_AREA_STYLE_COLOUR('',#4710);
#4730=FILL_AREA_STYLE('',(#4720));
#4740=SURFACE_STYLE_FILL_AREA(#4730);
#4750=SURFACE_SIDE_STYLE('',(#4740));
#4760=SURFACE_STYLE_USAGE(.BOTH.,#4750);
#4770=PRESENTATION_STYLE_ASSIGNMENT((#4760));
#4780=STYLED_ITEM('',(#4770),#4470);
#4790=OVER_RIDING_STYLED_ITEM('',(#280),#210,#4780);
#4800=OVER_RIDING_STYLED_ITEM('',(#710),#640,#4780);
#4810=OVER_RIDING_STYLED_ITEM('',(#1100),#1030,#4780);
#4820=OVER_RIDING_STYLED_ITEM('',(#1490),#1420,#4780);
#4830=OVER_RIDING_STYLED_ITEM('',(#1800),#1730,#4780);
#4840=OVER_RIDING_STYLED_ITEM('',(#2000),#1930,#4780);
#4850=OVER_RIDING_STYLED_ITEM('',(#2200),#2130,#4780);
#4860=OVER_RIDING_STYLED_ITEM('',(#2390),#2320,#4780);
#4870=OVER_RIDING_STYLED_ITEM('',(#2780),#2710,#4780);
#4880=OVER_RIDING_STYLED_ITEM('',(#3330),#3260,#4780);
#4890=OVER_RIDING_STYLED_ITEM('',(#3590),#3520,#4780);
#4900=OVER_RIDING_STYLED_ITEM('',(#3850),#3780,#4780);
#4910=OVER_RIDING_STYLED_ITEM('',(#4050),#3980,#4780);
#4920=OVER_RIDING_STYLED_ITEM('',(#4240),#4170,#4780);
#4930=OVER_RIDING_STYLED_ITEM('',(#4450),#4380,#4780);
#4940=DRAUGHTING_MODEL('',(#4780,#4790,#4800,#4810,#4820,#4830,#4840,
#4850,#4860,#4870,#4880,#4890,#4900,#4910,#4920,#4930),#4670);
#4950=CARTESIAN_POINT('',(0.,0.,1.));
#4960=DIRECTION('',(0.,0.,1.));
#4970=DIRECTION('',(1.,0.,0.));
#4980=AXIS2_PLACEMENT_3D('',#4950,#4960,#4970);
#4990=ITEM_DEFINED_TRANSFORMATION('HC_BS_PG21-select','',#4510,#4980);
#5000=APPLICATION_CONTEXT(' ');
#5010=APPLICATION_PROTOCOL_DEFINITION(' ','automotive_design',1998,#5000
);
#5020=PRODUCT_CONTEXT('',#5000,'mechanical');
#5030=PRODUCT_DEFINITION_CONTEXT('part definition',#5000,'design');
#5040=PRODUCT('HC_BS_PG21-select','HC_BS_PG21-select','',(#5020));
#5050=PRODUCT_RELATED_PRODUCT_CATEGORY('part',' ',(#5040));
#5060=PRODUCT_DEFINITION_FORMATION_WITH_SPECIFIED_SOURCE('','',#5040,
.BOUGHT.);
#5070=PRODUCT_DEFINITION('',' ',#5060,#5030);
#5080=PRODUCT_DEFINITION_SHAPE('','',#5070);
#5090=DIMENSIONAL_EXPONENTS(1.,0.,0.,0.,0.,0.,0.);
#5100=DIMENSIONAL_EXPONENTS(0.,0.,0.,0.,0.,0.,0.);
#5110=DIMENSIONAL_EXPONENTS(0.,0.,0.,0.,0.,0.,0.);
#5120=(LENGTH_UNIT() NAMED_UNIT(*) SI_UNIT(.MILLI.,.METRE.));
#5130=(NAMED_UNIT(*) PLANE_ANGLE_UNIT() SI_UNIT($,.RADIAN.));
#5140=(NAMED_UNIT(*) SI_UNIT($,.STERADIAN.) SOLID_ANGLE_UNIT());
#5150=(GEOMETRIC_REPRESENTATION_CONTEXT(3) 
GLOBAL_UNCERTAINTY_ASSIGNED_CONTEXT((#5160)) 
GLOBAL_UNIT_ASSIGNED_CONTEXT((#5120,#5130,#5140)) REPRESENTATION_CONTEXT
('',''));
#5160=UNCERTAINTY_MEASURE_WITH_UNIT(LENGTH_MEASURE(1.E-6),#5120,
'distance_accuracy_value','maximum gap value');
#5170=SHAPE_REPRESENTATION('',(#4510,#4980),#5150);
#5180=SHAPE_DEFINITION_REPRESENTATION(#5080,#5170);
#5190=(REPRESENTATION_RELATIONSHIP('','',#4690,#5170) 
REPRESENTATION_RELATIONSHIP_WITH_TRANSFORMATION(#4990) 
SHAPE_REPRESENTATION_RELATIONSHIP());
#5200=NEXT_ASSEMBLY_USAGE_OCCURRENCE('1','','HC_BS_PG21-select',#5070,
#4590,'');
#5210=PRODUCT_DEFINITION_SHAPE('','',#5200);
#5220=CONTEXT_DEPENDENT_SHAPE_REPRESENTATION(#5190,#5210);
ENDSEC;
END-ISO-10303-21;
