ISO-10303-21;
HEADER;
FILE_DESCRIPTION(('Creo Elements/Direct Modeling STEP Export'),'2;1');
FILE_NAME(
'D:/temp/JobSpoolerServerData/JobServer Files/de6cd055-6056-4190-93dd-91
2cf7d244a2/work/output/model.stp','2018-06-05T14:36:58',(''),(''),
'Creo Elements/Direct Modeling STEP processor for AP214 (Solid Model)',
'Creo Elements/Direct Modeling 18.1I  14-Aug-2016 (C) Parametric Technol
ogy GmbH','');
FILE_SCHEMA(('AUTOMOTIVE_DESIGN { 1 0 10303 214 1 1 1 1 }'));
ENDSEC;
DATA;
#10=CARTESIAN_POINT('',(0.,10.,0.));
#20=DIRECTION('',(1.,-0.,0.));
#30=DIRECTION('',(0.,0.,-1.));
#40=AXIS2_PLACEMENT_3D('',#10,#20,#30);
#50=PLANE('',#40);
#60=CARTESIAN_POINT('',(0.,0.,0.));
#70=DIRECTION('',(1.,0.,0.));
#80=DIRECTION('',(0.,0.,-1.));
#90=AXIS2_PLACEMENT_3D('',#60,#70,#80);
#100=CIRCLE('',#90,9.25);
#110=CARTESIAN_POINT('',(0.,0.,-9.25));
#120=VERTEX_POINT('',#110);
#130=CARTESIAN_POINT('',(0.,1.1327982892113E-15,9.25));
#140=VERTEX_POINT('',#130);
#150=EDGE_CURVE('',#120,#140,#100,.T.);
#160=ORIENTED_EDGE('',*,*,#150,.F.);
#170=EDGE_CURVE('',#140,#120,#100,.T.);
#180=ORIENTED_EDGE('',*,*,#170,.F.);
#190=EDGE_LOOP('',(#180,#160));
#200=FACE_BOUND('',#190,.T.);
#210=CARTESIAN_POINT('',(0.,-1.94289029309402E-16,0.));
#220=DIRECTION('',(1.,0.,0.));
#230=DIRECTION('',(0.,0.,-1.));
#240=AXIS2_PLACEMENT_3D('',#210,#220,#230);
#250=CIRCLE('',#240,12.5);
#260=CARTESIAN_POINT('',(0.,-1.94289029309402E-16,-12.5));
#270=VERTEX_POINT('',#260);
#280=CARTESIAN_POINT('',(0.,1.33651946962479E-15,12.5));
#290=VERTEX_POINT('',#280);
#300=EDGE_CURVE('',#270,#290,#250,.T.);
#310=ORIENTED_EDGE('',*,*,#300,.T.);
#320=EDGE_CURVE('',#290,#270,#250,.T.);
#330=ORIENTED_EDGE('',*,*,#320,.T.);
#340=EDGE_LOOP('',(#330,#310));
#350=FACE_OUTER_BOUND('',#340,.T.);
#360=ADVANCED_FACE('',(#200,#350),#50,.T.);
#370=COLOUR_RGB('',0.709803938865662,0.713725507259369,0.709803938865662
);
#380=FILL_AREA_STYLE_COLOUR('',#370);
#390=FILL_AREA_STYLE('',(#380));
#400=SURFACE_STYLE_FILL_AREA(#390);
#410=SURFACE_SIDE_STYLE('',(#400));
#420=SURFACE_STYLE_USAGE(.BOTH.,#410);
#430=PRESENTATION_STYLE_ASSIGNMENT((#420));
#440=CARTESIAN_POINT('',(-7.,-1.94289029309402E-16,0.));
#450=DIRECTION('',(1.,0.,0.));
#460=DIRECTION('',(0.,0.,-1.));
#470=AXIS2_PLACEMENT_3D('',#440,#450,#460);
#480=CYLINDRICAL_SURFACE('',#470,12.5);
#490=CARTESIAN_POINT('',(-7.,-1.94289029309402E-16,-12.5));
#500=DIRECTION('',(1.,0.,0.));
#510=VECTOR('',#500,1.);
#520=LINE('',#490,#510);
#530=CARTESIAN_POINT('',(-7.,-1.94289029309402E-16,-12.5));
#540=VERTEX_POINT('',#530);
#550=EDGE_CURVE('',#540,#270,#520,.T.);
#560=ORIENTED_EDGE('',*,*,#550,.T.);
#570=CARTESIAN_POINT('',(-7.,-1.94289029309402E-16,0.));
#580=DIRECTION('',(1.,0.,0.));
#590=DIRECTION('',(0.,0.,-1.));
#600=AXIS2_PLACEMENT_3D('',#570,#580,#590);
#610=CIRCLE('',#600,12.5);
#620=CARTESIAN_POINT('',(-7.,1.33651946962479E-15,12.5));
#630=VERTEX_POINT('',#620);
#640=EDGE_CURVE('',#630,#540,#610,.T.);
#650=ORIENTED_EDGE('',*,*,#640,.T.);
#660=CARTESIAN_POINT('',(-7.,1.33651946962479E-15,12.5));
#670=DIRECTION('',(1.,0.,0.));
#680=VECTOR('',#670,1.);
#690=LINE('',#660,#680);
#700=EDGE_CURVE('',#630,#290,#690,.T.);
#710=ORIENTED_EDGE('',*,*,#700,.F.);
#720=ORIENTED_EDGE('',*,*,#320,.F.);
#730=EDGE_LOOP('',(#720,#710,#650,#560));
#740=FACE_OUTER_BOUND('',#730,.T.);
#750=ADVANCED_FACE('',(#740),#480,.T.);
#760=COLOUR_RGB('',0.709803938865662,0.713725507259369,0.709803938865662
);
#770=FILL_AREA_STYLE_COLOUR('',#760);
#780=FILL_AREA_STYLE('',(#770));
#790=SURFACE_STYLE_FILL_AREA(#780);
#800=SURFACE_SIDE_STYLE('',(#790));
#810=SURFACE_STYLE_USAGE(.BOTH.,#800);
#820=PRESENTATION_STYLE_ASSIGNMENT((#810));
#830=CARTESIAN_POINT('',(-7.,0.,0.));
#840=DIRECTION('',(1.,0.,0.));
#850=DIRECTION('',(0.,0.,-1.));
#860=AXIS2_PLACEMENT_3D('',#830,#840,#850);
#870=CYLINDRICAL_SURFACE('',#860,15.);
#880=CARTESIAN_POINT('',(-7.,0.,-15.));
#890=DIRECTION('',(1.,0.,0.));
#900=VECTOR('',#890,1.);
#910=LINE('',#880,#900);
#920=CARTESIAN_POINT('',(-10.,0.,-15.));
#930=VERTEX_POINT('',#920);
#940=CARTESIAN_POINT('',(-7.,0.,-15.));
#950=VERTEX_POINT('',#940);
#960=EDGE_CURVE('',#930,#950,#910,.T.);
#970=ORIENTED_EDGE('',*,*,#960,.T.);
#980=CARTESIAN_POINT('',(-10.,0.,0.));
#990=DIRECTION('',(1.,0.,0.));
#1000=DIRECTION('',(0.,0.,-1.));
#1010=AXIS2_PLACEMENT_3D('',#980,#990,#1000);
#1020=CIRCLE('',#1010,15.);
#1030=CARTESIAN_POINT('',(-10.,1.83697019872103E-15,15.));
#1040=VERTEX_POINT('',#1030);
#1050=EDGE_CURVE('',#1040,#930,#1020,.T.);
#1060=ORIENTED_EDGE('',*,*,#1050,.T.);
#1070=CARTESIAN_POINT('',(-7.,1.83697019872103E-15,15.));
#1080=DIRECTION('',(1.,0.,0.));
#1090=VECTOR('',#1080,1.);
#1100=LINE('',#1070,#1090);
#1110=CARTESIAN_POINT('',(-7.,1.83697019872103E-15,15.));
#1120=VERTEX_POINT('',#1110);
#1130=EDGE_CURVE('',#1040,#1120,#1100,.T.);
#1140=ORIENTED_EDGE('',*,*,#1130,.F.);
#1150=CARTESIAN_POINT('',(-7.,0.,0.));
#1160=DIRECTION('',(1.,0.,0.));
#1170=DIRECTION('',(0.,0.,-1.));
#1180=AXIS2_PLACEMENT_3D('',#1150,#1160,#1170);
#1190=CIRCLE('',#1180,15.);
#1200=EDGE_CURVE('',#1120,#950,#1190,.T.);
#1210=ORIENTED_EDGE('',*,*,#1200,.F.);
#1220=EDGE_LOOP('',(#1210,#1140,#1060,#970));
#1230=FACE_OUTER_BOUND('',#1220,.T.);
#1240=ADVANCED_FACE('',(#1230),#870,.T.);
#1250=COLOUR_RGB('',0.709803938865662,0.713725507259369,
0.709803938865662);
#1260=FILL_AREA_STYLE_COLOUR('',#1250);
#1270=FILL_AREA_STYLE('',(#1260));
#1280=SURFACE_STYLE_FILL_AREA(#1270);
#1290=SURFACE_SIDE_STYLE('',(#1280));
#1300=SURFACE_STYLE_USAGE(.BOTH.,#1290);
#1310=PRESENTATION_STYLE_ASSIGNMENT((#1300));
#1320=CARTESIAN_POINT('',(-7.,0.,0.));
#1330=DIRECTION('',(1.,0.,0.));
#1340=DIRECTION('',(0.,0.,-1.));
#1350=AXIS2_PLACEMENT_3D('',#1320,#1330,#1340);
#1360=CYLINDRICAL_SURFACE('',#1350,15.);
#1370=EDGE_CURVE('',#950,#1120,#1190,.T.);
#1380=ORIENTED_EDGE('',*,*,#1370,.F.);
#1390=ORIENTED_EDGE('',*,*,#1130,.T.);
#1400=EDGE_CURVE('',#930,#1040,#1020,.T.);
#1410=ORIENTED_EDGE('',*,*,#1400,.T.);
#1420=ORIENTED_EDGE('',*,*,#960,.F.);
#1430=EDGE_LOOP('',(#1420,#1410,#1390,#1380));
#1440=FACE_OUTER_BOUND('',#1430,.T.);
#1450=ADVANCED_FACE('',(#1440),#1360,.T.);
#1460=COLOUR_RGB('',0.709803938865662,0.713725507259369,
0.709803938865662);
#1470=FILL_AREA_STYLE_COLOUR('',#1460);
#1480=FILL_AREA_STYLE('',(#1470));
#1490=SURFACE_STYLE_FILL_AREA(#1480);
#1500=SURFACE_SIDE_STYLE('',(#1490));
#1510=SURFACE_STYLE_USAGE(.BOTH.,#1500);
#1520=PRESENTATION_STYLE_ASSIGNMENT((#1510));
#1530=CARTESIAN_POINT('',(-7.,-1.94289029309402E-16,0.));
#1540=DIRECTION('',(1.,0.,0.));
#1550=DIRECTION('',(0.,0.,-1.));
#1560=AXIS2_PLACEMENT_3D('',#1530,#1540,#1550);
#1570=CYLINDRICAL_SURFACE('',#1560,12.5);
#1580=ORIENTED_EDGE('',*,*,#300,.F.);
#1590=ORIENTED_EDGE('',*,*,#700,.T.);
#1600=EDGE_CURVE('',#540,#630,#610,.T.);
#1610=ORIENTED_EDGE('',*,*,#1600,.T.);
#1620=ORIENTED_EDGE('',*,*,#550,.F.);
#1630=EDGE_LOOP('',(#1620,#1610,#1590,#1580));
#1640=FACE_OUTER_BOUND('',#1630,.T.);
#1650=ADVANCED_FACE('',(#1640),#1570,.T.);
#1660=COLOUR_RGB('',0.709803938865662,0.713725507259369,
0.709803938865662);
#1670=FILL_AREA_STYLE_COLOUR('',#1660);
#1680=FILL_AREA_STYLE('',(#1670));
#1690=SURFACE_STYLE_FILL_AREA(#1680);
#1700=SURFACE_SIDE_STYLE('',(#1690));
#1710=SURFACE_STYLE_USAGE(.BOTH.,#1700);
#1720=PRESENTATION_STYLE_ASSIGNMENT((#1710));
#1730=CARTESIAN_POINT('',(-7.,0.,0.));
#1740=DIRECTION('',(1.,0.,0.));
#1750=DIRECTION('',(0.,0.,-1.));
#1760=AXIS2_PLACEMENT_3D('',#1730,#1740,#1750);
#1770=CYLINDRICAL_SURFACE('',#1760,9.25);
#1780=CARTESIAN_POINT('',(-7.,1.1327982892113E-15,9.25));
#1790=DIRECTION('',(1.,0.,0.));
#1800=VECTOR('',#1790,1.);
#1810=LINE('',#1780,#1800);
#1820=CARTESIAN_POINT('',(-10.,1.1327982892113E-15,9.25));
#1830=VERTEX_POINT('',#1820);
#1840=EDGE_CURVE('',#1830,#140,#1810,.T.);
#1850=ORIENTED_EDGE('',*,*,#1840,.T.);
#1860=CARTESIAN_POINT('',(-10.,0.,0.));
#1870=DIRECTION('',(1.,0.,0.));
#1880=DIRECTION('',(0.,0.,-1.));
#1890=AXIS2_PLACEMENT_3D('',#1860,#1870,#1880);
#1900=CIRCLE('',#1890,9.25);
#1910=CARTESIAN_POINT('',(-10.,0.,-9.25));
#1920=VERTEX_POINT('',#1910);
#1930=EDGE_CURVE('',#1830,#1920,#1900,.T.);
#1940=ORIENTED_EDGE('',*,*,#1930,.F.);
#1950=CARTESIAN_POINT('',(-7.,0.,-9.25));
#1960=DIRECTION('',(1.,0.,0.));
#1970=VECTOR('',#1960,1.);
#1980=LINE('',#1950,#1970);
#1990=EDGE_CURVE('',#1920,#120,#1980,.T.);
#2000=ORIENTED_EDGE('',*,*,#1990,.F.);
#2010=ORIENTED_EDGE('',*,*,#170,.T.);
#2020=EDGE_LOOP('',(#2010,#2000,#1940,#1850));
#2030=FACE_OUTER_BOUND('',#2020,.T.);
#2040=ADVANCED_FACE('',(#2030),#1770,.F.);
#2050=COLOUR_RGB('',0.709803938865662,0.713725507259369,
0.709803938865662);
#2060=FILL_AREA_STYLE_COLOUR('',#2050);
#2070=FILL_AREA_STYLE('',(#2060));
#2080=SURFACE_STYLE_FILL_AREA(#2070);
#2090=SURFACE_SIDE_STYLE('',(#2080));
#2100=SURFACE_STYLE_USAGE(.BOTH.,#2090);
#2110=PRESENTATION_STYLE_ASSIGNMENT((#2100));
#2120=CARTESIAN_POINT('',(-10.,15.,0.));
#2130=DIRECTION('',(-1.,0.,0.));
#2140=DIRECTION('',(0.,0.,1.));
#2150=AXIS2_PLACEMENT_3D('',#2120,#2130,#2140);
#2160=PLANE('',#2150);
#2170=EDGE_CURVE('',#1920,#1830,#1900,.T.);
#2180=ORIENTED_EDGE('',*,*,#2170,.T.);
#2190=ORIENTED_EDGE('',*,*,#1930,.T.);
#2200=EDGE_LOOP('',(#2190,#2180));
#2210=FACE_BOUND('',#2200,.T.);
#2220=ORIENTED_EDGE('',*,*,#1400,.F.);
#2230=ORIENTED_EDGE('',*,*,#1050,.F.);
#2240=EDGE_LOOP('',(#2230,#2220));
#2250=FACE_OUTER_BOUND('',#2240,.T.);
#2260=ADVANCED_FACE('',(#2210,#2250),#2160,.T.);
#2270=COLOUR_RGB('',0.709803938865662,0.713725507259369,
0.709803938865662);
#2280=FILL_AREA_STYLE_COLOUR('',#2270);
#2290=FILL_AREA_STYLE('',(#2280));
#2300=SURFACE_STYLE_FILL_AREA(#2290);
#2310=SURFACE_SIDE_STYLE('',(#2300));
#2320=SURFACE_STYLE_USAGE(.BOTH.,#2310);
#2330=PRESENTATION_STYLE_ASSIGNMENT((#2320));
#2340=CARTESIAN_POINT('',(-7.,2.22044604925031E-15,13.0625));
#2350=DIRECTION('',(1.,-0.,0.));
#2360=DIRECTION('',(0.,0.,-1.));
#2370=AXIS2_PLACEMENT_3D('',#2340,#2350,#2360);
#2380=PLANE('',#2370);
#2390=ORIENTED_EDGE('',*,*,#1600,.F.);
#2400=ORIENTED_EDGE('',*,*,#640,.F.);
#2410=EDGE_LOOP('',(#2400,#2390));
#2420=FACE_BOUND('',#2410,.T.);
#2430=ORIENTED_EDGE('',*,*,#1370,.T.);
#2440=ORIENTED_EDGE('',*,*,#1200,.T.);
#2450=EDGE_LOOP('',(#2440,#2430));
#2460=FACE_OUTER_BOUND('',#2450,.T.);
#2470=ADVANCED_FACE('',(#2420,#2460),#2380,.T.);
#2480=COLOUR_RGB('',0.709803938865662,0.713725507259369,
0.709803938865662);
#2490=FILL_AREA_STYLE_COLOUR('',#2480);
#2500=FILL_AREA_STYLE('',(#2490));
#2510=SURFACE_STYLE_FILL_AREA(#2500);
#2520=SURFACE_SIDE_STYLE('',(#2510));
#2530=SURFACE_STYLE_USAGE(.BOTH.,#2520);
#2540=PRESENTATION_STYLE_ASSIGNMENT((#2530));
#2550=CARTESIAN_POINT('',(-7.,0.,0.));
#2560=DIRECTION('',(1.,0.,0.));
#2570=DIRECTION('',(0.,0.,-1.));
#2580=AXIS2_PLACEMENT_3D('',#2550,#2560,#2570);
#2590=CYLINDRICAL_SURFACE('',#2580,9.25);
#2600=ORIENTED_EDGE('',*,*,#2170,.F.);
#2610=ORIENTED_EDGE('',*,*,#1840,.F.);
#2620=ORIENTED_EDGE('',*,*,#150,.T.);
#2630=ORIENTED_EDGE('',*,*,#1990,.T.);
#2640=EDGE_LOOP('',(#2630,#2620,#2610,#2600));
#2650=FACE_OUTER_BOUND('',#2640,.T.);
#2660=ADVANCED_FACE('',(#2650),#2590,.F.);
#2670=COLOUR_RGB('',0.709803938865662,0.713725507259369,
0.709803938865662);
#2680=FILL_AREA_STYLE_COLOUR('',#2670);
#2690=FILL_AREA_STYLE('',(#2680));
#2700=SURFACE_STYLE_FILL_AREA(#2690);
#2710=SURFACE_SIDE_STYLE('',(#2700));
#2720=SURFACE_STYLE_USAGE(.BOTH.,#2710);
#2730=PRESENTATION_STYLE_ASSIGNMENT((#2720));
#2740=CLOSED_SHELL('',(#750,#1240,#1450,#1650,#2040,#2260,#2470,#2660,
#360));
#2750=MANIFOLD_SOLID_BREP('',#2740);
#2760=CARTESIAN_POINT('',(0.,0.,0.));
#2770=DIRECTION('',(0.,0.,1.));
#2780=DIRECTION('',(1.,0.,0.));
#2790=AXIS2_PLACEMENT_3D('',#2760,#2770,#2780);
#2800=APPLICATION_CONTEXT(' ');
#2810=APPLICATION_PROTOCOL_DEFINITION(' ','automotive_design',1998,#2800
);
#2820=PRODUCT_CONTEXT('',#2800,'mechanical');
#2830=PRODUCT_DEFINITION_CONTEXT('part definition',#2800,'design');
#2840=PRODUCT('REDUC_M_KV_M25_M20-select','REDUC_M_KV_M25_M20-select',''
,(#2820));
#2850=PRODUCT_RELATED_PRODUCT_CATEGORY('part',' ',(#2840));
#2860=PRODUCT_DEFINITION_FORMATION_WITH_SPECIFIED_SOURCE('','',#2840,
.BOUGHT.);
#2870=PRODUCT_DEFINITION('',' ',#2860,#2830);
#2880=PRODUCT_DEFINITION_SHAPE('','',#2870);
#2890=DIMENSIONAL_EXPONENTS(1.,0.,0.,0.,0.,0.,0.);
#2900=DIMENSIONAL_EXPONENTS(0.,0.,0.,0.,0.,0.,0.);
#2910=DIMENSIONAL_EXPONENTS(0.,0.,0.,0.,0.,0.,0.);
#2920=(LENGTH_UNIT() NAMED_UNIT(*) SI_UNIT(.MILLI.,.METRE.));
#2930=(NAMED_UNIT(*) PLANE_ANGLE_UNIT() SI_UNIT($,.RADIAN.));
#2940=(NAMED_UNIT(*) SI_UNIT($,.STERADIAN.) SOLID_ANGLE_UNIT());
#2950=(GEOMETRIC_REPRESENTATION_CONTEXT(3) 
GLOBAL_UNCERTAINTY_ASSIGNED_CONTEXT((#2960)) 
GLOBAL_UNIT_ASSIGNED_CONTEXT((#2920,#2930,#2940)) REPRESENTATION_CONTEXT
('',''));
#2960=UNCERTAINTY_MEASURE_WITH_UNIT(LENGTH_MEASURE(1.E-6),#2920,
'distance_accuracy_value','maximum gap value');
#2970=ADVANCED_BREP_SHAPE_REPRESENTATION('',(#2790,#2750),#2950);
#2980=SHAPE_DEFINITION_REPRESENTATION(#2880,#2970);
#2990=COLOUR_RGB('',0.709803938865662,0.713725507259369,
0.709803938865662);
#3000=FILL_AREA_STYLE_COLOUR('',#2990);
#3010=FILL_AREA_STYLE('',(#3000));
#3020=SURFACE_STYLE_FILL_AREA(#3010);
#3030=SURFACE_SIDE_STYLE('',(#3020));
#3040=SURFACE_STYLE_USAGE(.BOTH.,#3030);
#3050=PRESENTATION_STYLE_ASSIGNMENT((#3040));
#3060=STYLED_ITEM('',(#3050),#2750);
#3070=OVER_RIDING_STYLED_ITEM('',(#430),#360,#3060);
#3080=OVER_RIDING_STYLED_ITEM('',(#820),#750,#3060);
#3090=OVER_RIDING_STYLED_ITEM('',(#1310),#1240,#3060);
#3100=OVER_RIDING_STYLED_ITEM('',(#1520),#1450,#3060);
#3110=OVER_RIDING_STYLED_ITEM('',(#1720),#1650,#3060);
#3120=OVER_RIDING_STYLED_ITEM('',(#2110),#2040,#3060);
#3130=OVER_RIDING_STYLED_ITEM('',(#2330),#2260,#3060);
#3140=OVER_RIDING_STYLED_ITEM('',(#2540),#2470,#3060);
#3150=OVER_RIDING_STYLED_ITEM('',(#2730),#2660,#3060);
#3160=DRAUGHTING_MODEL('',(#3060,#3070,#3080,#3090,#3100,#3110,#3120,
#3130,#3140,#3150),#2950);
#3170=CARTESIAN_POINT('',(0.,0.,0.));
#3180=DIRECTION('',(0.,0.,1.));
#3190=DIRECTION('',(-1.,0.,0.));
#3200=AXIS2_PLACEMENT_3D('',#3170,#3180,#3190);
#3210=ITEM_DEFINED_TRANSFORMATION('REDUC_M_KV_M25_M20-select','',#2790,
#3200);
#3220=APPLICATION_CONTEXT(' ');
#3230=APPLICATION_PROTOCOL_DEFINITION(' ','automotive_design',1998,#3220
);
#3240=PRODUCT_CONTEXT('',#3220,'mechanical');
#3250=PRODUCT_DEFINITION_CONTEXT('part definition',#3220,'design');
#3260=PRODUCT('REDUC_M_KV_M25_M20-select','REDUC_M_KV_M25_M20-select',''
,(#3240));
#3270=PRODUCT_RELATED_PRODUCT_CATEGORY('part',' ',(#3260));
#3280=PRODUCT_DEFINITION_FORMATION_WITH_SPECIFIED_SOURCE('','',#3260,
.BOUGHT.);
#3290=PRODUCT_DEFINITION('',' ',#3280,#3250);
#3300=PRODUCT_DEFINITION_SHAPE('','',#3290);
#3310=DIMENSIONAL_EXPONENTS(1.,0.,0.,0.,0.,0.,0.);
#3320=DIMENSIONAL_EXPONENTS(0.,0.,0.,0.,0.,0.,0.);
#3330=DIMENSIONAL_EXPONENTS(0.,0.,0.,0.,0.,0.,0.);
#3340=(LENGTH_UNIT() NAMED_UNIT(*) SI_UNIT(.MILLI.,.METRE.));
#3350=(NAMED_UNIT(*) PLANE_ANGLE_UNIT() SI_UNIT($,.RADIAN.));
#3360=(NAMED_UNIT(*) SI_UNIT($,.STERADIAN.) SOLID_ANGLE_UNIT());
#3370=(GEOMETRIC_REPRESENTATION_CONTEXT(3) 
GLOBAL_UNCERTAINTY_ASSIGNED_CONTEXT((#3380)) 
GLOBAL_UNIT_ASSIGNED_CONTEXT((#3340,#3350,#3360)) REPRESENTATION_CONTEXT
('',''));
#3380=UNCERTAINTY_MEASURE_WITH_UNIT(LENGTH_MEASURE(1.E-6),#3340,
'distance_accuracy_value','maximum gap value');
#3390=SHAPE_REPRESENTATION('',(#2790,#3200),#3370);
#3400=SHAPE_DEFINITION_REPRESENTATION(#3300,#3390);
#3410=(REPRESENTATION_RELATIONSHIP('','',#2970,#3390) 
REPRESENTATION_RELATIONSHIP_WITH_TRANSFORMATION(#3210) 
SHAPE_REPRESENTATION_RELATIONSHIP());
#3420=NEXT_ASSEMBLY_USAGE_OCCURRENCE('1','','REDUC_M_KV_M25_M20-select',
#3290,#2870,'');
#3430=PRODUCT_DEFINITION_SHAPE('','',#3420);
#3440=CONTEXT_DEPENDENT_SHAPE_REPRESENTATION(#3410,#3430);
ENDSEC;
END-ISO-10303-21;
