ISO-10303-21;
HEADER;
FILE_DESCRIPTION(('Creo Elements/Direct Modeling STEP Export'),'2;1');
FILE_NAME(
'C:/temp/JobSpoolerServerData/JobServer Files/7802e817-03e7-4b54-8826-ab
16bba198d6/work/output/model.stp','2020-11-02T 7:20:16',(''),(''),
'Creo Elements/Direct Modeling STEP processor for AP214 (Solid Model)',
'Creo Elements/Direct Modeling 20.1A  29-Sep-2018 (C) Parametric Technol
ogy GmbH','');
FILE_SCHEMA(('AUTOMOTIVE_DESIGN { 1 0 10303 214 1 1 1 1 }'));
ENDSEC;
DATA;
#10=CARTESIAN_POINT('',(26.128261,59.217083,0.));
#20=DIRECTION('',(-0.,-1.,-0.));
#30=DIRECTION('',(-1.,0.,0.));
#40=AXIS2_PLACEMENT_3D('',#10,#20,#30);
#50=PLANE('',#40);
#60=CARTESIAN_POINT('',(27.628261,59.217083,0.));
#70=DIRECTION('',(0.,-1.,0.));
#80=DIRECTION('',(-1.,0.,0.));
#90=AXIS2_PLACEMENT_3D('',#60,#70,#80);
#100=CIRCLE('',#90,3.);
#110=CARTESIAN_POINT('',(24.628261,59.217083,0.));
#120=VERTEX_POINT('',#110);
#130=CARTESIAN_POINT('',(30.628261,59.217083,-3.67394039744206E-16));
#140=VERTEX_POINT('',#130);
#150=EDGE_CURVE('',#120,#140,#100,.T.);
#160=ORIENTED_EDGE('',*,*,#150,.F.);
#170=EDGE_CURVE('',#140,#120,#100,.T.);
#180=ORIENTED_EDGE('',*,*,#170,.F.);
#190=EDGE_LOOP('',(#180,#160));
#200=FACE_OUTER_BOUND('',#190,.T.);
#210=ADVANCED_FACE('',(#200),#50,.F.);
#220=COLOUR_RGB('',0.313725501298904,0.313725501298904,0.313725501298904
);
#230=FILL_AREA_STYLE_COLOUR('',#220);
#240=FILL_AREA_STYLE('',(#230));
#250=SURFACE_STYLE_FILL_AREA(#240);
#260=SURFACE_SIDE_STYLE('',(#250));
#270=SURFACE_STYLE_USAGE(.BOTH.,#260);
#280=PRESENTATION_STYLE_ASSIGNMENT((#270));
#290=CARTESIAN_POINT('',(27.628261,46.717083,0.));
#300=DIRECTION('',(0.,-1.,0.));
#310=DIRECTION('',(-1.,0.,0.));
#320=AXIS2_PLACEMENT_3D('',#290,#300,#310);
#330=CYLINDRICAL_SURFACE('',#320,3.);
#340=CARTESIAN_POINT('',(30.628261,46.717083,-3.67394039744206E-16));
#350=DIRECTION('',(0.,-1.,0.));
#360=VECTOR('',#350,1.);
#370=LINE('',#340,#360);
#380=CARTESIAN_POINT('',(30.628261,34.217083,-3.67394039744206E-16));
#390=VERTEX_POINT('',#380);
#400=EDGE_CURVE('',#140,#390,#370,.T.);
#410=ORIENTED_EDGE('',*,*,#400,.T.);
#420=ORIENTED_EDGE('',*,*,#150,.T.);
#430=CARTESIAN_POINT('',(24.628261,46.717083,0.));
#440=DIRECTION('',(0.,-1.,0.));
#450=VECTOR('',#440,1.);
#460=LINE('',#430,#450);
#470=CARTESIAN_POINT('',(24.628261,34.217083,0.));
#480=VERTEX_POINT('',#470);
#490=EDGE_CURVE('',#120,#480,#460,.T.);
#500=ORIENTED_EDGE('',*,*,#490,.F.);
#510=CARTESIAN_POINT('',(27.628261,34.217083,0.));
#520=DIRECTION('',(0.,1.,0.));
#530=DIRECTION('',(-1.,0.,0.));
#540=AXIS2_PLACEMENT_3D('',#510,#520,#530);
#550=CIRCLE('',#540,3.);
#560=EDGE_CURVE('',#390,#480,#550,.T.);
#570=ORIENTED_EDGE('',*,*,#560,.T.);
#580=EDGE_LOOP('',(#570,#500,#420,#410));
#590=FACE_OUTER_BOUND('',#580,.T.);
#600=ADVANCED_FACE('',(#590),#330,.T.);
#610=COLOUR_RGB('',0.313725501298904,0.313725501298904,0.313725501298904
);
#620=FILL_AREA_STYLE_COLOUR('',#610);
#630=FILL_AREA_STYLE('',(#620));
#640=SURFACE_STYLE_FILL_AREA(#630);
#650=SURFACE_SIDE_STYLE('',(#640));
#660=SURFACE_STYLE_USAGE(.BOTH.,#650);
#670=PRESENTATION_STYLE_ASSIGNMENT((#660));
#680=CARTESIAN_POINT('',(26.128261,34.217083,0.));
#690=DIRECTION('',(-0.,1.,0.));
#700=DIRECTION('',(1.,0.,0.));
#710=AXIS2_PLACEMENT_3D('',#680,#690,#700);
#720=PLANE('',#710);
#730=EDGE_CURVE('',#480,#390,#550,.T.);
#740=ORIENTED_EDGE('',*,*,#730,.F.);
#750=ORIENTED_EDGE('',*,*,#560,.F.);
#760=EDGE_LOOP('',(#750,#740));
#770=FACE_OUTER_BOUND('',#760,.T.);
#780=ADVANCED_FACE('',(#770),#720,.F.);
#790=COLOUR_RGB('',0.313725501298904,0.313725501298904,0.313725501298904
);
#800=FILL_AREA_STYLE_COLOUR('',#790);
#810=FILL_AREA_STYLE('',(#800));
#820=SURFACE_STYLE_FILL_AREA(#810);
#830=SURFACE_SIDE_STYLE('',(#820));
#840=SURFACE_STYLE_USAGE(.BOTH.,#830);
#850=PRESENTATION_STYLE_ASSIGNMENT((#840));
#860=CARTESIAN_POINT('',(27.628261,46.717083,0.));
#870=DIRECTION('',(0.,-1.,0.));
#880=DIRECTION('',(-1.,0.,0.));
#890=AXIS2_PLACEMENT_3D('',#860,#870,#880);
#900=CYLINDRICAL_SURFACE('',#890,3.);
#910=ORIENTED_EDGE('',*,*,#400,.F.);
#920=ORIENTED_EDGE('',*,*,#730,.T.);
#930=ORIENTED_EDGE('',*,*,#490,.T.);
#940=ORIENTED_EDGE('',*,*,#170,.T.);
#950=EDGE_LOOP('',(#940,#930,#920,#910));
#960=FACE_OUTER_BOUND('',#950,.T.);
#970=ADVANCED_FACE('',(#960),#900,.T.);
#980=COLOUR_RGB('',0.313725501298904,0.313725501298904,0.313725501298904
);
#990=FILL_AREA_STYLE_COLOUR('',#980);
#1000=FILL_AREA_STYLE('',(#990));
#1010=SURFACE_STYLE_FILL_AREA(#1000);
#1020=SURFACE_SIDE_STYLE('',(#1010));
#1030=SURFACE_STYLE_USAGE(.BOTH.,#1020);
#1040=PRESENTATION_STYLE_ASSIGNMENT((#1030));
#1050=CLOSED_SHELL('',(#210,#600,#780,#970));
#1060=MANIFOLD_SOLID_BREP('',#1050);
#1070=CARTESIAN_POINT('',(0.,0.,0.));
#1080=DIRECTION('',(0.,0.,1.));
#1090=DIRECTION('',(1.,0.,0.));
#1100=AXIS2_PLACEMENT_3D('',#1070,#1080,#1090);
#1110=APPLICATION_CONTEXT(' ');
#1120=APPLICATION_PROTOCOL_DEFINITION(' ','automotive_design',1998,#1110
);
#1130=PRODUCT_CONTEXT('',#1110,'mechanical');
#1140=PRODUCT_DEFINITION_CONTEXT('part definition',#1110,'design');
#1150=PRODUCT('VC-KV-VB_6','VC-KV-VB_6','',(#1130));
#1160=PRODUCT_RELATED_PRODUCT_CATEGORY('part',' ',(#1150));
#1170=PRODUCT_DEFINITION_FORMATION_WITH_SPECIFIED_SOURCE('','',#1150,
.BOUGHT.);
#1180=PRODUCT_DEFINITION('',' ',#1170,#1140);
#1190=PRODUCT_DEFINITION_SHAPE('','',#1180);
#1200=DIMENSIONAL_EXPONENTS(1.,0.,0.,0.,0.,0.,0.);
#1210=DIMENSIONAL_EXPONENTS(0.,0.,0.,0.,0.,0.,0.);
#1220=DIMENSIONAL_EXPONENTS(0.,0.,0.,0.,0.,0.,0.);
#1230=(LENGTH_UNIT() NAMED_UNIT(*) SI_UNIT(.MILLI.,.METRE.));
#1240=(NAMED_UNIT(*) PLANE_ANGLE_UNIT() SI_UNIT($,.RADIAN.));
#1250=(NAMED_UNIT(*) SI_UNIT($,.STERADIAN.) SOLID_ANGLE_UNIT());
#1260=(GEOMETRIC_REPRESENTATION_CONTEXT(3) 
GLOBAL_UNCERTAINTY_ASSIGNED_CONTEXT((#1270)) 
GLOBAL_UNIT_ASSIGNED_CONTEXT((#1230,#1240,#1250)) REPRESENTATION_CONTEXT
('',''));
#1270=UNCERTAINTY_MEASURE_WITH_UNIT(LENGTH_MEASURE(1.E-6),#1230,
'distance_accuracy_value','maximum gap value');
#1280=ADVANCED_BREP_SHAPE_REPRESENTATION('',(#1100,#1060),#1260);
#1290=SHAPE_DEFINITION_REPRESENTATION(#1190,#1280);
#1300=COLOUR_RGB('',0.313725501298904,0.313725501298904,
0.313725501298904);
#1310=FILL_AREA_STYLE_COLOUR('',#1300);
#1320=FILL_AREA_STYLE('',(#1310));
#1330=SURFACE_STYLE_FILL_AREA(#1320);
#1340=SURFACE_SIDE_STYLE('',(#1330));
#1350=SURFACE_STYLE_USAGE(.BOTH.,#1340);
#1360=PRESENTATION_STYLE_ASSIGNMENT((#1350));
#1370=STYLED_ITEM('',(#1360),#1060);
#1380=OVER_RIDING_STYLED_ITEM('',(#280),#210,#1370);
#1390=OVER_RIDING_STYLED_ITEM('',(#670),#600,#1370);
#1400=OVER_RIDING_STYLED_ITEM('',(#850),#780,#1370);
#1410=OVER_RIDING_STYLED_ITEM('',(#1040),#970,#1370);
#1420=DRAUGHTING_MODEL('',(#1370,#1380,#1390,#1400,#1410),#1260);
#1430=CARTESIAN_POINT('',(-24.628261,3.00000000004922,-34.217083));
#1440=DIRECTION('',(0.,-1.,0.));
#1450=DIRECTION('',(1.,0.,0.));
#1460=AXIS2_PLACEMENT_3D('',#1430,#1440,#1450);
#1470=ITEM_DEFINED_TRANSFORMATION('VC-KV-VB_6','',#1100,#1460);
#1480=APPLICATION_CONTEXT(' ');
#1490=APPLICATION_PROTOCOL_DEFINITION(' ','automotive_design',1998,#1480
);
#1500=PRODUCT_CONTEXT('',#1480,'mechanical');
#1510=PRODUCT_DEFINITION_CONTEXT('part definition',#1480,'design');
#1520=PRODUCT('VC-KV-VB_6','VC-KV-VB_6','',(#1500));
#1530=PRODUCT_RELATED_PRODUCT_CATEGORY('part',' ',(#1520));
#1540=PRODUCT_DEFINITION_FORMATION_WITH_SPECIFIED_SOURCE('','',#1520,
.BOUGHT.);
#1550=PRODUCT_DEFINITION('',' ',#1540,#1510);
#1560=PRODUCT_DEFINITION_SHAPE('','',#1550);
#1570=DIMENSIONAL_EXPONENTS(1.,0.,0.,0.,0.,0.,0.);
#1580=DIMENSIONAL_EXPONENTS(0.,0.,0.,0.,0.,0.,0.);
#1590=DIMENSIONAL_EXPONENTS(0.,0.,0.,0.,0.,0.,0.);
#1600=(LENGTH_UNIT() NAMED_UNIT(*) SI_UNIT(.MILLI.,.METRE.));
#1610=(NAMED_UNIT(*) PLANE_ANGLE_UNIT() SI_UNIT($,.RADIAN.));
#1620=(NAMED_UNIT(*) SI_UNIT($,.STERADIAN.) SOLID_ANGLE_UNIT());
#1630=(GEOMETRIC_REPRESENTATION_CONTEXT(3) 
GLOBAL_UNCERTAINTY_ASSIGNED_CONTEXT((#1640)) 
GLOBAL_UNIT_ASSIGNED_CONTEXT((#1600,#1610,#1620)) REPRESENTATION_CONTEXT
('',''));
#1640=UNCERTAINTY_MEASURE_WITH_UNIT(LENGTH_MEASURE(1.E-6),#1600,
'distance_accuracy_value','maximum gap value');
#1650=SHAPE_REPRESENTATION('',(#1100,#1460),#1630);
#1660=SHAPE_DEFINITION_REPRESENTATION(#1560,#1650);
#1670=(REPRESENTATION_RELATIONSHIP('','',#1280,#1650) 
REPRESENTATION_RELATIONSHIP_WITH_TRANSFORMATION(#1470) 
SHAPE_REPRESENTATION_RELATIONSHIP());
#1680=NEXT_ASSEMBLY_USAGE_OCCURRENCE('1','','VC-KV-VB_6',#1550,#1180,'')
;
#1690=PRODUCT_DEFINITION_SHAPE('','',#1680);
#1700=CONTEXT_DEPENDENT_SHAPE_REPRESENTATION(#1670,#1690);
ENDSEC;
END-ISO-10303-21;
