ISO-10303-21;
HEADER;
FILE_DESCRIPTION(('Creo Elements/Direct Modeling STEP Export'),'2;1');
FILE_NAME(
'C:/temp/JobSpoolerServerData/JobServer Files/58c9bfb9-b5a4-493a-b454-a0
f02e3369d5/work/output/model.stp','2020-04-08T 9:16:33',(''),(''),
'Creo Elements/Direct Modeling STEP processor for AP214 (Solid Model)',
'Creo Elements/Direct Modeling 20.1A  29-Sep-2018 (C) Parametric Technol
ogy GmbH','');
FILE_SCHEMA(('AUTOMOTIVE_DESIGN { 1 0 10303 214 1 1 1 1 }'));
ENDSEC;
DATA;
#10=CARTESIAN_POINT('',(10.9400709903279,12.3499999999929,
27.2359832607742));
#20=DIRECTION('',(-3.44509284839767E-16,1.,3.07583152490002E-16));
#30=DIRECTION('',(-1.,-3.44509284839766E-16,-1.22464679913867E-16));
#40=AXIS2_PLACEMENT_3D('',#10,#20,#30);
#50=PLANE('',#40);
#60=CARTESIAN_POINT('',(10.9400709903279,12.3499999999929,
18.6199999999995));
#70=DIRECTION('',(1.22464679913867E-16,3.07583152490002E-16,-1.));
#80=VECTOR('',#70,1.);
#90=LINE('',#60,#80);
#100=CARTESIAN_POINT('',(10.9400709903279,12.3499999999929,
18.6199999999995));
#110=VERTEX_POINT('',#100);
#120=CARTESIAN_POINT('',(10.9400709903279,12.3499999999929,
14.6199999999995));
#130=VERTEX_POINT('',#120);
#140=EDGE_CURVE('',#110,#130,#90,.T.);
#150=ORIENTED_EDGE('',*,*,#140,.T.);
#160=CARTESIAN_POINT('',(2.85716722167479,12.3499999999929,
18.6199999999995));
#170=DIRECTION('',(-1.,-3.44509284839766E-16,-1.22464679913867E-16));
#180=VECTOR('',#170,1.);
#190=LINE('',#160,#180);
#200=CARTESIAN_POINT('',(-5.22573654698157,12.3499999999929,
18.6199999999995));
#210=VERTEX_POINT('',#200);
#220=EDGE_CURVE('',#110,#210,#190,.T.);
#230=ORIENTED_EDGE('',*,*,#220,.F.);
#240=CARTESIAN_POINT('',(-5.22573654698157,12.3499999999929,
18.6199999999995));
#250=DIRECTION('',(1.22464679913867E-16,3.07583152490002E-16,-1.));
#260=VECTOR('',#250,1.);
#270=LINE('',#240,#260);
#280=CARTESIAN_POINT('',(-5.22573654698157,12.3499999999929,
14.6199999999995));
#290=VERTEX_POINT('',#280);
#300=EDGE_CURVE('',#210,#290,#270,.T.);
#310=ORIENTED_EDGE('',*,*,#300,.F.);
#320=CARTESIAN_POINT('',(2.85716722167479,12.3499999999929,
14.6199999999995));
#330=DIRECTION('',(-1.,-3.44509284839766E-16,-1.22464679913867E-16));
#340=VECTOR('',#330,1.);
#350=LINE('',#320,#340);
#360=EDGE_CURVE('',#130,#290,#350,.T.);
#370=ORIENTED_EDGE('',*,*,#360,.T.);
#380=EDGE_LOOP('',(#370,#310,#230,#150));
#390=FACE_OUTER_BOUND('',#380,.T.);
#400=ADVANCED_FACE('',(#390),#50,.T.);
#410=COLOUR_RGB('',0.709803938865662,0.713725507259369,0.709803938865662
);
#420=FILL_AREA_STYLE_COLOUR('',#410);
#430=FILL_AREA_STYLE('',(#420));
#440=SURFACE_STYLE_FILL_AREA(#430);
#450=SURFACE_SIDE_STYLE('',(#440));
#460=SURFACE_STYLE_USAGE(.BOTH.,#450);
#470=PRESENTATION_STYLE_ASSIGNMENT((#460));
#480=CARTESIAN_POINT('',(10.940070990328,-15.6500000000071,
27.2359832607742));
#490=DIRECTION('',(0.866025403784439,-0.499999999999999,
-4.77340523732619E-17));
#500=DIRECTION('',(0.499999999999999,0.866025403784439,
3.27607163789378E-16));
#510=AXIS2_PLACEMENT_3D('',#480,#490,#500);
#520=PLANE('',#510);
#530=CARTESIAN_POINT('',(10.940070990328,-15.6500000000071,
18.6199999999995));
#540=DIRECTION('',(1.22464679913867E-16,3.07583152490002E-16,-1.));
#550=VECTOR('',#540,1.);
#560=LINE('',#530,#550);
#570=CARTESIAN_POINT('',(10.940070990328,-15.6500000000071,
18.6199999999995));
#580=VERTEX_POINT('',#570);
#590=CARTESIAN_POINT('',(10.940070990328,-15.6500000000071,
14.6199999999995));
#600=VERTEX_POINT('',#590);
#610=EDGE_CURVE('',#580,#600,#560,.T.);
#620=ORIENTED_EDGE('',*,*,#610,.T.);
#630=CARTESIAN_POINT('',(19.0229747589816,-1.65000000000892,
18.6199999999995));
#640=DIRECTION('',(0.499999999999999,0.866025403784439,
3.27607163789378E-16));
#650=VECTOR('',#640,1.);
#660=LINE('',#630,#650);
#670=CARTESIAN_POINT('',(19.0229747589827,-1.65000000000706,
18.6199999999995));
#680=VERTEX_POINT('',#670);
#690=EDGE_CURVE('',#580,#680,#660,.T.);
#700=ORIENTED_EDGE('',*,*,#690,.F.);
#710=CARTESIAN_POINT('',(19.0229747589827,-1.65000000000706,
18.6199999999995));
#720=DIRECTION('',(1.22464679913867E-16,3.07583152490002E-16,-1.));
#730=VECTOR('',#720,1.);
#740=LINE('',#710,#730);
#750=CARTESIAN_POINT('',(19.0229747589827,-1.65000000000706,
14.6199999999995));
#760=VERTEX_POINT('',#750);
#770=EDGE_CURVE('',#680,#760,#740,.T.);
#780=ORIENTED_EDGE('',*,*,#770,.F.);
#790=CARTESIAN_POINT('',(19.0229747589816,-1.65000000000892,
14.6199999999995));
#800=DIRECTION('',(0.499999999999999,0.866025403784439,
3.27607163789378E-16));
#810=VECTOR('',#800,1.);
#820=LINE('',#790,#810);
#830=EDGE_CURVE('',#600,#760,#820,.T.);
#840=ORIENTED_EDGE('',*,*,#830,.T.);
#850=EDGE_LOOP('',(#840,#780,#700,#620));
#860=FACE_OUTER_BOUND('',#850,.T.);
#870=ADVANCED_FACE('',(#860),#520,.T.);
#880=COLOUR_RGB('',0.709803938865662,0.713725507259369,0.709803938865662
);
#890=FILL_AREA_STYLE_COLOUR('',#880);
#900=FILL_AREA_STYLE('',(#890));
#910=SURFACE_STYLE_FILL_AREA(#900);
#920=SURFACE_SIDE_STYLE('',(#910));
#930=SURFACE_STYLE_USAGE(.BOTH.,#920);
#940=PRESENTATION_STYLE_ASSIGNMENT((#930));
#950=CARTESIAN_POINT('',(-12.2678327783268,-1.65000000000536,
18.6199999999995));
#960=DIRECTION('',(-1.22464679913867E-16,-3.07583152490002E-16,1.));
#970=DIRECTION('',(1.,-1.13686837721616E-13,1.22464679913832E-16));
#980=AXIS2_PLACEMENT_3D('',#950,#960,#970);
#990=PLANE('',#980);
#1000=CARTESIAN_POINT('',(2.85716722167319,-1.65000000000708,
18.6199999999995));
#1010=DIRECTION('',(-1.22464679913867E-16,-3.07583152490002E-16,1.));
#1020=DIRECTION('',(1.,-1.13686837721616E-13,1.22464679913832E-16));
#1030=AXIS2_PLACEMENT_3D('',#1000,#1010,#1020);
#1040=CIRCLE('',#1030,12.5);
#1050=CARTESIAN_POINT('',(15.3571672216732,-1.6500000000085,
18.6199999999995));
#1060=VERTEX_POINT('',#1050);
#1070=CARTESIAN_POINT('',(2.85716722167316,10.8499999999929,
18.6199999999995));
#1080=VERTEX_POINT('',#1070);
#1090=EDGE_CURVE('',#1060,#1080,#1040,.T.);
#1100=ORIENTED_EDGE('',*,*,#1090,.F.);
#1110=CARTESIAN_POINT('',(2.85716722167317,-14.1500000000071,
18.6199999999995));
#1120=VERTEX_POINT('',#1110);
#1130=EDGE_CURVE('',#1080,#1120,#1040,.T.);
#1140=ORIENTED_EDGE('',*,*,#1130,.F.);
#1150=EDGE_CURVE('',#1120,#1060,#1040,.T.);
#1160=ORIENTED_EDGE('',*,*,#1150,.F.);
#1170=EDGE_LOOP('',(#1160,#1140,#1100));
#1180=FACE_BOUND('',#1170,.T.);
#1190=ORIENTED_EDGE('',*,*,#220,.T.);
#1200=CARTESIAN_POINT('',(19.0229747589838,-1.65000000000892,
18.6199999999995));
#1210=DIRECTION('',(-0.500000000000001,0.866025403784438,
2.05142483875511E-16));
#1220=VECTOR('',#1210,1.);
#1230=LINE('',#1200,#1220);
#1240=EDGE_CURVE('',#680,#110,#1230,.T.);
#1250=ORIENTED_EDGE('',*,*,#1240,.T.);
#1260=ORIENTED_EDGE('',*,*,#690,.T.);
#1270=CARTESIAN_POINT('',(2.8571672216716,-15.6500000000071,
18.6199999999995));
#1280=DIRECTION('',(1.,2.22044604925031E-16,1.22464679913867E-16));
#1290=VECTOR('',#1280,1.);
#1300=LINE('',#1270,#1290);
#1310=CARTESIAN_POINT('',(-5.22573654698156,-15.6500000000071,
18.6199999999995));
#1320=VERTEX_POINT('',#1310);
#1330=EDGE_CURVE('',#1320,#580,#1300,.T.);
#1340=ORIENTED_EDGE('',*,*,#1330,.T.);
#1350=CARTESIAN_POINT('',(-13.3086403156374,-1.65000000000524,
18.6199999999995));
#1360=DIRECTION('',(0.5,-0.866025403784438,-2.05142483875511E-16));
#1370=VECTOR('',#1360,1.);
#1380=LINE('',#1350,#1370);
#1390=CARTESIAN_POINT('',(-13.3086403156363,-1.65000000000709,
18.6199999999995));
#1400=VERTEX_POINT('',#1390);
#1410=EDGE_CURVE('',#1400,#1320,#1380,.T.);
#1420=ORIENTED_EDGE('',*,*,#1410,.T.);
#1430=CARTESIAN_POINT('',(-13.3086403156353,-1.65000000000524,
18.6199999999995));
#1440=DIRECTION('',(-0.5,-0.866025403784439,-3.27607163789378E-16));
#1450=VECTOR('',#1440,1.);
#1460=LINE('',#1430,#1450);
#1470=EDGE_CURVE('',#210,#1400,#1460,.T.);
#1480=ORIENTED_EDGE('',*,*,#1470,.T.);
#1490=EDGE_LOOP('',(#1480,#1420,#1340,#1260,#1250,#1190));
#1500=FACE_OUTER_BOUND('',#1490,.T.);
#1510=ADVANCED_FACE('',(#1180,#1500),#990,.T.);
#1520=COLOUR_RGB('',0.709803938865662,0.713725507259369,
0.709803938865662);
#1530=FILL_AREA_STYLE_COLOUR('',#1520);
#1540=FILL_AREA_STYLE('',(#1530));
#1550=SURFACE_STYLE_FILL_AREA(#1540);
#1560=SURFACE_SIDE_STYLE('',(#1550));
#1570=SURFACE_STYLE_USAGE(.BOTH.,#1560);
#1580=PRESENTATION_STYLE_ASSIGNMENT((#1570));
#1590=CARTESIAN_POINT('',(-13.3086403156363,-1.65000000000709,
27.2359832607742));
#1600=DIRECTION('',(-0.866025403784438,-0.5,-2.5984910011674E-16));
#1610=DIRECTION('',(0.5,-0.866025403784438,-2.05142483875511E-16));
#1620=AXIS2_PLACEMENT_3D('',#1590,#1600,#1610);
#1630=PLANE('',#1620);
#1640=CARTESIAN_POINT('',(-13.3086403156363,-1.65000000000708,
18.6199999999995));
#1650=DIRECTION('',(1.22464679913867E-16,3.07583152490002E-16,-1.));
#1660=VECTOR('',#1650,1.);
#1670=LINE('',#1640,#1660);
#1680=CARTESIAN_POINT('',(-13.3086403156363,-1.65000000000708,
14.6199999999995));
#1690=VERTEX_POINT('',#1680);
#1700=EDGE_CURVE('',#1400,#1690,#1670,.T.);
#1710=ORIENTED_EDGE('',*,*,#1700,.T.);
#1720=ORIENTED_EDGE('',*,*,#1410,.F.);
#1730=CARTESIAN_POINT('',(-5.22573654698156,-15.6500000000071,
18.6199999999995));
#1740=DIRECTION('',(1.22464679913867E-16,3.07583152490002E-16,-1.));
#1750=VECTOR('',#1740,1.);
#1760=LINE('',#1730,#1750);
#1770=CARTESIAN_POINT('',(-5.22573654698156,-15.6500000000071,
14.6199999999995));
#1780=VERTEX_POINT('',#1770);
#1790=EDGE_CURVE('',#1320,#1780,#1760,.T.);
#1800=ORIENTED_EDGE('',*,*,#1790,.F.);
#1810=CARTESIAN_POINT('',(-13.3086403156374,-1.65000000000524,
14.6199999999995));
#1820=DIRECTION('',(0.5,-0.866025403784438,-2.05142483875511E-16));
#1830=VECTOR('',#1820,1.);
#1840=LINE('',#1810,#1830);
#1850=EDGE_CURVE('',#1690,#1780,#1840,.T.);
#1860=ORIENTED_EDGE('',*,*,#1850,.T.);
#1870=EDGE_LOOP('',(#1860,#1800,#1720,#1710));
#1880=FACE_OUTER_BOUND('',#1870,.T.);
#1890=ADVANCED_FACE('',(#1880),#1630,.T.);
#1900=COLOUR_RGB('',0.709803938865662,0.713725507259369,
0.709803938865662);
#1910=FILL_AREA_STYLE_COLOUR('',#1900);
#1920=FILL_AREA_STYLE('',(#1910));
#1930=SURFACE_STYLE_FILL_AREA(#1920);
#1940=SURFACE_SIDE_STYLE('',(#1930));
#1950=SURFACE_STYLE_USAGE(.BOTH.,#1940);
#1960=PRESENTATION_STYLE_ASSIGNMENT((#1950));
#1970=CARTESIAN_POINT('',(-2.51783277832681,-1.65000000000647,
18.6199999999995));
#1980=DIRECTION('',(-1.22464679913867E-16,-3.07583152490002E-16,1.));
#1990=DIRECTION('',(1.,-1.13686837721616E-13,1.22464679913832E-16));
#2000=AXIS2_PLACEMENT_3D('',#1970,#1980,#1990);
#2010=PLANE('',#2000);
#2020=CARTESIAN_POINT('',(2.85716722167319,-1.65000000000708,
18.6199999999995));
#2030=DIRECTION('',(-1.22464679913867E-16,-3.07583152490002E-16,1.));
#2040=DIRECTION('',(1.,-1.13686837721616E-13,1.22464679913832E-16));
#2050=AXIS2_PLACEMENT_3D('',#2020,#2030,#2040);
#2060=CIRCLE('',#2050,10.75);
#2070=CARTESIAN_POINT('',(-7.89283277832681,-1.65000000000586,
18.6199999999995));
#2080=VERTEX_POINT('',#2070);
#2090=CARTESIAN_POINT('',(13.6071672216732,-1.6500000000083,
18.6199999999995));
#2100=VERTEX_POINT('',#2090);
#2110=EDGE_CURVE('',#2080,#2100,#2060,.T.);
#2120=ORIENTED_EDGE('',*,*,#2110,.T.);
#2130=EDGE_CURVE('',#2100,#2080,#2060,.T.);
#2140=ORIENTED_EDGE('',*,*,#2130,.T.);
#2150=EDGE_LOOP('',(#2140,#2120));
#2160=FACE_OUTER_BOUND('',#2150,.T.);
#2170=ADVANCED_FACE('',(#2160),#2010,.T.);
#2180=COLOUR_RGB('',0.709803938865662,0.713725507259369,
0.709803938865662);
#2190=FILL_AREA_STYLE_COLOUR('',#2180);
#2200=FILL_AREA_STYLE('',(#2190));
#2210=SURFACE_STYLE_FILL_AREA(#2200);
#2220=SURFACE_SIDE_STYLE('',(#2210));
#2230=SURFACE_STYLE_USAGE(.BOTH.,#2220);
#2240=PRESENTATION_STYLE_ASSIGNMENT((#2230));
#2250=CARTESIAN_POINT('',(2.85716722167319,-1.65000000000708,
22.1199999999995));
#2260=DIRECTION('',(-1.22464679913867E-16,-3.07583152490002E-16,1.));
#2270=DIRECTION('',(1.,-1.13686837721616E-13,1.22464679913832E-16));
#2280=AXIS2_PLACEMENT_3D('',#2250,#2260,#2270);
#2290=CYLINDRICAL_SURFACE('',#2280,10.75);
#2300=CARTESIAN_POINT('',(13.6071672216732,-1.6500000000083,
22.1199999999995));
#2310=DIRECTION('',(-1.22464679913867E-16,-3.07583152490002E-16,1.));
#2320=VECTOR('',#2310,1.);
#2330=LINE('',#2300,#2320);
#2340=CARTESIAN_POINT('',(13.6071672216732,-1.65000000000831,
25.6199999999995));
#2350=VERTEX_POINT('',#2340);
#2360=EDGE_CURVE('',#2100,#2350,#2330,.T.);
#2370=ORIENTED_EDGE('',*,*,#2360,.T.);
#2380=ORIENTED_EDGE('',*,*,#2130,.F.);
#2390=CARTESIAN_POINT('',(-7.89283277832681,-1.65000000000586,
22.1199999999995));
#2400=DIRECTION('',(-1.22464679913867E-16,-3.07583152490002E-16,1.));
#2410=VECTOR('',#2400,1.);
#2420=LINE('',#2390,#2410);
#2430=CARTESIAN_POINT('',(-7.89283277832681,-1.65000000000586,
25.6199999999995));
#2440=VERTEX_POINT('',#2430);
#2450=EDGE_CURVE('',#2080,#2440,#2420,.T.);
#2460=ORIENTED_EDGE('',*,*,#2450,.F.);
#2470=CARTESIAN_POINT('',(2.85716722167319,-1.65000000000708,
25.6199999999995));
#2480=DIRECTION('',(-1.22464679913867E-16,-3.07583152490002E-16,1.));
#2490=DIRECTION('',(1.,-1.13686837721616E-13,1.22464679913832E-16));
#2500=AXIS2_PLACEMENT_3D('',#2470,#2480,#2490);
#2510=CIRCLE('',#2500,10.75);
#2520=EDGE_CURVE('',#2350,#2440,#2510,.T.);
#2530=ORIENTED_EDGE('',*,*,#2520,.T.);
#2540=EDGE_LOOP('',(#2530,#2460,#2380,#2370));
#2550=FACE_OUTER_BOUND('',#2540,.T.);
#2560=ADVANCED_FACE('',(#2550),#2290,.F.);
#2570=COLOUR_RGB('',0.709803938865662,0.713725507259369,
0.709803938865662);
#2580=FILL_AREA_STYLE_COLOUR('',#2570);
#2590=FILL_AREA_STYLE('',(#2580));
#2600=SURFACE_STYLE_FILL_AREA(#2590);
#2610=SURFACE_SIDE_STYLE('',(#2600));
#2620=SURFACE_STYLE_USAGE(.BOTH.,#2610);
#2630=PRESENTATION_STYLE_ASSIGNMENT((#2620));
#2640=CARTESIAN_POINT('',(2.85716722167316,-1.65000000000709,
28.6199999999995));
#2650=DIRECTION('',(-1.22464679913888E-16,-4.92701625065304E-16,1.));
#2660=DIRECTION('',(-1.77681184883664E-16,1.,4.92701625065304E-16));
#2670=AXIS2_PLACEMENT_3D('',#2640,#2650,#2660);
#2680=CYLINDRICAL_SURFACE('',#2670,12.5);
#2690=CARTESIAN_POINT('',(2.85716722167316,-1.65000000000709,
25.6199999999995));
#2700=DIRECTION('',(-1.22464679913888E-16,-4.92701625065304E-16,1.));
#2710=DIRECTION('',(-1.77681184883664E-16,1.,4.92701625065304E-16));
#2720=AXIS2_PLACEMENT_3D('',#2690,#2700,#2710);
#2730=CIRCLE('',#2720,12.5);
#2740=CARTESIAN_POINT('',(15.1469237342521,-3.93295529118662,
25.6199999999995));
#2750=VERTEX_POINT('',#2740);
#2760=CARTESIAN_POINT('',(2.85716722167316,10.8499999999929,
25.6199999999995));
#2770=VERTEX_POINT('',#2760);
#2780=EDGE_CURVE('',#2750,#2770,#2730,.T.);
#2790=ORIENTED_EDGE('',*,*,#2780,.F.);
#2800=CARTESIAN_POINT('',(2.85716722167316,10.8499999999929,
28.6199999999995));
#2810=DIRECTION('',(-1.22464679913888E-16,-4.92701625065304E-16,1.));
#2820=VECTOR('',#2810,1.);
#2830=LINE('',#2800,#2820);
#2840=EDGE_CURVE('',#1080,#2770,#2830,.T.);
#2850=ORIENTED_EDGE('',*,*,#2840,.T.);
#2860=ORIENTED_EDGE('',*,*,#1090,.T.);
#2870=ORIENTED_EDGE('',*,*,#1150,.T.);
#2880=CARTESIAN_POINT('',(2.85716722167317,-14.1500000000071,
28.6199999999995));
#2890=DIRECTION('',(-1.22464679913888E-16,-4.92701625065304E-16,1.));
#2900=VECTOR('',#2890,1.);
#2910=LINE('',#2880,#2900);
#2920=CARTESIAN_POINT('',(2.85716722167317,-14.1500000000071,
25.6199999999995));
#2930=VERTEX_POINT('',#2920);
#2940=EDGE_CURVE('',#1120,#2930,#2910,.T.);
#2950=ORIENTED_EDGE('',*,*,#2940,.F.);
#2960=EDGE_CURVE('',#2930,#2750,#2730,.T.);
#2970=ORIENTED_EDGE('',*,*,#2960,.F.);
#2980=EDGE_LOOP('',(#2970,#2950,#2870,#2860,#2850,#2790));
#2990=FACE_OUTER_BOUND('',#2980,.T.);
#3000=ADVANCED_FACE('',(#2990),#2680,.T.);
#3010=COLOUR_RGB('',0.709803938865662,0.713725507259369,
0.709803938865662);
#3020=FILL_AREA_STYLE_COLOUR('',#3010);
#3030=FILL_AREA_STYLE('',(#3020));
#3040=SURFACE_STYLE_FILL_AREA(#3030);
#3050=SURFACE_SIDE_STYLE('',(#3040));
#3060=SURFACE_STYLE_USAGE(.BOTH.,#3050);
#3070=PRESENTATION_STYLE_ASSIGNMENT((#3060));
#3080=CARTESIAN_POINT('',(-9.14283277832681,-1.65000000000572,
25.6199999999995));
#3090=DIRECTION('',(-1.22464679913867E-16,-3.07583152490002E-16,1.));
#3100=DIRECTION('',(1.,-1.13686837721616E-13,1.22464679913832E-16));
#3110=AXIS2_PLACEMENT_3D('',#3080,#3090,#3100);
#3120=PLANE('',#3110);
#3130=EDGE_CURVE('',#2440,#2350,#2510,.T.);
#3140=ORIENTED_EDGE('',*,*,#3130,.F.);
#3150=ORIENTED_EDGE('',*,*,#2520,.F.);
#3160=EDGE_LOOP('',(#3150,#3140));
#3170=FACE_BOUND('',#3160,.T.);
#3180=EDGE_CURVE('',#2770,#2930,#2730,.T.);
#3190=ORIENTED_EDGE('',*,*,#3180,.T.);
#3200=ORIENTED_EDGE('',*,*,#2780,.T.);
#3210=ORIENTED_EDGE('',*,*,#2960,.T.);
#3220=EDGE_LOOP('',(#3210,#3200,#3190));
#3230=FACE_OUTER_BOUND('',#3220,.T.);
#3240=ADVANCED_FACE('',(#3170,#3230),#3120,.T.);
#3250=COLOUR_RGB('',0.709803938865662,0.713725507259369,
0.709803938865662);
#3260=FILL_AREA_STYLE_COLOUR('',#3250);
#3270=FILL_AREA_STYLE('',(#3260));
#3280=SURFACE_STYLE_FILL_AREA(#3270);
#3290=SURFACE_SIDE_STYLE('',(#3280));
#3300=SURFACE_STYLE_USAGE(.BOTH.,#3290);
#3310=PRESENTATION_STYLE_ASSIGNMENT((#3300));
#3320=CARTESIAN_POINT('',(-5.64283277832681,-1.65000000000611,
14.6199999999995));
#3330=DIRECTION('',(1.22464679913867E-16,3.07583152490002E-16,-1.));
#3340=DIRECTION('',(-1.,1.13686837721616E-13,-1.22464679913832E-16));
#3350=AXIS2_PLACEMENT_3D('',#3320,#3330,#3340);
#3360=PLANE('',#3350);
#3370=ORIENTED_EDGE('',*,*,#1850,.F.);
#3380=CARTESIAN_POINT('',(2.8571672216716,-15.6500000000071,
14.6199999999995));
#3390=DIRECTION('',(1.,2.22044604925031E-16,1.22464679913867E-16));
#3400=VECTOR('',#3390,1.);
#3410=LINE('',#3380,#3400);
#3420=EDGE_CURVE('',#1780,#600,#3410,.T.);
#3430=ORIENTED_EDGE('',*,*,#3420,.F.);
#3440=ORIENTED_EDGE('',*,*,#830,.F.);
#3450=CARTESIAN_POINT('',(19.0229747589838,-1.65000000000892,
14.6199999999995));
#3460=DIRECTION('',(-0.500000000000001,0.866025403784438,
2.05142483875511E-16));
#3470=VECTOR('',#3460,1.);
#3480=LINE('',#3450,#3470);
#3490=EDGE_CURVE('',#760,#130,#3480,.T.);
#3500=ORIENTED_EDGE('',*,*,#3490,.F.);
#3510=ORIENTED_EDGE('',*,*,#360,.F.);
#3520=CARTESIAN_POINT('',(-13.3086403156353,-1.65000000000524,
14.6199999999995));
#3530=DIRECTION('',(-0.5,-0.866025403784439,-3.27607163789378E-16));
#3540=VECTOR('',#3530,1.);
#3550=LINE('',#3520,#3540);
#3560=EDGE_CURVE('',#290,#1690,#3550,.T.);
#3570=ORIENTED_EDGE('',*,*,#3560,.F.);
#3580=EDGE_LOOP('',(#3570,#3510,#3500,#3440,#3430,#3370));
#3590=FACE_OUTER_BOUND('',#3580,.T.);
#3600=ADVANCED_FACE('',(#3590),#3360,.T.);
#3610=COLOUR_RGB('',0.709803938865662,0.713725507259369,
0.709803938865662);
#3620=FILL_AREA_STYLE_COLOUR('',#3610);
#3630=FILL_AREA_STYLE('',(#3620));
#3640=SURFACE_STYLE_FILL_AREA(#3630);
#3650=SURFACE_SIDE_STYLE('',(#3640));
#3660=SURFACE_STYLE_USAGE(.BOTH.,#3650);
#3670=PRESENTATION_STYLE_ASSIGNMENT((#3660));
#3680=CARTESIAN_POINT('',(-5.22573654698157,12.3499999999929,
27.2359832607742));
#3690=DIRECTION('',(-0.866025403784439,0.5,4.77340523732621E-17));
#3700=DIRECTION('',(-0.5,-0.866025403784439,-3.27607163789378E-16));
#3710=AXIS2_PLACEMENT_3D('',#3680,#3690,#3700);
#3720=PLANE('',#3710);
#3730=ORIENTED_EDGE('',*,*,#1700,.F.);
#3740=ORIENTED_EDGE('',*,*,#3560,.T.);
#3750=ORIENTED_EDGE('',*,*,#300,.T.);
#3760=ORIENTED_EDGE('',*,*,#1470,.F.);
#3770=EDGE_LOOP('',(#3760,#3750,#3740,#3730));
#3780=FACE_OUTER_BOUND('',#3770,.T.);
#3790=ADVANCED_FACE('',(#3780),#3720,.T.);
#3800=COLOUR_RGB('',0.709803938865662,0.713725507259369,
0.709803938865662);
#3810=FILL_AREA_STYLE_COLOUR('',#3800);
#3820=FILL_AREA_STYLE('',(#3810));
#3830=SURFACE_STYLE_FILL_AREA(#3820);
#3840=SURFACE_SIDE_STYLE('',(#3830));
#3850=SURFACE_STYLE_USAGE(.BOTH.,#3840);
#3860=PRESENTATION_STYLE_ASSIGNMENT((#3850));
#3870=CARTESIAN_POINT('',(-5.22573654698157,-15.6500000000071,
27.2359832607742));
#3880=DIRECTION('',(2.22044604925031E-16,-1.,-3.07583152490002E-16));
#3890=DIRECTION('',(1.,2.22044604925031E-16,1.22464679913867E-16));
#3900=AXIS2_PLACEMENT_3D('',#3870,#3880,#3890);
#3910=PLANE('',#3900);
#3920=ORIENTED_EDGE('',*,*,#1790,.T.);
#3930=ORIENTED_EDGE('',*,*,#1330,.F.);
#3940=ORIENTED_EDGE('',*,*,#610,.F.);
#3950=ORIENTED_EDGE('',*,*,#3420,.T.);
#3960=EDGE_LOOP('',(#3950,#3940,#3930,#3920));
#3970=FACE_OUTER_BOUND('',#3960,.T.);
#3980=ADVANCED_FACE('',(#3970),#3910,.T.);
#3990=COLOUR_RGB('',0.709803938865662,0.713725507259369,
0.709803938865662);
#4000=FILL_AREA_STYLE_COLOUR('',#3990);
#4010=FILL_AREA_STYLE('',(#4000));
#4020=SURFACE_STYLE_FILL_AREA(#4010);
#4030=SURFACE_SIDE_STYLE('',(#4020));
#4040=SURFACE_STYLE_USAGE(.BOTH.,#4030);
#4050=PRESENTATION_STYLE_ASSIGNMENT((#4040));
#4060=CARTESIAN_POINT('',(19.0229747589827,-1.65000000000707,
27.2359832607742));
#4070=DIRECTION('',(0.866025403784438,0.500000000000001,
2.5984910011674E-16));
#4080=DIRECTION('',(-0.500000000000001,0.866025403784438,
2.05142483875511E-16));
#4090=AXIS2_PLACEMENT_3D('',#4060,#4070,#4080);
#4100=PLANE('',#4090);
#4110=ORIENTED_EDGE('',*,*,#770,.T.);
#4120=ORIENTED_EDGE('',*,*,#1240,.F.);
#4130=ORIENTED_EDGE('',*,*,#140,.F.);
#4140=ORIENTED_EDGE('',*,*,#3490,.T.);
#4150=EDGE_LOOP('',(#4140,#4130,#4120,#4110));
#4160=FACE_OUTER_BOUND('',#4150,.T.);
#4170=ADVANCED_FACE('',(#4160),#4100,.T.);
#4180=COLOUR_RGB('',0.709803938865662,0.713725507259369,
0.709803938865662);
#4190=FILL_AREA_STYLE_COLOUR('',#4180);
#4200=FILL_AREA_STYLE('',(#4190));
#4210=SURFACE_STYLE_FILL_AREA(#4200);
#4220=SURFACE_SIDE_STYLE('',(#4210));
#4230=SURFACE_STYLE_USAGE(.BOTH.,#4220);
#4240=PRESENTATION_STYLE_ASSIGNMENT((#4230));
#4250=CARTESIAN_POINT('',(2.85716722167316,-1.65000000000709,
28.6199999999995));
#4260=DIRECTION('',(-1.22464679913888E-16,-4.92701625065304E-16,1.));
#4270=DIRECTION('',(-1.77681184883664E-16,1.,4.92701625065304E-16));
#4280=AXIS2_PLACEMENT_3D('',#4250,#4260,#4270);
#4290=CYLINDRICAL_SURFACE('',#4280,12.5);
#4300=ORIENTED_EDGE('',*,*,#3180,.F.);
#4310=ORIENTED_EDGE('',*,*,#2940,.T.);
#4320=ORIENTED_EDGE('',*,*,#1130,.T.);
#4330=ORIENTED_EDGE('',*,*,#2840,.F.);
#4340=EDGE_LOOP('',(#4330,#4320,#4310,#4300));
#4350=FACE_OUTER_BOUND('',#4340,.T.);
#4360=ADVANCED_FACE('',(#4350),#4290,.T.);
#4370=COLOUR_RGB('',0.709803938865662,0.713725507259369,
0.709803938865662);
#4380=FILL_AREA_STYLE_COLOUR('',#4370);
#4390=FILL_AREA_STYLE('',(#4380));
#4400=SURFACE_STYLE_FILL_AREA(#4390);
#4410=SURFACE_SIDE_STYLE('',(#4400));
#4420=SURFACE_STYLE_USAGE(.BOTH.,#4410);
#4430=PRESENTATION_STYLE_ASSIGNMENT((#4420));
#4440=CARTESIAN_POINT('',(2.85716722167319,-1.65000000000708,
22.1199999999995));
#4450=DIRECTION('',(-1.22464679913867E-16,-3.07583152490002E-16,1.));
#4460=DIRECTION('',(1.,-1.13686837721616E-13,1.22464679913832E-16));
#4470=AXIS2_PLACEMENT_3D('',#4440,#4450,#4460);
#4480=CYLINDRICAL_SURFACE('',#4470,10.75);
#4490=ORIENTED_EDGE('',*,*,#3130,.T.);
#4500=ORIENTED_EDGE('',*,*,#2450,.T.);
#4510=ORIENTED_EDGE('',*,*,#2110,.F.);
#4520=ORIENTED_EDGE('',*,*,#2360,.F.);
#4530=EDGE_LOOP('',(#4520,#4510,#4500,#4490));
#4540=FACE_OUTER_BOUND('',#4530,.T.);
#4550=ADVANCED_FACE('',(#4540),#4480,.F.);
#4560=COLOUR_RGB('',0.709803938865662,0.713725507259369,
0.709803938865662);
#4570=FILL_AREA_STYLE_COLOUR('',#4560);
#4580=FILL_AREA_STYLE('',(#4570));
#4590=SURFACE_STYLE_FILL_AREA(#4580);
#4600=SURFACE_SIDE_STYLE('',(#4590));
#4610=SURFACE_STYLE_USAGE(.BOTH.,#4600);
#4620=PRESENTATION_STYLE_ASSIGNMENT((#4610));
#4630=CLOSED_SHELL('',(#400,#870,#1510,#1890,#2170,#2560,#3000,#3240,
#3600,#3790,#3980,#4170,#4360,#4550));
#4640=MANIFOLD_SOLID_BREP('',#4630);
#4650=CARTESIAN_POINT('',(0.,0.,0.));
#4660=DIRECTION('',(0.,0.,1.));
#4670=DIRECTION('',(1.,0.,0.));
#4680=AXIS2_PLACEMENT_3D('',#4650,#4660,#4670);
#4690=APPLICATION_CONTEXT(' ');
#4700=APPLICATION_PROTOCOL_DEFINITION(' ','automotive_design',1998,#4690
);
#4710=PRODUCT_CONTEXT('',#4690,'mechanical');
#4720=PRODUCT_DEFINITION_CONTEXT('part definition',#4690,'design');
#4730=PRODUCT('HC_M_BS_M25-select','HC_M_BS_M25-select','',(#4710));
#4740=PRODUCT_RELATED_PRODUCT_CATEGORY('part',' ',(#4730));
#4750=PRODUCT_DEFINITION_FORMATION_WITH_SPECIFIED_SOURCE('','',#4730,
.BOUGHT.);
#4760=PRODUCT_DEFINITION('',' ',#4750,#4720);
#4770=PRODUCT_DEFINITION_SHAPE('','',#4760);
#4780=DIMENSIONAL_EXPONENTS(1.,0.,0.,0.,0.,0.,0.);
#4790=DIMENSIONAL_EXPONENTS(0.,0.,0.,0.,0.,0.,0.);
#4800=DIMENSIONAL_EXPONENTS(0.,0.,0.,0.,0.,0.,0.);
#4810=(LENGTH_UNIT() NAMED_UNIT(*) SI_UNIT(.MILLI.,.METRE.));
#4820=(NAMED_UNIT(*) PLANE_ANGLE_UNIT() SI_UNIT($,.RADIAN.));
#4830=(NAMED_UNIT(*) SI_UNIT($,.STERADIAN.) SOLID_ANGLE_UNIT());
#4840=(GEOMETRIC_REPRESENTATION_CONTEXT(3) 
GLOBAL_UNCERTAINTY_ASSIGNED_CONTEXT((#4850)) 
GLOBAL_UNIT_ASSIGNED_CONTEXT((#4810,#4820,#4830)) REPRESENTATION_CONTEXT
('',''));
#4850=UNCERTAINTY_MEASURE_WITH_UNIT(LENGTH_MEASURE(1.E-6),#4810,
'distance_accuracy_value','maximum gap value');
#4860=ADVANCED_BREP_SHAPE_REPRESENTATION('',(#4680,#4640),#4840);
#4870=SHAPE_DEFINITION_REPRESENTATION(#4770,#4860);
#4880=COLOUR_RGB('',0.709803938865662,0.713725507259369,
0.709803938865662);
#4890=FILL_AREA_STYLE_COLOUR('',#4880);
#4900=FILL_AREA_STYLE('',(#4890));
#4910=SURFACE_STYLE_FILL_AREA(#4900);
#4920=SURFACE_SIDE_STYLE('',(#4910));
#4930=SURFACE_STYLE_USAGE(.BOTH.,#4920);
#4940=PRESENTATION_STYLE_ASSIGNMENT((#4930));
#4950=STYLED_ITEM('',(#4940),#4640);
#4960=OVER_RIDING_STYLED_ITEM('',(#470),#400,#4950);
#4970=OVER_RIDING_STYLED_ITEM('',(#940),#870,#4950);
#4980=OVER_RIDING_STYLED_ITEM('',(#1580),#1510,#4950);
#4990=OVER_RIDING_STYLED_ITEM('',(#1960),#1890,#4950);
#5000=OVER_RIDING_STYLED_ITEM('',(#2240),#2170,#4950);
#5010=OVER_RIDING_STYLED_ITEM('',(#2630),#2560,#4950);
#5020=OVER_RIDING_STYLED_ITEM('',(#3070),#3000,#4950);
#5030=OVER_RIDING_STYLED_ITEM('',(#3310),#3240,#4950);
#5040=OVER_RIDING_STYLED_ITEM('',(#3670),#3600,#4950);
#5050=OVER_RIDING_STYLED_ITEM('',(#3860),#3790,#4950);
#5060=OVER_RIDING_STYLED_ITEM('',(#4050),#3980,#4950);
#5070=OVER_RIDING_STYLED_ITEM('',(#4240),#4170,#4950);
#5080=OVER_RIDING_STYLED_ITEM('',(#4430),#4360,#4950);
#5090=OVER_RIDING_STYLED_ITEM('',(#4620),#4550,#4950);
#5100=DRAUGHTING_MODEL('',(#4950,#4960,#4970,#4980,#4990,#5000,#5010,
#5020,#5030,#5040,#5050,#5060,#5070,#5080,#5090),#4840);
#5110=CARTESIAN_POINT('',(16.1654492318957,17.2993793968327,
25.6199999999992));
#5120=DIRECTION('',(-6.12323399569334E-17,-1.06057523871739E-16,-1.));
#5130=DIRECTION('',(-0.499999999999999,-0.866025403784439,
1.22464679913867E-16));
#5140=AXIS2_PLACEMENT_3D('',#5110,#5120,#5130);
#5150=ITEM_DEFINED_TRANSFORMATION('HC_M_BS_M25-select','',#4680,#5140);
#5160=APPLICATION_CONTEXT(' ');
#5170=APPLICATION_PROTOCOL_DEFINITION(' ','automotive_design',1998,#5160
);
#5180=PRODUCT_CONTEXT('',#5160,'mechanical');
#5190=PRODUCT_DEFINITION_CONTEXT('part definition',#5160,'design');
#5200=PRODUCT('HC_M_BS_M25-select','HC_M_BS_M25-select','',(#5180));
#5210=PRODUCT_RELATED_PRODUCT_CATEGORY('part',' ',(#5200));
#5220=PRODUCT_DEFINITION_FORMATION_WITH_SPECIFIED_SOURCE('','',#5200,
.BOUGHT.);
#5230=PRODUCT_DEFINITION('',' ',#5220,#5190);
#5240=PRODUCT_DEFINITION_SHAPE('','',#5230);
#5250=DIMENSIONAL_EXPONENTS(1.,0.,0.,0.,0.,0.,0.);
#5260=DIMENSIONAL_EXPONENTS(0.,0.,0.,0.,0.,0.,0.);
#5270=DIMENSIONAL_EXPONENTS(0.,0.,0.,0.,0.,0.,0.);
#5280=(LENGTH_UNIT() NAMED_UNIT(*) SI_UNIT(.MILLI.,.METRE.));
#5290=(NAMED_UNIT(*) PLANE_ANGLE_UNIT() SI_UNIT($,.RADIAN.));
#5300=(NAMED_UNIT(*) SI_UNIT($,.STERADIAN.) SOLID_ANGLE_UNIT());
#5310=(GEOMETRIC_REPRESENTATION_CONTEXT(3) 
GLOBAL_UNCERTAINTY_ASSIGNED_CONTEXT((#5320)) 
GLOBAL_UNIT_ASSIGNED_CONTEXT((#5280,#5290,#5300)) REPRESENTATION_CONTEXT
('',''));
#5320=UNCERTAINTY_MEASURE_WITH_UNIT(LENGTH_MEASURE(1.E-6),#5280,
'distance_accuracy_value','maximum gap value');
#5330=SHAPE_REPRESENTATION('',(#4680,#5140),#5310);
#5340=SHAPE_DEFINITION_REPRESENTATION(#5240,#5330);
#5350=(REPRESENTATION_RELATIONSHIP('','',#4860,#5330) 
REPRESENTATION_RELATIONSHIP_WITH_TRANSFORMATION(#5150) 
SHAPE_REPRESENTATION_RELATIONSHIP());
#5360=NEXT_ASSEMBLY_USAGE_OCCURRENCE('1','','HC_M_BS_M25-select',#5230,
#4760,'');
#5370=PRODUCT_DEFINITION_SHAPE('','',#5360);
#5380=CONTEXT_DEPENDENT_SHAPE_REPRESENTATION(#5350,#5370);
ENDSEC;
END-ISO-10303-21;
