ISO-10303-21;
HEADER;
FILE_DESCRIPTION(('Creo Elements/Direct Modeling STEP Export'),'2;1');
FILE_NAME(
'D:/temp/JobSpoolerServerData/JobServer Files/1c772d51-8891-44c3-a6f8-f5
42aa4e215d/work/output/model.stp','2017-12-15T10:07:04',(''),(''),
'Creo Elements/Direct Modeling STEP processor for AP214 (Solid Model)',
'Creo Elements/Direct Modeling 18.1I  14-Aug-2016 (C) Parametric Technol
ogy GmbH','');
FILE_SCHEMA(('AUTOMOTIVE_DESIGN { 1 0 10303 214 1 1 1 1 }'));
ENDSEC;
DATA;
#10=CARTESIAN_POINT('',(0.,0.,0.));
#20=DIRECTION('',(0.,0.,1.));
#30=DIRECTION('',(1.,0.,0.));
#40=AXIS2_PLACEMENT_3D('',#10,#20,#30);
#50=PLANE('',#40);
#60=CARTESIAN_POINT('',(47.956848,28.81257,0.));
#70=DIRECTION('',(-1.,0.,0.));
#80=VECTOR('',#70,1.);
#90=LINE('',#60,#80);
#100=CARTESIAN_POINT('',(53.456848,28.81257,0.));
#110=VERTEX_POINT('',#100);
#120=CARTESIAN_POINT('',(42.456848,28.81257,0.));
#130=VERTEX_POINT('',#120);
#140=EDGE_CURVE('',#110,#130,#90,.T.);
#150=ORIENTED_EDGE('',*,*,#140,.F.);
#160=CARTESIAN_POINT('',(42.456848,28.81257,0.));
#170=DIRECTION('',(0.,-1.,0.));
#180=VECTOR('',#170,1.);
#190=LINE('',#160,#180);
#200=CARTESIAN_POINT('',(42.456848,24.71257,0.));
#210=VERTEX_POINT('',#200);
#220=EDGE_CURVE('',#130,#210,#190,.T.);
#230=ORIENTED_EDGE('',*,*,#220,.F.);
#240=CARTESIAN_POINT('',(42.456848,24.71257,0.));
#250=DIRECTION('',(-1.,0.,0.));
#260=VECTOR('',#250,1.);
#270=LINE('',#240,#260);
#280=CARTESIAN_POINT('',(33.956848,24.71257,0.));
#290=VERTEX_POINT('',#280);
#300=EDGE_CURVE('',#210,#290,#270,.T.);
#310=ORIENTED_EDGE('',*,*,#300,.F.);
#320=CARTESIAN_POINT('',(33.956848,24.71257,0.));
#330=DIRECTION('',(0.,-1.,0.));
#340=VECTOR('',#330,1.);
#350=LINE('',#320,#340);
#360=CARTESIAN_POINT('',(33.956848,-1.48743,0.));
#370=VERTEX_POINT('',#360);
#380=EDGE_CURVE('',#290,#370,#350,.T.);
#390=ORIENTED_EDGE('',*,*,#380,.F.);
#400=CARTESIAN_POINT('',(61.956848,-1.48743,0.));
#410=DIRECTION('',(-1.,0.,0.));
#420=VECTOR('',#410,1.);
#430=LINE('',#400,#420);
#440=CARTESIAN_POINT('',(61.956848,-1.48743,0.));
#450=VERTEX_POINT('',#440);
#460=EDGE_CURVE('',#450,#370,#430,.T.);
#470=ORIENTED_EDGE('',*,*,#460,.T.);
#480=CARTESIAN_POINT('',(61.956848,24.71257,0.));
#490=DIRECTION('',(0.,-1.,0.));
#500=VECTOR('',#490,1.);
#510=LINE('',#480,#500);
#520=CARTESIAN_POINT('',(61.956848,24.71257,0.));
#530=VERTEX_POINT('',#520);
#540=EDGE_CURVE('',#530,#450,#510,.T.);
#550=ORIENTED_EDGE('',*,*,#540,.T.);
#560=CARTESIAN_POINT('',(53.456848,24.71257,0.));
#570=DIRECTION('',(1.,0.,0.));
#580=VECTOR('',#570,1.);
#590=LINE('',#560,#580);
#600=CARTESIAN_POINT('',(53.456848,24.71257,0.));
#610=VERTEX_POINT('',#600);
#620=EDGE_CURVE('',#610,#530,#590,.T.);
#630=ORIENTED_EDGE('',*,*,#620,.T.);
#640=CARTESIAN_POINT('',(53.456848,28.81257,0.));
#650=DIRECTION('',(0.,-1.,0.));
#660=VECTOR('',#650,1.);
#670=LINE('',#640,#660);
#680=EDGE_CURVE('',#110,#610,#670,.T.);
#690=ORIENTED_EDGE('',*,*,#680,.T.);
#700=EDGE_LOOP('',(#690,#630,#550,#470,#390,#310,#230,#150));
#710=FACE_OUTER_BOUND('',#700,.T.);
#720=ADVANCED_FACE('',(#710),#50,.F.);
#730=COLOUR_RGB('',0.560784339904785,0.588235318660736,0.600000023841858
);
#740=FILL_AREA_STYLE_COLOUR('',#730);
#750=FILL_AREA_STYLE('',(#740));
#760=SURFACE_STYLE_FILL_AREA(#750);
#770=SURFACE_SIDE_STYLE('',(#760));
#780=SURFACE_STYLE_USAGE(.BOTH.,#770);
#790=PRESENTATION_STYLE_ASSIGNMENT((#780));
#800=CARTESIAN_POINT('',(0.,0.,1.));
#810=DIRECTION('',(0.,0.,1.));
#820=DIRECTION('',(1.,0.,0.));
#830=AXIS2_PLACEMENT_3D('',#800,#810,#820);
#840=PLANE('',#830);
#850=CARTESIAN_POINT('',(53.456848,28.81257,1.));
#860=DIRECTION('',(0.,-1.,0.));
#870=VECTOR('',#860,1.);
#880=LINE('',#850,#870);
#890=CARTESIAN_POINT('',(53.456848,28.81257,1.));
#900=VERTEX_POINT('',#890);
#910=CARTESIAN_POINT('',(53.456848,24.71257,1.));
#920=VERTEX_POINT('',#910);
#930=EDGE_CURVE('',#900,#920,#880,.T.);
#940=ORIENTED_EDGE('',*,*,#930,.F.);
#950=CARTESIAN_POINT('',(53.456848,24.71257,1.));
#960=DIRECTION('',(1.,0.,0.));
#970=VECTOR('',#960,1.);
#980=LINE('',#950,#970);
#990=CARTESIAN_POINT('',(61.956848,24.71257,1.));
#1000=VERTEX_POINT('',#990);
#1010=EDGE_CURVE('',#920,#1000,#980,.T.);
#1020=ORIENTED_EDGE('',*,*,#1010,.F.);
#1030=CARTESIAN_POINT('',(61.956848,24.71257,1.));
#1040=DIRECTION('',(0.,-1.,0.));
#1050=VECTOR('',#1040,1.);
#1060=LINE('',#1030,#1050);
#1070=CARTESIAN_POINT('',(61.956848,-1.48743,1.));
#1080=VERTEX_POINT('',#1070);
#1090=EDGE_CURVE('',#1000,#1080,#1060,.T.);
#1100=ORIENTED_EDGE('',*,*,#1090,.F.);
#1110=CARTESIAN_POINT('',(61.956848,-1.48743,1.));
#1120=DIRECTION('',(-1.,0.,0.));
#1130=VECTOR('',#1120,1.);
#1140=LINE('',#1110,#1130);
#1150=CARTESIAN_POINT('',(33.956848,-1.48743,1.));
#1160=VERTEX_POINT('',#1150);
#1170=EDGE_CURVE('',#1080,#1160,#1140,.T.);
#1180=ORIENTED_EDGE('',*,*,#1170,.F.);
#1190=CARTESIAN_POINT('',(33.956848,24.71257,1.));
#1200=DIRECTION('',(0.,-1.,0.));
#1210=VECTOR('',#1200,1.);
#1220=LINE('',#1190,#1210);
#1230=CARTESIAN_POINT('',(33.956848,24.71257,1.));
#1240=VERTEX_POINT('',#1230);
#1250=EDGE_CURVE('',#1240,#1160,#1220,.T.);
#1260=ORIENTED_EDGE('',*,*,#1250,.T.);
#1270=CARTESIAN_POINT('',(42.456848,24.71257,1.));
#1280=DIRECTION('',(-1.,0.,0.));
#1290=VECTOR('',#1280,1.);
#1300=LINE('',#1270,#1290);
#1310=CARTESIAN_POINT('',(42.456848,24.71257,1.));
#1320=VERTEX_POINT('',#1310);
#1330=EDGE_CURVE('',#1320,#1240,#1300,.T.);
#1340=ORIENTED_EDGE('',*,*,#1330,.T.);
#1350=CARTESIAN_POINT('',(42.456848,28.81257,1.));
#1360=DIRECTION('',(0.,-1.,0.));
#1370=VECTOR('',#1360,1.);
#1380=LINE('',#1350,#1370);
#1390=CARTESIAN_POINT('',(42.456848,28.81257,1.));
#1400=VERTEX_POINT('',#1390);
#1410=EDGE_CURVE('',#1400,#1320,#1380,.T.);
#1420=ORIENTED_EDGE('',*,*,#1410,.T.);
#1430=CARTESIAN_POINT('',(47.956848,28.81257,1.));
#1440=DIRECTION('',(-1.,0.,0.));
#1450=VECTOR('',#1440,1.);
#1460=LINE('',#1430,#1450);
#1470=EDGE_CURVE('',#900,#1400,#1460,.T.);
#1480=ORIENTED_EDGE('',*,*,#1470,.T.);
#1490=EDGE_LOOP('',(#1480,#1420,#1340,#1260,#1180,#1100,#1020,#940));
#1500=FACE_OUTER_BOUND('',#1490,.T.);
#1510=ADVANCED_FACE('',(#1500),#840,.T.);
#1520=COLOUR_RGB('',0.560784339904785,0.588235318660736,
0.600000023841858);
#1530=FILL_AREA_STYLE_COLOUR('',#1520);
#1540=FILL_AREA_STYLE('',(#1530));
#1550=SURFACE_STYLE_FILL_AREA(#1540);
#1560=SURFACE_SIDE_STYLE('',(#1550));
#1570=SURFACE_STYLE_USAGE(.BOTH.,#1560);
#1580=PRESENTATION_STYLE_ASSIGNMENT((#1570));
#1590=CARTESIAN_POINT('',(61.956848,-1.48743,0.));
#1600=DIRECTION('',(-0.,-1.,-0.));
#1610=DIRECTION('',(-1.,0.,0.));
#1620=AXIS2_PLACEMENT_3D('',#1590,#1600,#1610);
#1630=PLANE('',#1620);
#1640=CARTESIAN_POINT('',(33.956848,-1.48743,0.));
#1650=DIRECTION('',(0.,0.,1.));
#1660=VECTOR('',#1650,1.);
#1670=LINE('',#1640,#1660);
#1680=EDGE_CURVE('',#370,#1160,#1670,.T.);
#1690=ORIENTED_EDGE('',*,*,#1680,.F.);
#1700=ORIENTED_EDGE('',*,*,#1170,.T.);
#1710=CARTESIAN_POINT('',(61.956848,-1.48743,0.));
#1720=DIRECTION('',(0.,0.,1.));
#1730=VECTOR('',#1720,1.);
#1740=LINE('',#1710,#1730);
#1750=EDGE_CURVE('',#450,#1080,#1740,.T.);
#1760=ORIENTED_EDGE('',*,*,#1750,.T.);
#1770=ORIENTED_EDGE('',*,*,#460,.F.);
#1780=EDGE_LOOP('',(#1770,#1760,#1700,#1690));
#1790=FACE_OUTER_BOUND('',#1780,.T.);
#1800=ADVANCED_FACE('',(#1790),#1630,.T.);
#1810=COLOUR_RGB('',0.560784339904785,0.588235318660736,
0.600000023841858);
#1820=FILL_AREA_STYLE_COLOUR('',#1810);
#1830=FILL_AREA_STYLE('',(#1820));
#1840=SURFACE_STYLE_FILL_AREA(#1830);
#1850=SURFACE_SIDE_STYLE('',(#1840));
#1860=SURFACE_STYLE_USAGE(.BOTH.,#1850);
#1870=PRESENTATION_STYLE_ASSIGNMENT((#1860));
#1880=CARTESIAN_POINT('',(61.956848,24.71257,0.));
#1890=DIRECTION('',(1.,0.,0.));
#1900=DIRECTION('',(0.,-1.,0.));
#1910=AXIS2_PLACEMENT_3D('',#1880,#1890,#1900);
#1920=PLANE('',#1910);
#1930=ORIENTED_EDGE('',*,*,#1750,.F.);
#1940=ORIENTED_EDGE('',*,*,#1090,.T.);
#1950=CARTESIAN_POINT('',(61.956848,24.71257,0.));
#1960=DIRECTION('',(0.,0.,1.));
#1970=VECTOR('',#1960,1.);
#1980=LINE('',#1950,#1970);
#1990=EDGE_CURVE('',#530,#1000,#1980,.T.);
#2000=ORIENTED_EDGE('',*,*,#1990,.T.);
#2010=ORIENTED_EDGE('',*,*,#540,.F.);
#2020=EDGE_LOOP('',(#2010,#2000,#1940,#1930));
#2030=FACE_OUTER_BOUND('',#2020,.T.);
#2040=ADVANCED_FACE('',(#2030),#1920,.T.);
#2050=COLOUR_RGB('',0.560784339904785,0.588235318660736,
0.600000023841858);
#2060=FILL_AREA_STYLE_COLOUR('',#2050);
#2070=FILL_AREA_STYLE('',(#2060));
#2080=SURFACE_STYLE_FILL_AREA(#2070);
#2090=SURFACE_SIDE_STYLE('',(#2080));
#2100=SURFACE_STYLE_USAGE(.BOTH.,#2090);
#2110=PRESENTATION_STYLE_ASSIGNMENT((#2100));
#2120=CARTESIAN_POINT('',(53.456848,24.71257,0.));
#2130=DIRECTION('',(-0.,1.,0.));
#2140=DIRECTION('',(1.,0.,0.));
#2150=AXIS2_PLACEMENT_3D('',#2120,#2130,#2140);
#2160=PLANE('',#2150);
#2170=ORIENTED_EDGE('',*,*,#1990,.F.);
#2180=ORIENTED_EDGE('',*,*,#1010,.T.);
#2190=CARTESIAN_POINT('',(53.456848,24.71257,0.));
#2200=DIRECTION('',(0.,0.,1.));
#2210=VECTOR('',#2200,1.);
#2220=LINE('',#2190,#2210);
#2230=EDGE_CURVE('',#610,#920,#2220,.T.);
#2240=ORIENTED_EDGE('',*,*,#2230,.T.);
#2250=ORIENTED_EDGE('',*,*,#620,.F.);
#2260=EDGE_LOOP('',(#2250,#2240,#2180,#2170));
#2270=FACE_OUTER_BOUND('',#2260,.T.);
#2280=ADVANCED_FACE('',(#2270),#2160,.T.);
#2290=COLOUR_RGB('',0.560784339904785,0.588235318660736,
0.600000023841858);
#2300=FILL_AREA_STYLE_COLOUR('',#2290);
#2310=FILL_AREA_STYLE('',(#2300));
#2320=SURFACE_STYLE_FILL_AREA(#2310);
#2330=SURFACE_SIDE_STYLE('',(#2320));
#2340=SURFACE_STYLE_USAGE(.BOTH.,#2330);
#2350=PRESENTATION_STYLE_ASSIGNMENT((#2340));
#2360=CARTESIAN_POINT('',(53.456848,28.81257,0.));
#2370=DIRECTION('',(1.,0.,0.));
#2380=DIRECTION('',(0.,-1.,0.));
#2390=AXIS2_PLACEMENT_3D('',#2360,#2370,#2380);
#2400=PLANE('',#2390);
#2410=ORIENTED_EDGE('',*,*,#2230,.F.);
#2420=ORIENTED_EDGE('',*,*,#930,.T.);
#2430=CARTESIAN_POINT('',(53.456848,28.81257,0.));
#2440=DIRECTION('',(0.,0.,1.));
#2450=VECTOR('',#2440,1.);
#2460=LINE('',#2430,#2450);
#2470=EDGE_CURVE('',#110,#900,#2460,.T.);
#2480=ORIENTED_EDGE('',*,*,#2470,.T.);
#2490=ORIENTED_EDGE('',*,*,#680,.F.);
#2500=EDGE_LOOP('',(#2490,#2480,#2420,#2410));
#2510=FACE_OUTER_BOUND('',#2500,.T.);
#2520=ADVANCED_FACE('',(#2510),#2400,.T.);
#2530=COLOUR_RGB('',0.560784339904785,0.588235318660736,
0.600000023841858);
#2540=FILL_AREA_STYLE_COLOUR('',#2530);
#2550=FILL_AREA_STYLE('',(#2540));
#2560=SURFACE_STYLE_FILL_AREA(#2550);
#2570=SURFACE_SIDE_STYLE('',(#2560));
#2580=SURFACE_STYLE_USAGE(.BOTH.,#2570);
#2590=PRESENTATION_STYLE_ASSIGNMENT((#2580));
#2600=CARTESIAN_POINT('',(47.956848,28.81257,0.));
#2610=DIRECTION('',(-0.,1.,0.));
#2620=DIRECTION('',(1.,0.,0.));
#2630=AXIS2_PLACEMENT_3D('',#2600,#2610,#2620);
#2640=PLANE('',#2630);
#2650=ORIENTED_EDGE('',*,*,#2470,.F.);
#2660=ORIENTED_EDGE('',*,*,#1470,.F.);
#2670=CARTESIAN_POINT('',(42.456848,28.81257,0.));
#2680=DIRECTION('',(0.,0.,1.));
#2690=VECTOR('',#2680,1.);
#2700=LINE('',#2670,#2690);
#2710=EDGE_CURVE('',#130,#1400,#2700,.T.);
#2720=ORIENTED_EDGE('',*,*,#2710,.T.);
#2730=ORIENTED_EDGE('',*,*,#140,.T.);
#2740=EDGE_LOOP('',(#2730,#2720,#2660,#2650));
#2750=FACE_OUTER_BOUND('',#2740,.T.);
#2760=ADVANCED_FACE('',(#2750),#2640,.T.);
#2770=COLOUR_RGB('',0.560784339904785,0.588235318660736,
0.600000023841858);
#2780=FILL_AREA_STYLE_COLOUR('',#2770);
#2790=FILL_AREA_STYLE('',(#2780));
#2800=SURFACE_STYLE_FILL_AREA(#2790);
#2810=SURFACE_SIDE_STYLE('',(#2800));
#2820=SURFACE_STYLE_USAGE(.BOTH.,#2810);
#2830=PRESENTATION_STYLE_ASSIGNMENT((#2820));
#2840=CARTESIAN_POINT('',(33.956848,-1.48743,0.));
#2850=DIRECTION('',(-1.,0.,0.));
#2860=DIRECTION('',(0.,1.,0.));
#2870=AXIS2_PLACEMENT_3D('',#2840,#2850,#2860);
#2880=PLANE('',#2870);
#2890=CARTESIAN_POINT('',(33.956848,24.71257,0.));
#2900=DIRECTION('',(0.,0.,1.));
#2910=VECTOR('',#2900,1.);
#2920=LINE('',#2890,#2910);
#2930=EDGE_CURVE('',#290,#1240,#2920,.T.);
#2940=ORIENTED_EDGE('',*,*,#2930,.F.);
#2950=ORIENTED_EDGE('',*,*,#1250,.F.);
#2960=ORIENTED_EDGE('',*,*,#1680,.T.);
#2970=ORIENTED_EDGE('',*,*,#380,.T.);
#2980=EDGE_LOOP('',(#2970,#2960,#2950,#2940));
#2990=FACE_OUTER_BOUND('',#2980,.T.);
#3000=ADVANCED_FACE('',(#2990),#2880,.T.);
#3010=COLOUR_RGB('',0.560784339904785,0.588235318660736,
0.600000023841858);
#3020=FILL_AREA_STYLE_COLOUR('',#3010);
#3030=FILL_AREA_STYLE('',(#3020));
#3040=SURFACE_STYLE_FILL_AREA(#3030);
#3050=SURFACE_SIDE_STYLE('',(#3040));
#3060=SURFACE_STYLE_USAGE(.BOTH.,#3050);
#3070=PRESENTATION_STYLE_ASSIGNMENT((#3060));
#3080=CARTESIAN_POINT('',(42.456848,24.71257,0.));
#3090=DIRECTION('',(-1.,0.,0.));
#3100=DIRECTION('',(0.,1.,0.));
#3110=AXIS2_PLACEMENT_3D('',#3080,#3090,#3100);
#3120=PLANE('',#3110);
#3130=ORIENTED_EDGE('',*,*,#2710,.F.);
#3140=ORIENTED_EDGE('',*,*,#1410,.F.);
#3150=CARTESIAN_POINT('',(42.456848,24.71257,0.));
#3160=DIRECTION('',(0.,0.,1.));
#3170=VECTOR('',#3160,1.);
#3180=LINE('',#3150,#3170);
#3190=EDGE_CURVE('',#210,#1320,#3180,.T.);
#3200=ORIENTED_EDGE('',*,*,#3190,.T.);
#3210=ORIENTED_EDGE('',*,*,#220,.T.);
#3220=EDGE_LOOP('',(#3210,#3200,#3140,#3130));
#3230=FACE_OUTER_BOUND('',#3220,.T.);
#3240=ADVANCED_FACE('',(#3230),#3120,.T.);
#3250=COLOUR_RGB('',0.560784339904785,0.588235318660736,
0.600000023841858);
#3260=FILL_AREA_STYLE_COLOUR('',#3250);
#3270=FILL_AREA_STYLE('',(#3260));
#3280=SURFACE_STYLE_FILL_AREA(#3270);
#3290=SURFACE_SIDE_STYLE('',(#3280));
#3300=SURFACE_STYLE_USAGE(.BOTH.,#3290);
#3310=PRESENTATION_STYLE_ASSIGNMENT((#3300));
#3320=CARTESIAN_POINT('',(33.956848,24.71257,0.));
#3330=DIRECTION('',(-0.,1.,0.));
#3340=DIRECTION('',(1.,0.,0.));
#3350=AXIS2_PLACEMENT_3D('',#3320,#3330,#3340);
#3360=PLANE('',#3350);
#3370=ORIENTED_EDGE('',*,*,#3190,.F.);
#3380=ORIENTED_EDGE('',*,*,#1330,.F.);
#3390=ORIENTED_EDGE('',*,*,#2930,.T.);
#3400=ORIENTED_EDGE('',*,*,#300,.T.);
#3410=EDGE_LOOP('',(#3400,#3390,#3380,#3370));
#3420=FACE_OUTER_BOUND('',#3410,.T.);
#3430=ADVANCED_FACE('',(#3420),#3360,.T.);
#3440=COLOUR_RGB('',0.560784339904785,0.588235318660736,
0.600000023841858);
#3450=FILL_AREA_STYLE_COLOUR('',#3440);
#3460=FILL_AREA_STYLE('',(#3450));
#3470=SURFACE_STYLE_FILL_AREA(#3460);
#3480=SURFACE_SIDE_STYLE('',(#3470));
#3490=SURFACE_STYLE_USAGE(.BOTH.,#3480);
#3500=PRESENTATION_STYLE_ASSIGNMENT((#3490));
#3510=CLOSED_SHELL('',(#1800,#2040,#2280,#2520,#2760,#3000,#3240,#3430,
#1510,#720));
#3520=MANIFOLD_SOLID_BREP('',#3510);
#3530=CARTESIAN_POINT('',(0.,0.,0.));
#3540=DIRECTION('',(0.,0.,1.));
#3550=DIRECTION('',(1.,0.,0.));
#3560=AXIS2_PLACEMENT_3D('',#3530,#3540,#3550);
#3570=APPLICATION_CONTEXT(' ');
#3580=APPLICATION_PROTOCOL_DEFINITION(' ','automotive_design',1998,#3570
);
#3590=PRODUCT_CONTEXT('',#3570,'mechanical');
#3600=PRODUCT_DEFINITION_CONTEXT('part definition',#3570,'design');
#3610=PRODUCT('D_MBK_5_E_T-select','D_MBK_5_E_T-select','',(#3590));
#3620=PRODUCT_RELATED_PRODUCT_CATEGORY('part',' ',(#3610));
#3630=PRODUCT_DEFINITION_FORMATION_WITH_SPECIFIED_SOURCE('','',#3610,
.BOUGHT.);
#3640=PRODUCT_DEFINITION('',' ',#3630,#3600);
#3650=PRODUCT_DEFINITION_SHAPE('','',#3640);
#3660=DIMENSIONAL_EXPONENTS(1.,0.,0.,0.,0.,0.,0.);
#3670=DIMENSIONAL_EXPONENTS(0.,0.,0.,0.,0.,0.,0.);
#3680=DIMENSIONAL_EXPONENTS(0.,0.,0.,0.,0.,0.,0.);
#3690=(LENGTH_UNIT() NAMED_UNIT(*) SI_UNIT(.MILLI.,.METRE.));
#3700=(NAMED_UNIT(*) PLANE_ANGLE_UNIT() SI_UNIT($,.RADIAN.));
#3710=(NAMED_UNIT(*) SI_UNIT($,.STERADIAN.) SOLID_ANGLE_UNIT());
#3720=(GEOMETRIC_REPRESENTATION_CONTEXT(3) 
GLOBAL_UNCERTAINTY_ASSIGNED_CONTEXT((#3730)) 
GLOBAL_UNIT_ASSIGNED_CONTEXT((#3690,#3700,#3710)) REPRESENTATION_CONTEXT
('',''));
#3730=UNCERTAINTY_MEASURE_WITH_UNIT(LENGTH_MEASURE(1.E-6),#3690,
'distance_accuracy_value','maximum gap value');
#3740=ADVANCED_BREP_SHAPE_REPRESENTATION('',(#3560,#3520),#3720);
#3750=SHAPE_DEFINITION_REPRESENTATION(#3650,#3740);
#3760=COLOUR_RGB('',0.560784339904785,0.588235318660736,
0.600000023841858);
#3770=FILL_AREA_STYLE_COLOUR('',#3760);
#3780=FILL_AREA_STYLE('',(#3770));
#3790=SURFACE_STYLE_FILL_AREA(#3780);
#3800=SURFACE_SIDE_STYLE('',(#3790));
#3810=SURFACE_STYLE_USAGE(.BOTH.,#3800);
#3820=PRESENTATION_STYLE_ASSIGNMENT((#3810));
#3830=STYLED_ITEM('',(#3820),#3520);
#3840=OVER_RIDING_STYLED_ITEM('',(#790),#720,#3830);
#3850=OVER_RIDING_STYLED_ITEM('',(#1580),#1510,#3830);
#3860=OVER_RIDING_STYLED_ITEM('',(#1870),#1800,#3830);
#3870=OVER_RIDING_STYLED_ITEM('',(#2110),#2040,#3830);
#3880=OVER_RIDING_STYLED_ITEM('',(#2350),#2280,#3830);
#3890=OVER_RIDING_STYLED_ITEM('',(#2590),#2520,#3830);
#3900=OVER_RIDING_STYLED_ITEM('',(#2830),#2760,#3830);
#3910=OVER_RIDING_STYLED_ITEM('',(#3070),#3000,#3830);
#3920=OVER_RIDING_STYLED_ITEM('',(#3310),#3240,#3830);
#3930=OVER_RIDING_STYLED_ITEM('',(#3500),#3430,#3830);
#3940=DRAUGHTING_MODEL('',(#3830,#3840,#3850,#3860,#3870,#3880,#3890,
#3900,#3910,#3920,#3930),#3720);
#3950=CARTESIAN_POINT('',(8.88178419700125E-15,-33.956848,
1.48742999999972));
#3960=DIRECTION('',(1.,2.0122792321331E-16,2.0122792321331E-16));
#3970=DIRECTION('',(-2.0122792321331E-16,1.,-4.04926770807416E-32));
#3980=AXIS2_PLACEMENT_3D('',#3950,#3960,#3970);
#3990=ITEM_DEFINED_TRANSFORMATION('D_MBK_5_E_T-select','',#3560,#3980);
#4000=APPLICATION_CONTEXT(' ');
#4010=APPLICATION_PROTOCOL_DEFINITION(' ','automotive_design',1998,#4000
);
#4020=PRODUCT_CONTEXT('',#4000,'mechanical');
#4030=PRODUCT_DEFINITION_CONTEXT('part definition',#4000,'design');
#4040=PRODUCT('D_MBK_5_E_T-select','D_MBK_5_E_T-select','',(#4020));
#4050=PRODUCT_RELATED_PRODUCT_CATEGORY('part',' ',(#4040));
#4060=PRODUCT_DEFINITION_FORMATION_WITH_SPECIFIED_SOURCE('','',#4040,
.BOUGHT.);
#4070=PRODUCT_DEFINITION('',' ',#4060,#4030);
#4080=PRODUCT_DEFINITION_SHAPE('','',#4070);
#4090=DIMENSIONAL_EXPONENTS(1.,0.,0.,0.,0.,0.,0.);
#4100=DIMENSIONAL_EXPONENTS(0.,0.,0.,0.,0.,0.,0.);
#4110=DIMENSIONAL_EXPONENTS(0.,0.,0.,0.,0.,0.,0.);
#4120=(LENGTH_UNIT() NAMED_UNIT(*) SI_UNIT(.MILLI.,.METRE.));
#4130=(NAMED_UNIT(*) PLANE_ANGLE_UNIT() SI_UNIT($,.RADIAN.));
#4140=(NAMED_UNIT(*) SI_UNIT($,.STERADIAN.) SOLID_ANGLE_UNIT());
#4150=(GEOMETRIC_REPRESENTATION_CONTEXT(3) 
GLOBAL_UNCERTAINTY_ASSIGNED_CONTEXT((#4160)) 
GLOBAL_UNIT_ASSIGNED_CONTEXT((#4120,#4130,#4140)) REPRESENTATION_CONTEXT
('',''));
#4160=UNCERTAINTY_MEASURE_WITH_UNIT(LENGTH_MEASURE(1.E-6),#4120,
'distance_accuracy_value','maximum gap value');
#4170=SHAPE_REPRESENTATION('',(#3560,#3980),#4150);
#4180=SHAPE_DEFINITION_REPRESENTATION(#4080,#4170);
#4190=(REPRESENTATION_RELATIONSHIP('','',#3740,#4170) 
REPRESENTATION_RELATIONSHIP_WITH_TRANSFORMATION(#3990) 
SHAPE_REPRESENTATION_RELATIONSHIP());
#4200=NEXT_ASSEMBLY_USAGE_OCCURRENCE('1','','D_MBK_5_E_T-select',#4070,
#3640,'');
#4210=PRODUCT_DEFINITION_SHAPE('','',#4200);
#4220=CONTEXT_DEPENDENT_SHAPE_REPRESENTATION(#4190,#4210);
ENDSEC;
END-ISO-10303-21;
