  0
SECTION
  2
HEADER
  9
$ACADVER
  1
AC1018
  9
$ACADMAINTVER
 70
     0
  9
$DWGCODEPAGE
  3
ANSI_1252
  9
$INSBASE
 10
0.0
 20
0.0
 30
0.0
  9
$EXTMIN
 10
-454.9684584316704
 20
-301.8235650491265
 30
0.0
  9
$EXTMAX
 10
-34.96845843167199
 20
-4.82356504912648
 30
0.0
  9
$LIMMIN
 10
0.0
 20
0.0
  9
$LIMMAX
 10
12.0
 20
9.0
  9
$ORTHOMODE
 70
     0
  9
$REGENMODE
 70
     1
  9
$FILLMODE
 70
     1
  9
$QTEXTMODE
 70
     0
  9
$MIRRTEXT
 70
     1
  9
$LTSCALE
 40
1.0
  9
$ATTMODE
 70
     1
  9
$TEXTSIZE
 40
0.2
  9
$TRACEWID
 40
0.05
  9
$TEXTSTYLE
  7
Standard
  9
$CLAYER
  8
0
  9
$CELTYPE
  6
ByLayer
  9
$CECOLOR
 62
   256
  9
$CELTSCALE
 40
1.0
  9
$DISPSILH
 70
     0
  9
$DIMSCALE
 40
1.0
  9
$DIMASZ
 40
0.18
  9
$DIMEXO
 40
0.0625
  9
$DIMDLI
 40
0.38
  9
$DIMRND
 40
0.0
  9
$DIMDLE
 40
0.0
  9
$DIMEXE
 40
0.18
  9
$DIMTP
 40
0.0
  9
$DIMTM
 40
0.0
  9
$DIMTXT
 40
0.18
  9
$DIMCEN
 40
0.09
  9
$DIMTSZ
 40
0.0
  9
$DIMTOL
 70
     0
  9
$DIMLIM
 70
     0
  9
$DIMTIH
 70
     1
  9
$DIMTOH
 70
     1
  9
$DIMSE1
 70
     0
  9
$DIMSE2
 70
     0
  9
$DIMTAD
 70
     0
  9
$DIMZIN
 70
     0
  9
$DIMBLK
  1

  9
$DIMASO
 70
     1
  9
$DIMSHO
 70
     1
  9
$DIMPOST
  1

  9
$DIMAPOST
  1

  9
$DIMALT
 70
     0
  9
$DIMALTD
 70
     2
  9
$DIMALTF
 40
25.4
  9
$DIMLFAC
 40
1.0
  9
$DIMTOFL
 70
     0
  9
$DIMTVP
 40
0.0
  9
$DIMTIX
 70
     0
  9
$DIMSOXD
 70
     0
  9
$DIMSAH
 70
     0
  9
$DIMBLK1
  1

  9
$DIMBLK2
  1

  9
$DIMSTYLE
  2
Standard
  9
$DIMCLRD
 70
     0
  9
$DIMCLRE
 70
     0
  9
$DIMCLRT
 70
     0
  9
$DIMTFAC
 40
1.0
  9
$DIMGAP
 40
0.09
  9
$DIMJUST
 70
     0
  9
$DIMSD1
 70
     0
  9
$DIMSD2
 70
     0
  9
$DIMTOLJ
 70
     1
  9
$DIMTZIN
 70
     0
  9
$DIMALTZ
 70
     0
  9
$DIMALTTZ
 70
     0
  9
$DIMUPT
 70
     0
  9
$DIMDEC
 70
     4
  9
$DIMTDEC
 70
     4
  9
$DIMALTU
 70
     2
  9
$DIMALTTD
 70
     2
  9
$DIMTXSTY
  7
Standard
  9
$DIMAUNIT
 70
     0
  9
$DIMADEC
 70
     0
  9
$DIMALTRND
 40
0.0
  9
$DIMAZIN
 70
     0
  9
$DIMDSEP
 70
    46
  9
$DIMATFIT
 70
     3
  9
$DIMFRAC
 70
     0
  9
$DIMLDRBLK
  1

  9
$DIMLUNIT
 70
     2
  9
$DIMLWD
 70
    -2
  9
$DIMLWE
 70
    -2
  9
$DIMTMOVE
 70
     0
  9
$LUNITS
 70
     2
  9
$LUPREC
 70
     4
  9
$SKETCHINC
 40
0.1
  9
$FILLETRAD
 40
0.5
  9
$AUNITS
 70
     0
  9
$AUPREC
 70
     0
  9
$MENU
  1
.
  9
$ELEVATION
 40
0.0
  9
$PELEVATION
 40
0.0
  9
$THICKNESS
 40
0.0
  9
$LIMCHECK
 70
     0
  9
$CHAMFERA
 40
0.0
  9
$CHAMFERB
 40
0.0
  9
$CHAMFERC
 40
0.0
  9
$CHAMFERD
 40
0.0
  9
$SKPOLY
 70
     0
  9
$TDCREATE
 40
2459065.587935995
  9
$TDUCREATE
 40
2459065.504602662
  9
$TDUPDATE
 40
2459065.587936181
  9
$TDUUPDATE
 40
2459065.504602847
  9
$TDINDWG
 40
0.0000000116
  9
$TDUSRTIMER
 40
0.0000000116
  9
$USRTIMER
 70
     1
  9
$ANGBASE
 50
0.0
  9
$ANGDIR
 70
     0
  9
$PDMODE
 70
     0
  9
$PDSIZE
 40
0.0
  9
$PLINEWID
 40
0.0
  9
$SPLFRAME
 70
     0
  9
$SPLINETYPE
 70
     6
  9
$SPLINESEGS
 70
     8
  9
$HANDSEED
  5
23E
  9
$SURFTAB1
 70
     6
  9
$SURFTAB2
 70
     6
  9
$SURFTYPE
 70
     6
  9
$SURFU
 70
     6
  9
$SURFV
 70
     6
  9
$UCSBASE
  2

  9
$UCSNAME
  2

  9
$UCSORG
 10
0.0
 20
0.0
 30
0.0
  9
$UCSXDIR
 10
1.0
 20
0.0
 30
0.0
  9
$UCSYDIR
 10
0.0
 20
1.0
 30
0.0
  9
$UCSORTHOREF
  2

  9
$UCSORTHOVIEW
 70
     0
  9
$UCSORGTOP
 10
0.0
 20
0.0
 30
0.0
  9
$UCSORGBOTTOM
 10
0.0
 20
0.0
 30
0.0
  9
$UCSORGLEFT
 10
0.0
 20
0.0
 30
0.0
  9
$UCSORGRIGHT
 10
0.0
 20
0.0
 30
0.0
  9
$UCSORGFRONT
 10
0.0
 20
0.0
 30
0.0
  9
$UCSORGBACK
 10
0.0
 20
0.0
 30
0.0
  9
$PUCSBASE
  2

  9
$PUCSNAME
  2

  9
$PUCSORG
 10
0.0
 20
0.0
 30
0.0
  9
$PUCSXDIR
 10
1.0
 20
0.0
 30
0.0
  9
$PUCSYDIR
 10
0.0
 20
1.0
 30
0.0
  9
$PUCSORTHOREF
  2

  9
$PUCSORTHOVIEW
 70
     0
  9
$PUCSORGTOP
 10
0.0
 20
0.0
 30
0.0
  9
$PUCSORGBOTTOM
 10
0.0
 20
0.0
 30
0.0
  9
$PUCSORGLEFT
 10
0.0
 20
0.0
 30
0.0
  9
$PUCSORGRIGHT
 10
0.0
 20
0.0
 30
0.0
  9
$PUCSORGFRONT
 10
0.0
 20
0.0
 30
0.0
  9
$PUCSORGBACK
 10
0.0
 20
0.0
 30
0.0
  9
$USERI1
 70
     0
  9
$USERI2
 70
     0
  9
$USERI3
 70
     0
  9
$USERI4
 70
     0
  9
$USERI5
 70
     0
  9
$USERR1
 40
20.1
  9
$USERR2
 40
0.0
  9
$USERR3
 40
0.0
  9
$USERR4
 40
0.0
  9
$USERR5
 40
0.0
  9
$WORLDVIEW
 70
     1
  9
$SHADEDGE
 70
     3
  9
$SHADEDIF
 70
    70
  9
$TILEMODE
 70
     1
  9
$MAXACTVP
 70
    64
  9
$PINSBASE
 10
0.0
 20
0.0
 30
0.0
  9
$PLIMCHECK
 70
     0
  9
$PEXTMIN
 10
1.00000000000000E+20
 20
1.00000000000000E+20
 30
1.00000000000000E+20
  9
$PEXTMAX
 10
-1.00000000000000E+20
 20
-1.00000000000000E+20
 30
-1.00000000000000E+20
  9
$PLIMMIN
 10
0.0
 20
0.0
  9
$PLIMMAX
 10
12.0
 20
9.0
  9
$UNITMODE
 70
     0
  9
$VISRETAIN
 70
     1
  9
$PLINEGEN
 70
     0
  9
$PSLTSCALE
 70
     1
  9
$TREEDEPTH
 70
  3020
  9
$CMLSTYLE
  2
Standard
  9
$CMLJUST
 70
     0
  9
$CMLSCALE
 40
1.0
  9
$PROXYGRAPHICS
 70
     1
  9
$MEASUREMENT
 70
     1
  9
$CELWEIGHT
370
    -1
  9
$ENDCAPS
280
     0
  9
$JOINSTYLE
280
     0
  9
$LWDISPLAY
290
     0
  9
$INSUNITS
 70
     4
  9
$HYPERLINKBASE
  1

  9
$STYLESHEET
  1

  9
$XEDIT
290
     1
  9
$CEPSNTYPE
380
     0
  9
$PSTYLEMODE
290
     1
  9
$FINGERPRINTGUID
  2
{d764ce02-46f4-45a9-b278-61873f6304f3}
  9
$VERSIONGUID
  2
{FAEB1C32-E019-11D5-929B-00C0DF256EC4}
  9
$EXTNAMES
290
     1
  9
$PSVPSCALE
 40
0.0
  9
$OLESTARTUP
290
     0
  9
$SORTENTS
280
   127
  9
$INDEXCTL
280
     0
  9
$HIDETEXT
280
     1
  9
$XCLIPFRAME
290
     0
  9
$HALOGAP
280
     0
  9
$OBSCOLOR
 70
   257
  9
$OBSLTYPE
280
     0
  9
$INTERSECTIONDISPLAY
280
     0
  9
$INTERSECTIONCOLOR
 70
   257
  9
$DIMASSOC
280
     2
  9
$PROJECTNAME
  1

  0
ENDSEC
  0
SECTION
  2
CLASSES
  0
CLASS
  1
ACDBDICTIONARYWDFLT
  2
AcDbDictionaryWithDefault
  3
ObjectDBX Classes
 90
        0
 91
        3
280
     0
281
     0
  0
CLASS
  1
VISUALSTYLE
  2
AcDbVisualStyle
  3
ObjectDBX Classes
 90
     4095
 91
        3
280
     0
281
     0
  0
CLASS
  1
MATERIAL
  2
AcDbMaterial
  3
ObjectDBX Classes
 90
     1153
 91
        3
280
     0
281
     0
  0
CLASS
  1
SCALE
  2
AcDbScale
  3
ObjectDBX Classes
 90
     1153
 91
        3
280
     0
281
     0
  0
CLASS
  1
TABLESTYLE
  2
AcDbTableStyle
  3
ObjectDBX Classes
 90
     4095
 91
        3
280
     0
281
     0
  0
CLASS
  1
MLEADERSTYLE
  2
AcDbMLeaderStyle
  3
ACDB_MLEADERSTYLE_CLASS
 90
     4095
 91
        3
280
     0
281
     0
  0
CLASS
  1
SUN
  2
AcDbSun
  3
SCENEOE
 90
     1153
 91
        3
280
     0
281
     0
  0
CLASS
  1
DICTIONARYVAR
  2
AcDbDictionaryVar
  3
ObjectDBX Classes
 90
        0
 91
        3
280
     0
281
     0
  0
CLASS
  1
CELLSTYLEMAP
  2
AcDbCellStyleMap
  3
ObjectDBX Classes
 90
     1152
 91
        3
280
     0
281
     0
  0
ENDSEC
  0
SECTION
  2
TABLES
  0
TABLE
  2
VPORT
  5
8
102
{ACAD_XDICTIONARY
360
1F7
102
}
330
0
100
AcDbSymbolTable
 70
     1
  0
VPORT
  5
29
330
8
100
AcDbSymbolTableRecord
100
AcDbViewportTableRecord
  2
*Active
 70
     0
 10
0.0
 20
0.0
 11
1.0
 21
1.0
 12
-244.9684584316712
 22
-153.3235650491265
 13
0.0
 23
0.0
 14
0.5
 24
0.5
 15
0.5
 25
0.5
 16
0.0
 26
0.0
 36
1.0
 17
0.0
 27
0.0
 37
0.0
 40
326.7
 41
1.60267857142857
 42
50.0
 43
0.0
 44
0.0
 50
0.0
 51
0.0
 71
     0
 72
   100
 73
     1
 74
     3
 75
     0
 76
     0
 77
     0
 78
     0
281
     0
 65
     1
110
0.0
120
0.0
130
0.0
111
1.0
121
0.0
131
0.0
112
0.0
122
1.0
132
0.0
 79
     0
146
0.0
  0
ENDTAB
  0
TABLE
  2
LTYPE
  5
5
330
0
100
AcDbSymbolTable
 70
     8
  0
LTYPE
  5
14
330
5
100
AcDbSymbolTableRecord
100
AcDbLinetypeTableRecord
  2
ByBlock
 70
     0
  3

 72
    65
 73
     0
 40
0.0
  0
LTYPE
  5
15
330
5
100
AcDbSymbolTableRecord
100
AcDbLinetypeTableRecord
  2
ByLayer
 70
     0
  3

 72
    65
 73
     0
 40
0.0
  0
LTYPE
  5
16
330
5
100
AcDbSymbolTableRecord
100
AcDbLinetypeTableRecord
  2
Continuous
 70
     0
  3
Solid line
 72
    65
 73
     0
 40
0.0
  0
LTYPE
  5
6E
330
5
100
AcDbSymbolTableRecord
100
AcDbLinetypeTableRecord
  2
DASHED
 70
     0
  3
Dashed
 72
    65
 73
     2
 40
15.0
 49
7.0
 74
     0
 49
-8.0
 74
     0
  0
LTYPE
  5
6F
330
5
100
AcDbSymbolTableRecord
100
AcDbLinetypeTableRecord
  2
DOTTED
 70
     0
  3
Dotted
 72
    65
 73
     2
 40
1.0
 49
0.0
 74
     0
 49
-1.0
 74
     0
  0
LTYPE
  5
70
330
5
100
AcDbSymbolTableRecord
100
AcDbLinetypeTableRecord
  2
DOT_CENTER
 70
     0
  3
Dot_Center
 72
    65
 73
     4
 40
14.0
 49
12.0
 74
     0
 49
-1.0
 74
     0
 49
0.0
 74
     0
 49
-1.0
 74
     0
  0
LTYPE
  5
71
330
5
100
AcDbSymbolTableRecord
100
AcDbLinetypeTableRecord
  2
LONG_DASHED
 70
     0
  3
Long_Dashed
 72
    65
 73
     2
 40
15.0
 49
10.0
 74
     0
 49
-5.0
 74
     0
  0
LTYPE
  5
72
330
5
100
AcDbSymbolTableRecord
100
AcDbLinetypeTableRecord
  2
DASH_CENTER
 70
     0
  3
Dash_Center
 72
    65
 73
     4
 40
14.0
 49
11.0
 74
     0
 49
-1.0
 74
     0
 49
1.0
 74
     0
 49
-1.0
 74
     0
  0
LTYPE
  5
73
330
5
100
AcDbSymbolTableRecord
100
AcDbLinetypeTableRecord
  2
PHANTOM
 70
     0
  3
Phantom
 72
    65
 73
     6
 40
13.0
 49
10.0
 74
     0
 49
-1.0
 74
     0
 49
0.0
 74
     0
 49
-1.0
 74
     0
 49
0.0
 74
     0
 49
-1.0
 74
     0
  0
LTYPE
  5
74
330
5
100
AcDbSymbolTableRecord
100
AcDbLinetypeTableRecord
  2
CENTER_DASH_DASH
 70
     0
  3
Center_Dash_Dash
 72
    65
 73
     6
 40
14.0
 49
9.0
 74
     0
 49
-1.0
 74
     0
 49
1.0
 74
     0
 49
-1.0
 74
     0
 49
1.0
 74
     0
 49
-1.0
 74
     0
  0
ENDTAB
  0
TABLE
  2
LAYER
  5
2
330
0
100
AcDbSymbolTable
 70
     2
  0
LAYER
  5
10
330
2
100
AcDbSymbolTableRecord
100
AcDbLayerTableRecord
  2
0
 70
     0
 62
     7
  6
Continuous
370
    -3
390
F
  0
LAYER
  5
75
330
2
100
AcDbSymbolTableRecord
100
AcDbLayerTableRecord
  2
1
 70
     0
 62
     7
  6
Continuous
370
    -3
390
F
  0
ENDTAB
  0
TABLE
  2
STYLE
  5
3
330
0
100
AcDbSymbolTable
 70
     5
  0
STYLE
  5
11
330
3
100
AcDbSymbolTableRecord
100
AcDbTextStyleTableRecord
  2
Standard
 70
     0
 40
0.0
 41
1.0
 50
0.0
 71
     0
 42
0.2
  3
txt
  4

  0
STYLE
  5
195
330
3
100
AcDbSymbolTableRecord
100
AcDbTextStyleTableRecord
  2
CONVERTER_11
 70
     0
 40
0.0
 41
0.9
 50
0.0
 71
     0
 42
0.2
  3
txt.shx
  4

  0
STYLE
  5
1A8
330
3
100
AcDbSymbolTableRecord
100
AcDbTextStyleTableRecord
  2
CONVERTER_12
 70
     0
 40
0.0
 41
0.81
 50
0.0
 71
     0
 42
0.2
  3
txt.shx
  4

  0
STYLE
  5
1AE
330
3
100
AcDbSymbolTableRecord
100
AcDbTextStyleTableRecord
  2
CONVERTER_13
 70
     0
 40
0.0
 41
0.855
 50
0.0
 71
     0
 42
0.2
  3
txt.shx
  4

  0
STYLE
  5
1B1
330
3
100
AcDbSymbolTableRecord
100
AcDbTextStyleTableRecord
  2
CONVERTER_14
 70
     0
 40
0.0
 41
0.72
 50
0.0
 71
     0
 42
0.2
  3
txt.shx
  4

  0
ENDTAB
  0
TABLE
  2
VIEW
  5
6
330
0
100
AcDbSymbolTable
 70
     0
  0
ENDTAB
  0
TABLE
  2
UCS
  5
7
330
0
100
AcDbSymbolTable
 70
     0
  0
ENDTAB
  0
TABLE
  2
APPID
  5
9
330
0
100
AcDbSymbolTable
 70
     2
  0
APPID
  5
12
330
9
100
AcDbSymbolTableRecord
100
AcDbRegAppTableRecord
  2
ACAD
 70
     0
  0
APPID
  5
236
330
9
100
AcDbSymbolTableRecord
100
AcDbRegAppTableRecord
  2
ACAD_MLEADERVER
 70
     0
  0
ENDTAB
  0
TABLE
  2
DIMSTYLE
  5
A
330
0
100
AcDbSymbolTable
 70
     1
100
AcDbDimStyleTable
  0
DIMSTYLE
105
27
330
A
100
AcDbSymbolTableRecord
100
AcDbDimStyleTableRecord
  2
Standard
 70
     0
178
     0
340
11
  0
ENDTAB
  0
TABLE
  2
BLOCK_RECORD
  5
1
330
0
100
AcDbSymbolTable
 70
     9
  0
BLOCK_RECORD
  5
1F
330
1
100
AcDbSymbolTableRecord
100
AcDbBlockTableRecord
  2
*Model_Space
340
22
  0
BLOCK_RECORD
  5
1B
330
1
100
AcDbSymbolTableRecord
100
AcDbBlockTableRecord
  2
*Paper_Space
340
1E
  0
BLOCK_RECORD
  5
23
330
1
100
AcDbSymbolTableRecord
100
AcDbBlockTableRecord
  2
*Paper_Space0
340
26
  0
BLOCK_RECORD
  5
76
330
1
100
AcDbSymbolTableRecord
100
AcDbBlockTableRecord
  2
_rahmen
340
0
102
{BLKREFS
331
7D
102
}
  0
BLOCK_RECORD
  5
79
330
1
100
AcDbSymbolTableRecord
100
AcDbBlockTableRecord
  2
_punkt
340
0
102
{BLKREFS
331
7E
102
}
  0
BLOCK_RECORD
  5
7C
330
1
100
AcDbSymbolTableRecord
100
AcDbBlockTableRecord
  2
A3I_TD_PRF
340
0
102
{BLKREFS
331
8D
102
}
  0
BLOCK_RECORD
  5
81
330
1
100
AcDbSymbolTableRecord
100
AcDbBlockTableRecord
  2
Wandausschnitt_D32_5
340
0
102
{BLKREFS
331
85
102
}
  0
BLOCK_RECORD
  5
84
330
1
100
AcDbSymbolTableRecord
100
AcDbBlockTableRecord
  2
VS-PPC-F1-RJ45-MNNA-1C-F-Wandausschnitt
340
0
102
{BLKREFS
331
89
102
}
  0
BLOCK_RECORD
  5
88
330
1
100
AcDbSymbolTableRecord
100
AcDbBlockTableRecord
  2
Vordans1
340
0
102
{BLKREFS
331
8E
102
}
  0
BLOCK_RECORD
  5
8C
330
1
100
AcDbSymbolTableRecord
100
AcDbBlockTableRecord
  2
1
340
0
102
{BLKREFS
331
91
102
}
  0
BLOCK_RECORD
  5
1EF
330
1
100
AcDbSymbolTableRecord
100
AcDbBlockTableRecord
  2
*D8
340
0
102
{BLKREFS
331
1F6
102
}
  0
ENDTAB
  0
ENDSEC
  0
SECTION
  2
BLOCKS
  0
BLOCK
  5
20
330
1F
100
AcDbEntity
  8
0
100
AcDbBlockBegin
  2
*Model_Space
 70
     0
 10
0.0
 20
0.0
 30
0.0
  3
*Model_Space
  1

  0
ENDBLK
  5
21
330
1F
100
AcDbEntity
  8
0
100
AcDbBlockEnd
  0
BLOCK
  5
1C
330
1B
100
AcDbEntity
 67
     1
  8
0
100
AcDbBlockBegin
  2
*Paper_Space
 70
     0
 10
0.0
 20
0.0
 30
0.0
  3
*Paper_Space
  1

  0
ENDBLK
  5
1D
330
1B
100
AcDbEntity
 67
     1
  8
0
100
AcDbBlockEnd
  0
BLOCK
  5
24
330
23
100
AcDbEntity
  8
0
100
AcDbBlockBegin
  2
*Paper_Space0
 70
     0
 10
0.0
 20
0.0
 30
0.0
  3
*Paper_Space0
  1

  0
ENDBLK
  5
25
330
23
100
AcDbEntity
  8
0
100
AcDbBlockEnd
  0
BLOCK
  5
77
330
76
100
AcDbEntity
  8
0
100
AcDbBlockBegin
  2
_rahmen
 70
     0
 10
-39.9684584316696
 20
-301.8235650491265
 30
0.0
  3
_rahmen
  1

  0
POINT
  5
92
330
76
100
AcDbEntity
  8
1
 62
     3
 60
     1
100
AcDbPoint
 10
-39.96845843166966
 20
-296.823565049127
 30
0.0
  0
LINE
  5
93
330
76
100
AcDbEntity
  8
1
  6
Continuous
 62
     2
100
AcDbLine
 10
-244.9684584316696
 20
-301.8235650491265
 30
0.0
 11
-313.3017917650027
 21
-301.8235650491265
 31
0.0
  0
LINE
  5
94
330
76
100
AcDbEntity
  8
1
  6
Continuous
 62
     2
100
AcDbLine
 10
-108.301791765003
 20
-301.8235650491265
 30
0.0
 11
-39.9684584316696
 21
-301.8235650491265
 31
0.0
  0
LINE
  5
95
330
76
100
AcDbEntity
  8
1
  6
Continuous
 62
     2
100
AcDbLine
 10
-108.301791765003
 20
-301.8235650491265
 30
0.0
 11
-108.301791765003
 21
-296.8235650491265
 31
0.0
  0
LINE
  5
96
330
76
100
AcDbEntity
  8
1
  6
Continuous
 62
     2
100
AcDbLine
 10
-176.6351250983362
 20
-301.8235650491265
 30
0.0
 11
-176.6351250983362
 21
-296.8235650491293
 31
0.0
  0
LINE
  5
97
330
76
100
AcDbEntity
  8
1
  6
Continuous
 62
     2
100
AcDbLine
 10
-244.9684584316696
 20
-301.8235650491265
 30
0.0
 11
-244.9684584316696
 21
-296.8235650491265
 31
0.0
  0
LINE
  5
98
330
76
100
AcDbEntity
  8
1
  6
Continuous
 62
     2
100
AcDbLine
 10
-34.9684584316721
 20
-239.4235650491264
 30
0.0
 11
-34.9684584316721
 21
-182.0235650491263
 31
0.0
  0
LINE
  5
99
330
76
100
AcDbEntity
  8
1
  6
Continuous
 62
     2
100
AcDbLine
 10
-34.9684584316721
 20
-239.4235650491264
 30
0.0
 11
-39.96845843166966
 21
-239.4235650491264
 31
0.0
  0
LINE
  5
9A
330
76
100
AcDbEntity
  8
1
  6
Continuous
 62
     2
100
AcDbLine
 10
-434.9684584316703
 20
-301.8235650491265
 30
0.0
 11
-454.9684584316704
 21
-301.8235650491265
 31
0.0
  0
LINE
  5
9B
330
76
100
AcDbEntity
  8
1
  6
Continuous
 62
     2
100
AcDbLine
 10
-381.6351250983362
 20
-301.8235650491265
 30
0.0
 11
-381.6351250983362
 21
-296.8235650491265
 31
0.0
  0
LINE
  5
9C
330
76
100
AcDbEntity
  8
1
  6
Continuous
 62
     2
100
AcDbLine
 10
-381.6351250983362
 20
-301.8235650491265
 30
0.0
 11
-313.3017917650027
 21
-301.8235650491265
 31
0.0
  0
LINE
  5
9D
330
76
100
AcDbEntity
  8
1
  6
Continuous
 62
     6
100
AcDbLine
 10
-381.6351250983362
 20
-296.8235650491265
 30
0.0
 11
-313.3017917650027
 21
-296.8235650491265
 31
0.0
  0
LINE
  5
9E
330
76
100
AcDbEntity
  8
1
  6
Continuous
 62
     6
100
AcDbLine
 10
-381.6351250983362
 20
-296.8235650491265
 30
0.0
 11
-434.9684584316693
 21
-296.8235650491265
 31
0.0
  0
LINE
  5
9F
330
76
100
AcDbEntity
  8
1
  6
Continuous
 62
     2
100
AcDbLine
 10
-313.3017917650027
 20
-301.8235650491265
 30
0.0
 11
-313.3017917650027
 21
-296.8235650491265
 31
0.0
  0
LINE
  5
A0
330
76
100
AcDbEntity
  8
1
  6
Continuous
 62
     2
100
AcDbLine
 10
-434.9684584316703
 20
-301.8235650491265
 30
0.0
 11
-434.9684584316703
 21
-297.8235650491265
 31
0.0
  0
LINE
  5
A1
330
76
100
AcDbEntity
  8
1
  6
Continuous
 62
     2
100
AcDbLine
 10
-434.9684584316703
 20
-301.8235650491265
 30
0.0
 11
-381.6351250983362
 21
-301.8235650491265
 31
0.0
  0
LINE
  5
A2
330
76
100
AcDbEntity
  8
1
  6
Continuous
 62
     2
100
AcDbLine
 10
-224.9684584316724
 20
-301.8235650491265
 30
0.0
 11
-244.9684584316696
 21
-301.8235650491265
 31
0.0
  0
LINE
  5
A3
330
76
100
AcDbEntity
  8
1
  6
Continuous
 62
     2
100
AcDbLine
 10
-224.9684584316724
 20
-301.8235650491265
 30
0.0
 11
-224.9684584316724
 21
-297.8235650491265
 31
0.0
  0
LINE
  5
A4
330
76
100
AcDbEntity
  8
1
  6
Continuous
 62
     2
100
AcDbLine
 10
-224.9684584316724
 20
-301.8235650491265
 30
0.0
 11
-176.6351250983362
 21
-301.8235650491265
 31
0.0
  0
LINE
  5
A5
330
76
100
AcDbEntity
  8
1
  6
Continuous
 62
     2
100
AcDbLine
 10
-176.6351250983362
 20
-301.8235650491265
 30
0.0
 11
-108.301791765003
 21
-301.8235650491265
 31
0.0
  0
LINE
  5
A6
330
76
100
AcDbEntity
  8
1
  6
Continuous
 62
     2
100
AcDbLine
 10
-34.9684584316721
 20
-301.8235650491265
 30
0.0
 11
-39.9684584316696
 21
-301.8235650491265
 31
0.0
  0
LINE
  5
A7
330
76
100
AcDbEntity
  8
1
  6
Continuous
 62
     2
100
AcDbLine
 10
-34.9684584316721
 20
-296.8235650491265
 30
0.0
 11
-34.9684584316721
 21
-301.8235650491265
 31
0.0
  0
LINE
  5
A8
330
76
100
AcDbEntity
  8
1
  6
Continuous
 62
     2
100
AcDbLine
 10
-34.9684584316721
 20
-296.8235650491265
 30
0.0
 11
-34.9684584316721
 21
-239.4235650491264
 31
0.0
  0
LINE
  5
A9
330
76
100
AcDbEntity
  8
1
  6
Continuous
 62
     2
100
AcDbLine
 10
-34.9684584316721
 20
-4.82356504912648
 30
0.0
 11
-39.9684584316721
 21
-4.82356504912648
 31
0.0
  0
LINE
  5
AA
330
76
100
AcDbEntity
  8
1
  6
Continuous
 62
     6
100
AcDbLine
 10
-39.9684584316721
 20
-9.82356504912648
 30
0.0
 11
-39.96845843167159
 21
-67.22356504912656
 31
0.0
  0
LINE
  5
AB
330
76
100
AcDbEntity
  8
1
  6
Continuous
 62
     2
100
AcDbLine
 10
-34.9684584316721
 20
-4.82356504912648
 30
0.0
 11
-34.9684584316721
 21
-9.82356504912648
 31
0.0
  0
LINE
  5
AC
330
76
100
AcDbEntity
  8
1
  6
Continuous
 62
     2
100
AcDbLine
 10
-39.9684584316721
 20
-9.82356504912648
 30
0.0
 11
-39.9684584316721
 21
-4.82356504912648
 31
0.0
  0
LINE
  5
AD
330
76
100
AcDbEntity
  8
1
  6
Continuous
 62
     2
100
AcDbLine
 10
-39.9684584316721
 20
-9.82356504912648
 30
0.0
 11
-34.9684584316721
 21
-9.82356504912648
 31
0.0
  0
LINE
  5
AE
330
76
100
AcDbEntity
  8
1
  6
Continuous
 62
     2
100
AcDbLine
 10
-34.9684584316721
 20
-9.82356504912648
 30
0.0
 11
-34.9684584316721
 21
-67.22356504912656
 31
0.0
  0
LINE
  5
AF
330
76
100
AcDbEntity
  8
1
  6
Continuous
 62
     2
100
AcDbLine
 10
-39.96845843167159
 20
-67.22356504912656
 30
0.0
 11
-34.9684584316721
 21
-67.22356504912656
 31
0.0
  0
LINE
  5
B0
330
76
100
AcDbEntity
  8
1
  6
Continuous
 62
     6
100
AcDbLine
 10
-39.96845843167159
 20
-67.22356504912656
 30
0.0
 11
-39.9684584316696
 21
-124.6235650491265
 31
0.0
  0
LINE
  5
B1
330
76
100
AcDbEntity
  8
1
  6
Continuous
 62
     2
100
AcDbLine
 10
-34.9684584316721
 20
-67.22356504912656
 30
0.0
 11
-34.9684584316721
 21
-124.6235650491265
 31
0.0
  0
LINE
  5
B2
330
76
100
AcDbEntity
  8
1
  6
Continuous
 62
     2
100
AcDbLine
 10
-39.9684584316696
 20
-124.6235650491265
 30
0.0
 11
-34.9684584316721
 21
-124.6235650491265
 31
0.0
  0
LINE
  5
B3
330
76
100
AcDbEntity
  8
1
  6
Continuous
 62
     6
100
AcDbLine
 10
-39.9684584316696
 20
-124.6235650491265
 30
0.0
 11
-39.9684584316696
 21
-182.0235650491263
 31
0.0
  0
LINE
  5
B4
330
76
100
AcDbEntity
  8
1
  6
Continuous
 62
     2
100
AcDbLine
 10
-34.9684584316721
 20
-124.6235650491265
 30
0.0
 11
-34.9684584316721
 21
-182.0235650491263
 31
0.0
  0
LINE
  5
B5
330
76
100
AcDbEntity
  8
1
  6
Continuous
 62
     2
100
AcDbLine
 10
-39.9684584316696
 20
-182.0235650491263
 30
0.0
 11
-34.9684584316721
 21
-182.0235650491263
 31
0.0
  0
LINE
  5
B6
330
76
100
AcDbEntity
  8
1
  6
Continuous
 62
     6
100
AcDbLine
 10
-39.9684584316696
 20
-182.0235650491263
 30
0.0
 11
-39.96845843166966
 21
-239.4235650491264
 31
0.0
  0
LINE
  5
B7
330
76
100
AcDbEntity
  8
1
  6
Continuous
 62
     6
100
AcDbLine
 10
-434.9684584316703
 20
-9.82356504912625
 30
0.0
 11
-381.6351250983362
 21
-9.82356504912625
 31
0.0
  0
LINE
  5
B8
330
76
100
AcDbEntity
  8
1
  6
Continuous
 62
     2
100
AcDbLine
 10
-39.9684584316721
 20
-4.82356504912648
 30
0.0
 11
-108.301791765003
 21
-4.82356504912648
 31
0.0
  0
LINE
  5
B9
330
76
100
AcDbEntity
  8
1
  6
Continuous
 62
     2
100
AcDbLine
 10
-108.301791765003
 20
-9.82356504912648
 30
0.0
 11
-108.301791765003
 21
-4.82356504912648
 31
0.0
  0
LINE
  5
BA
330
76
100
AcDbEntity
  8
1
  6
Continuous
 62
     6
100
AcDbLine
 10
-108.301791765003
 20
-9.82356504912648
 30
0.0
 11
-39.9684584316721
 21
-9.82356504912648
 31
0.0
  0
LINE
  5
BB
330
76
100
AcDbEntity
  8
1
  6
Continuous
 62
     2
100
AcDbLine
 10
-108.301791765003
 20
-4.82356504912648
 30
0.0
 11
-176.6351250983362
 21
-4.82356504912648
 31
0.0
  0
LINE
  5
BC
330
76
100
AcDbEntity
  8
1
  6
Continuous
 62
     2
100
AcDbLine
 10
-176.6351250983362
 20
-9.82356504912648
 30
0.0
 11
-176.6351250983362
 21
-4.82356504912648
 31
0.0
  0
LINE
  5
BD
330
76
100
AcDbEntity
  8
1
  6
Continuous
 62
     6
100
AcDbLine
 10
-176.6351250983362
 20
-9.82356504912648
 30
0.0
 11
-108.301791765003
 21
-9.82356504912648
 31
0.0
  0
LINE
  5
BE
330
76
100
AcDbEntity
  8
1
  6
Continuous
 62
     2
100
AcDbLine
 10
-176.6351250983362
 20
-4.82356504912648
 30
0.0
 11
-224.9684584316724
 21
-4.82356504912648
 31
0.0
  0
LINE
  5
BF
330
76
100
AcDbEntity
  8
1
  6
Continuous
 62
     2
100
AcDbLine
 10
-244.9684584316696
 20
-9.82356504912648
 30
0.0
 11
-244.9684584316696
 21
-4.82356504912648
 31
0.0
  0
LINE
  5
C0
330
76
100
AcDbEntity
  8
1
  6
Continuous
 62
     6
100
AcDbLine
 10
-244.9684584316696
 20
-9.82356504912648
 30
0.0
 11
-176.6351250983362
 21
-9.82356504912648
 31
0.0
  0
LINE
  5
C1
330
76
100
AcDbEntity
  8
1
  6
Continuous
 62
     2
100
AcDbLine
 10
-244.9684584316696
 20
-4.82356504912648
 30
0.0
 11
-313.3017917650027
 21
-4.82356504912648
 31
0.0
  0
LINE
  5
C2
330
76
100
AcDbEntity
  8
1
  6
Continuous
 62
     2
100
AcDbLine
 10
-313.3017917650027
 20
-9.82356504912648
 30
0.0
 11
-313.3017917650027
 21
-4.82356504912648
 31
0.0
  0
LINE
  5
C3
330
76
100
AcDbEntity
  8
1
  6
Continuous
 62
     6
100
AcDbLine
 10
-313.3017917650027
 20
-9.82356504912648
 30
0.0
 11
-244.9684584316696
 21
-9.82356504912648
 31
0.0
  0
LINE
  5
C4
330
76
100
AcDbEntity
  8
1
  6
Continuous
 62
     2
100
AcDbLine
 10
-313.3017917650027
 20
-4.82356504912648
 30
0.0
 11
-381.6351250983362
 21
-4.82356504912648
 31
0.0
  0
LINE
  5
C5
330
76
100
AcDbEntity
  8
1
  6
Continuous
 62
     2
100
AcDbLine
 10
-381.6351250983362
 20
-9.82356504912625
 30
0.0
 11
-381.6351250983362
 21
-4.82356504912648
 31
0.0
  0
LINE
  5
C6
330
76
100
AcDbEntity
  8
1
  6
Continuous
 62
     6
100
AcDbLine
 10
-381.6351250983362
 20
-9.82356504912625
 30
0.0
 11
-313.3017917650027
 21
-9.82356504912648
 31
0.0
  0
LINE
  5
C7
330
76
100
AcDbEntity
  8
1
  6
Continuous
 62
     2
100
AcDbLine
 10
-381.6351250983362
 20
-4.82356504912648
 30
0.0
 11
-434.9684584316703
 21
-4.82356504912648
 31
0.0
  0
LINE
  5
C8
330
76
100
AcDbEntity
  8
1
  6
Continuous
 62
     2
100
AcDbLine
 10
-434.9684584316703
 20
-4.82356504912648
 30
0.0
 11
-434.9684584316703
 21
-8.82356504912625
 31
0.0
  0
LINE
  5
C9
330
76
100
AcDbEntity
  8
1
  6
Continuous
 62
     2
100
AcDbLine
 10
-434.9684584316703
 20
-4.82356504912648
 30
0.0
 11
-454.9684584316704
 21
-4.82356504912648
 31
0.0
  0
LINE
  5
CA
330
76
100
AcDbEntity
  8
1
  6
Continuous
 62
     2
100
AcDbLine
 10
-224.9684584316724
 20
-4.82356504912648
 30
0.0
 11
-224.9684584316724
 21
-8.82356504912625
 31
0.0
  0
LINE
  5
CB
330
76
100
AcDbEntity
  8
1
  6
Continuous
 62
     2
100
AcDbLine
 10
-224.9684584316724
 20
-4.82356504912648
 30
0.0
 11
-244.9684584316696
 21
-4.82356504912648
 31
0.0
  0
LINE
  5
CC
330
76
100
AcDbEntity
  8
1
  6
Continuous
 62
     2
100
AcDbLine
 10
-454.9684584316704
 20
-4.82356504912648
 30
0.0
 11
-454.9684584316704
 21
-153.3235650491264
 31
0.0
  0
LINE
  5
CD
330
76
100
AcDbEntity
  8
1
  6
Continuous
 62
     2
100
AcDbLine
 10
-454.9684584316704
 20
-153.3235650491264
 30
0.0
 11
-444.9684584316703
 21
-153.3235650491264
 31
0.0
  0
LINE
  5
CE
330
76
100
AcDbEntity
  8
1
  6
Continuous
 62
     2
100
AcDbLine
 10
-454.9684584316704
 20
-153.3235650491264
 30
0.0
 11
-454.9684584316704
 21
-301.8235650491265
 31
0.0
  0
LINE
  5
CF
330
76
100
AcDbEntity
  8
1
  6
Continuous
 62
     6
100
AcDbLine
 10
-434.9684584316693
 20
-296.8235650491265
 30
0.0
 11
-434.9684584316703
 21
-9.82356504912625
 31
0.0
  0
LINE
  5
D0
330
76
100
AcDbEntity
  8
1
  6
Continuous
 62
     6
100
AcDbLine
 10
-313.3017917650027
 20
-296.8235650491265
 30
0.0
 11
-169.5132629584195
 21
-296.8235650491296
 31
0.0
  0
LINE
  5
D1
330
76
100
AcDbEntity
  8
1
  6
Continuous
 62
     2
100
AcDbLine
 10
-176.6351250983362
 20
-296.8235650491293
 30
0.0
 11
-176.6351250983362
 21
-296.8235650491265
 31
0.0
  0
LINE
  5
D2
330
76
100
AcDbEntity
  8
1
  6
Continuous
 62
     7
100
AcDbLine
 10
-133.1132629584196
 20
-279.8235650491271
 30
0.0
 11
-77.0868667133471
 21
-279.8235650491271
 31
0.0
  0
LINE
  5
D3
330
76
100
AcDbEntity
  8
1
  6
Continuous
 62
     6
100
AcDbLine
 10
-169.5132629584195
 20
-279.8235650491271
 30
0.0
 11
-169.5132629584195
 21
-271.3235650491271
 31
0.0
  0
LINE
  5
D4
330
76
100
AcDbEntity
  8
1
  6
Continuous
 62
     6
100
AcDbLine
 10
-133.1132629584196
 20
-279.8235650491271
 30
0.0
 11
-133.1132629584196
 21
-271.3235650491271
 31
0.0
  0
LINE
  5
D5
330
76
100
AcDbEntity
  8
1
  6
Continuous
 62
     7
100
AcDbLine
 10
-106.9868667133467
 20
-271.3235650491271
 30
0.0
 11
-106.9868667133467
 21
-279.8235650491271
 31
0.0
  0
LINE
  5
D6
330
76
100
AcDbEntity
  8
1
  6
Continuous
 62
     7
100
AcDbLine
 10
-86.48686671334711
 20
-271.3235650491271
 30
0.0
 11
-86.48686671334711
 21
-279.8235650491271
 31
0.0
  0
LINE
  5
D7
102
{ACAD_REACTORS
330
1BE
330
1BF
102
}
330
76
100
AcDbEntity
  8
0
  6
Continuous
 62
     2
100
AcDbLine
 10
-155.8058340166521
 20
-287.5232759334638
 30
0.0
 11
-155.8058340166521
 21
-286.6507589266605
 31
0.0
  0
LINE
  5
D8
102
{ACAD_REACTORS
330
1BE
330
1BF
102
}
330
76
100
AcDbEntity
  8
0
  6
Continuous
 62
     2
100
AcDbLine
 10
-155.8058340166521
 20
-288.4830446409466
 30
0.0
 11
-155.8058340166521
 21
-289.3555616477498
 31
0.0
  0
LINE
  5
D9
102
{ACAD_REACTORS
330
1C0
330
1C1
102
}
330
76
100
AcDbEntity
  8
0
  6
Continuous
 62
     2
100
AcDbLine
 10
-140.4727898803617
 20
-287.2615208314232
 30
0.0
 11
-139.3691505807936
 21
-287.2615208314232
 31
0.0
  0
LINE
  5
DA
102
{ACAD_REACTORS
330
1C0
330
1C1
102
}
330
76
100
AcDbEntity
  8
0
  6
Continuous
 62
     2
100
AcDbLine
 10
-139.7031325374003
 20
-288.483044640947
 30
0.0
 11
-139.7031325374003
 21
-289.3555616477504
 31
0.0
  0
LINE
  5
DB
102
{ACAD_REACTORS
330
1CA
330
1CB
102
}
330
76
100
AcDbEntity
  8
0
  6
Continuous
 62
     2
100
AcDbLine
 10
-141.5638891527801
 20
-286.1708745729363
 30
0.0
 11
-140.1659361058398
 21
-284.5900155791615
 31
0.0
  0
LINE
  5
DC
102
{ACAD_REACTORS
330
1CA
330
1CB
102
}
330
76
100
AcDbEntity
  8
0
  6
Continuous
 62
     2
100
AcDbLine
 10
-141.4684657366073
 20
-283.1170650491252
 30
0.0
 11
-140.1659361058398
 21
-284.5900155791615
 31
0.0
  0
LINE
  5
DD
102
{ACAD_REACTORS
330
1CA
330
1CB
102
}
330
76
100
AcDbEntity
  8
0
  6
Continuous
 62
     2
100
AcDbLine
 10
-138.8634064750734
 20
-283.1170650491252
 30
0.0
 11
-137.4606822573262
 21
-283.1170650491252
 31
0.0
  0
LINE
  5
DE
102
{ACAD_REACTORS
330
1CA
330
1CB
102
}
330
76
100
AcDbEntity
  8
0
  6
Continuous
 62
     2
100
AcDbLine
 10
-140.161164935032
 20
-286.1708745729363
 30
0.0
 11
-139.4645739969662
 21
-285.3831427876427
 31
0.0
  0
LINE
  5
DF
102
{ACAD_REACTORS
330
1CA
330
1CB
102
}
330
76
100
AcDbEntity
  8
0
  6
Continuous
 62
     2
100
AcDbLine
 10
-140.161164935032
 20
-286.1708745729363
 30
0.0
 11
-141.5638891527801
 21
-286.1708745729363
 31
0.0
  0
LINE
  5
E0
102
{ACAD_REACTORS
330
1CC
330
1CD
102
}
330
76
100
AcDbEntity
  8
0
  6
Continuous
 62
     2
100
AcDbLine
 10
-141.683168422997
 20
-286.1708745729363
 30
0.0
 11
-142.9236728332499
 21
-286.1708745729363
 31
0.0
  0
LINE
  5
E1
102
{ACAD_REACTORS
330
1CE
330
1CF
102
}
330
76
100
AcDbEntity
  8
0
  6
Continuous
 62
     2
100
AcDbLine
 10
-143.791652441405
 20
-288.3085412395863
 30
0.0
 11
-144.0918176785952
 21
-287.5407262735996
 31
0.0
  0
LINE
  5
E2
102
{ACAD_REACTORS
330
1CE
330
1CF
102
}
330
76
100
AcDbEntity
  8
0
  6
Continuous
 62
     2
100
AcDbLine
 10
-144.3919829157875
 20
-288.3085412395863
 30
0.0
 11
-143.791652441405
 21
-288.3085412395863
 31
0.0
  0
LINE
  5
E3
102
{ACAD_REACTORS
330
1CE
330
1CF
102
}
330
76
100
AcDbEntity
  8
0
  6
Continuous
 62
     2
100
AcDbLine
 10
-146.1100229306613
 20
-289.5300650491107
 30
0.0
 11
-144.8695185204084
 21
-289.5300650491107
 31
0.0
  0
LINE
  5
E4
102
{ACAD_REACTORS
330
1CE
330
1CF
102
}
330
76
100
AcDbEntity
  8
0
  6
Continuous
 62
     2
100
AcDbLine
 10
-144.7120698837221
 20
-286.4762555252995
 30
0.0
 11
-143.4715654734693
 21
-286.4762555252995
 31
0.0
  0
LINE
  5
E5
102
{ACAD_REACTORS
330
1CE
330
1CF
102
}
330
76
100
AcDbEntity
  8
0
  6
Continuous
 62
     2
100
AcDbLine
 10
-143.4715654734693
 20
-286.4762555252995
 30
0.0
 11
-142.073612426529
 21
-289.5300650491107
 31
0.0
  0
LINE
  5
E6
102
{ACAD_REACTORS
330
1CE
330
1CF
102
}
330
76
100
AcDbEntity
  8
0
  6
Continuous
 62
     2
100
AcDbLine
 10
-143.3141168367829
 20
-289.5300650491107
 30
0.0
 11
-143.5255968902587
 21
-288.9891045048929
 31
0.0
  0
LINE
  5
E7
102
{ACAD_REACTORS
330
1D0
330
1D1
102
}
330
76
100
AcDbEntity
  8
0
  6
Continuous
 62
     2
100
AcDbLine
 10
-147.4564360323689
 20
-289.5300650491107
 30
0.0
 11
-146.2636433302025
 21
-289.5300650491107
 31
0.0
  0
LINE
  5
E8
102
{ACAD_REACTORS
330
1D0
330
1D1
102
}
330
76
100
AcDbEntity
  8
0
  6
Continuous
 62
     2
100
AcDbLine
 10
-147.4564360323689
 20
-287.2615208314232
 30
0.0
 11
-147.4564360323689
 21
-289.5300650491107
 31
0.0
  0
LINE
  5
E9
102
{ACAD_REACTORS
330
1D0
330
1D1
102
}
330
76
100
AcDbEntity
  8
0
  6
Continuous
 62
     2
100
AcDbLine
 10
-148.2675350698436
 20
-286.4762555252995
 30
0.0
 11
-148.2675350698436
 21
-287.2615208314232
 31
0.0
  0
LINE
  5
EA
102
{ACAD_REACTORS
330
1D2
330
1D3
102
}
330
76
100
AcDbEntity
  8
0
  6
Continuous
 62
     2
100
AcDbLine
 10
-146.7883211882709
 20
-286.1708745729363
 30
0.0
 11
-145.5955284861045
 21
-286.1708745729363
 31
0.0
  0
LINE
  5
EB
102
{ACAD_REACTORS
330
1D2
330
1D3
102
}
330
76
100
AcDbEntity
  8
0
  6
Continuous
 62
     2
100
AcDbLine
 10
-144.3550240758504
 20
-284.4258405593304
 30
0.0
 11
-145.5955284861045
 21
-283.1170650491252
 31
0.0
  0
LINE
  5
EC
102
{ACAD_REACTORS
330
1D2
330
1D3
102
}
330
76
100
AcDbEntity
  8
0
  6
Continuous
 62
     2
100
AcDbLine
 10
-143.1622313736838
 20
-283.1170650491252
 30
0.0
 11
-144.3550240758504
 21
-283.1170650491252
 31
0.0
  0
LINE
  5
ED
102
{ACAD_REACTORS
330
1D2
330
1D3
102
}
330
76
100
AcDbEntity
  8
0
  6
Continuous
 62
     2
100
AcDbLine
 10
-143.1622313736838
 20
-286.1708745729363
 30
0.0
 11
-143.1622313736838
 21
-283.1170650491252
 31
0.0
  0
LINE
  5
EE
102
{ACAD_REACTORS
330
1D2
330
1D3
102
}
330
76
100
AcDbEntity
  8
0
  6
Continuous
 62
     2
100
AcDbLine
 10
-144.3550240758504
 20
-286.1708745729363
 30
0.0
 11
-143.1622313736838
 21
-286.1708745729363
 31
0.0
  0
LINE
  5
EF
102
{ACAD_REACTORS
330
1D2
330
1D3
102
}
330
76
100
AcDbEntity
  8
0
  6
Continuous
 62
     2
100
AcDbLine
 10
-145.5955284861045
 20
-284.8620990627317
 30
0.0
 11
-144.3550240758504
 21
-286.1708745729363
 31
0.0
  0
LINE
  5
F0
102
{ACAD_REACTORS
330
1D4
330
1D5
102
}
330
76
100
AcDbEntity
  8
0
  6
Continuous
 62
     2
100
AcDbLine
 10
-149.6034628962701
 20
-287.7850310355047
 30
0.0
 11
-150.8439673065231
 21
-286.4762555252995
 31
0.0
  0
LINE
  5
F1
102
{ACAD_REACTORS
330
1D4
330
1D5
102
}
330
76
100
AcDbEntity
  8
0
  6
Continuous
 62
     2
100
AcDbLine
 10
-149.6034628962701
 20
-286.4762555252995
 30
0.0
 11
-149.6034628962701
 21
-287.7850310355047
 31
0.0
  0
LINE
  5
F2
102
{ACAD_REACTORS
330
1D4
330
1D5
102
}
330
76
100
AcDbEntity
  8
0
  6
Continuous
 62
     2
100
AcDbLine
 10
-148.4106701941037
 20
-286.4762555252995
 30
0.0
 11
-149.6034628962701
 21
-286.4762555252995
 31
0.0
  0
LINE
  5
F3
102
{ACAD_REACTORS
330
1D4
330
1D5
102
}
330
76
100
AcDbEntity
  8
0
  6
Continuous
 62
     2
100
AcDbLine
 10
-148.4106701941037
 20
-289.5300650491107
 30
0.0
 11
-148.4106701941037
 21
-286.4762555252995
 31
0.0
  0
LINE
  5
F4
102
{ACAD_REACTORS
330
1D4
330
1D5
102
}
330
76
100
AcDbEntity
  8
0
  6
Continuous
 62
     2
100
AcDbLine
 10
-150.8439673065231
 20
-288.2212895389062
 30
0.0
 11
-149.6034628962701
 21
-289.5300650491107
 31
0.0
  0
LINE
  5
F5
102
{ACAD_REACTORS
330
1D4
330
1D5
102
}
330
76
100
AcDbEntity
  8
0
  6
Continuous
 62
     2
100
AcDbLine
 10
-150.8439673065231
 20
-289.5300650491107
 30
0.0
 11
-150.8439673065231
 21
-288.2212895389062
 31
0.0
  0
LINE
  5
F6
102
{ACAD_REACTORS
330
1C4
330
1C5
102
}
330
76
100
AcDbEntity
  8
0
  6
Continuous
 62
     2
100
AcDbLine
 10
-148.3628075551315
 20
-283.8150786545682
 30
0.0
 11
-147.0268797287039
 21
-283.8150786545682
 31
0.0
  0
LINE
  5
F7
102
{ACAD_REACTORS
330
1C4
330
1C5
102
}
330
76
100
AcDbEntity
  8
0
  6
Continuous
 62
     2
100
AcDbLine
 10
-148.3628075551315
 20
-285.4728609674939
 30
0.0
 11
-148.3628075551315
 21
-284.9929766137523
 31
0.0
  0
LINE
  5
F8
102
{ACAD_REACTORS
330
1C4
330
1C5
102
}
330
76
100
AcDbEntity
  8
0
  6
Continuous
 62
     2
100
AcDbLine
 10
-147.0268797287039
 20
-285.4728609674939
 30
0.0
 11
-148.3628075551315
 21
-285.4728609674939
 31
0.0
  0
LINE
  5
F9
102
{ACAD_REACTORS
330
1C4
330
1C5
102
}
330
76
100
AcDbEntity
  8
0
  6
Continuous
 62
     2
100
AcDbLine
 10
-147.0268797287039
 20
-286.1708745729363
 30
0.0
 11
-147.0268797287039
 21
-285.4728609674939
 31
0.0
  0
LINE
  5
FA
102
{ACAD_REACTORS
330
1C4
330
1C5
102
}
330
76
100
AcDbEntity
  8
0
  6
Continuous
 62
     2
100
AcDbLine
 10
-150.1771994524848
 20
-286.1708745729363
 30
0.0
 11
-147.0268797287039
 21
-286.1708745729363
 31
0.0
  0
LINE
  5
FB
102
{ACAD_REACTORS
330
1C4
330
1C5
102
}
330
76
100
AcDbEntity
  8
0
  6
Continuous
 62
     2
100
AcDbLine
 10
-150.1771994524848
 20
-283.1170650491252
 30
0.0
 11
-147.0268797287039
 21
-283.1170650491252
 31
0.0
  0
LINE
  5
FC
102
{ACAD_REACTORS
330
1C4
330
1C5
102
}
330
76
100
AcDbEntity
  8
0
  6
Continuous
 62
     2
100
AcDbLine
 10
-147.0268797287039
 20
-283.8150786545682
 30
0.0
 11
-147.0268797287039
 21
-283.1170650491252
 31
0.0
  0
LINE
  5
FD
102
{ACAD_REACTORS
330
1D6
330
1D7
102
}
330
76
100
AcDbEntity
  8
0
  6
Continuous
 62
     2
100
AcDbLine
 10
-153.0385549476249
 20
-284.1858983824599
 30
0.0
 11
-153.0385549476249
 21
-283.1170650491252
 31
0.0
  0
LINE
  5
FE
102
{ACAD_REACTORS
330
1D6
330
1D7
102
}
330
76
100
AcDbEntity
  8
0
  6
Continuous
 62
     2
100
AcDbLine
 10
-153.0385549476249
 20
-283.1170650491252
 30
0.0
 11
-151.8457622454584
 21
-283.1170650491252
 31
0.0
  0
LINE
  5
FF
102
{ACAD_REACTORS
330
1D6
330
1D7
102
}
330
76
100
AcDbEntity
  8
0
  6
Continuous
 62
     2
100
AcDbLine
 10
-153.0385549476249
 20
-285.0366024640927
 30
0.0
 11
-154.0882125255323
 21
-285.0366024640927
 31
0.0
  0
LINE
  5
100
102
{ACAD_REACTORS
330
1D6
330
1D7
102
}
330
76
100
AcDbEntity
  8
0
  6
Continuous
 62
     2
100
AcDbLine
 10
-154.0882125255323
 20
-285.0366024640927
 30
0.0
 11
-154.0882125255323
 21
-286.1708745729363
 31
0.0
  0
LINE
  5
101
102
{ACAD_REACTORS
330
1D6
330
1D7
102
}
330
76
100
AcDbEntity
  8
0
  6
Continuous
 62
     2
100
AcDbLine
 10
-155.2810052276989
 20
-283.1170650491252
 30
0.0
 11
-155.2810052276989
 21
-286.1708745729363
 31
0.0
  0
LINE
  5
102
102
{ACAD_REACTORS
330
1C8
330
1C9
102
}
330
76
100
AcDbEntity
  8
0
  6
Continuous
 62
     2
100
AcDbLine
 10
-157.2371852592526
 20
-284.4858985439075
 30
0.0
 11
-157.2371852592526
 21
-283.7801708945652
 31
0.0
  0
LINE
  5
103
102
{ACAD_REACTORS
330
1C8
330
1C9
102
}
330
76
100
AcDbEntity
  8
0
  6
Continuous
 62
     2
100
AcDbLine
 10
-158.4776896695066
 20
-286.1708745729363
 30
0.0
 11
-157.2371852592526
 21
-286.1708745729363
 31
0.0
  0
LINE
  5
104
102
{ACAD_REACTORS
330
1C8
330
1C9
102
}
330
76
100
AcDbEntity
  8
0
  6
Continuous
 62
     2
100
AcDbLine
 10
-157.2371852592526
 20
-286.1708745729363
 30
0.0
 11
-157.2371852592526
 21
-285.2277963317927
 31
0.0
  0
LINE
  5
105
102
{ACAD_REACTORS
330
1C2
330
1C3
102
}
330
76
100
AcDbEntity
  8
0
  6
Continuous
 62
     2
100
AcDbLine
 10
-162.7826355187181
 20
-288.8175094935538
 30
0.0
 11
-164.2584687797277
 21
-288.8175094935538
 31
0.0
  0
LINE
  5
106
102
{ACAD_REACTORS
330
1C2
330
1C3
102
}
330
76
100
AcDbEntity
  8
0
  6
Continuous
 62
     2
100
AcDbLine
 10
-165.276608071857
 20
-283.5413096645273
 30
0.0
 11
-165.276608071857
 21
-289.1058204337274
 31
0.0
  0
LINE
  5
107
102
{ACAD_REACTORS
330
1C2
330
1C3
102
}
330
76
100
AcDbEntity
  8
0
  6
Continuous
 62
     2
100
AcDbLine
 10
-164.8523634564742
 20
-283.1170650491433
 30
0.0
 11
-159.3790513657573
 21
-283.1170650491433
 31
0.0
  0
LINE
  5
108
102
{ACAD_REACTORS
330
1C2
330
1C3
102
}
330
76
100
AcDbEntity
  8
0
  6
Continuous
 62
     2
100
AcDbLine
 10
-158.9548067503734
 20
-283.5413096645273
 30
0.0
 11
-158.9548067503734
 21
-289.1058204337274
 31
0.0
  0
LINE
  5
109
102
{ACAD_REACTORS
330
1C2
330
1C3
102
}
330
76
100
AcDbEntity
  8
0
  6
Continuous
 62
     2
100
AcDbLine
 10
-159.3790513657573
 20
-289.5300650491107
 30
0.0
 11
-164.8523634564742
 21
-289.5300650491107
 31
0.0
  0
LINE
  5
10A
102
{ACAD_REACTORS
330
1C2
330
1C3
102
}
330
76
100
AcDbEntity
  8
0
  6
Continuous
 62
     2
100
AcDbLine
 10
-162.4669185956415
 20
-288.5017925704771
 30
0.0
 11
-162.4669185956415
 21
-286.9710216389454
 31
0.0
  0
LINE
  5
10B
102
{ACAD_REACTORS
330
1C2
330
1C3
102
}
330
76
100
AcDbEntity
  8
0
  6
Continuous
 62
     2
100
AcDbLine
 10
-162.4669185956415
 20
-284.7493621468205
 30
0.0
 11
-162.4669185956415
 21
-284.1453375277599
 31
0.0
  0
LINE
  5
10C
102
{ACAD_REACTORS
330
1C2
330
1C3
102
}
330
76
100
AcDbEntity
  8
0
  6
Continuous
 62
     2
100
AcDbLine
 10
-164.2584687797277
 20
-283.8296206046839
 30
0.0
 11
-162.7826355187181
 21
-283.8296206046839
 31
0.0
  0
LINE
  5
10D
102
{ACAD_REACTORS
330
1C2
330
1C3
102
}
330
76
100
AcDbEntity
  8
0
  6
Continuous
 62
     2
100
AcDbLine
 10
-164.5741857028033
 20
-284.1453375277599
 30
0.0
 11
-164.5741857028033
 21
-288.5017925704771
 31
0.0
  0
LINE
  5
10E
102
{ACAD_REACTORS
330
1C8
330
1C9
102
}
330
76
100
AcDbEntity
  8
0
  6
Continuous
 62
     2
100
AcDbLine
 10
-157.2371852592526
 20
-285.2277963317927
 30
0.0
 11
-156.4784176714722
 21
-285.2277963317927
 31
0.0
  0
LINE
  5
10F
102
{ACAD_REACTORS
330
1C8
330
1C9
102
}
330
76
100
AcDbEntity
  8
0
  6
Continuous
 62
     2
100
AcDbLine
 10
-158.4776896695066
 20
-283.1170650491252
 30
0.0
 11
-156.4784176714722
 21
-283.1170650491252
 31
0.0
  0
LINE
  5
110
102
{ACAD_REACTORS
330
1C8
330
1C9
102
}
330
76
100
AcDbEntity
  8
0
  6
Continuous
 62
     2
100
AcDbLine
 10
-158.4776896695066
 20
-283.1170650491252
 30
0.0
 11
-158.4776896695066
 21
-286.1708745729363
 31
0.0
  0
LINE
  5
111
102
{ACAD_REACTORS
330
1C8
330
1C9
102
}
330
76
100
AcDbEntity
  8
0
  6
Continuous
 62
     2
100
AcDbLine
 10
-157.2371852592526
 20
-284.4858985439075
 30
0.0
 11
-156.9198901977106
 21
-284.4858985439075
 31
0.0
  0
LINE
  5
112
102
{ACAD_REACTORS
330
1C8
330
1C9
102
}
330
76
100
AcDbEntity
  8
0
  6
Continuous
 62
     2
100
AcDbLine
 10
-157.2371852592526
 20
-283.7801708945652
 30
0.0
 11
-156.9198901977106
 21
-283.7801708945652
 31
0.0
  0
LINE
  5
113
102
{ACAD_REACTORS
330
1D6
330
1D7
102
}
330
76
100
AcDbEntity
  8
0
  6
Continuous
 62
     2
100
AcDbLine
 10
-154.0882125255323
 20
-284.1858983824599
 30
0.0
 11
-153.0385549476249
 21
-284.1858983824599
 31
0.0
  0
LINE
  5
114
102
{ACAD_REACTORS
330
1D6
330
1D7
102
}
330
76
100
AcDbEntity
  8
0
  6
Continuous
 62
     2
100
AcDbLine
 10
-154.0882125255323
 20
-283.1170650491252
 30
0.0
 11
-154.0882125255323
 21
-284.1858983824599
 31
0.0
  0
LINE
  5
115
102
{ACAD_REACTORS
330
1D6
330
1D7
102
}
330
76
100
AcDbEntity
  8
0
  6
Continuous
 62
     2
100
AcDbLine
 10
-155.2810052276989
 20
-283.1170650491252
 30
0.0
 11
-154.0882125255323
 21
-283.1170650491252
 31
0.0
  0
LINE
  5
116
102
{ACAD_REACTORS
330
1D6
330
1D7
102
}
330
76
100
AcDbEntity
  8
0
  6
Continuous
 62
     2
100
AcDbLine
 10
-154.0882125255323
 20
-286.1708745729363
 30
0.0
 11
-155.2810052276989
 21
-286.1708745729363
 31
0.0
  0
LINE
  5
117
102
{ACAD_REACTORS
330
1D6
330
1D7
102
}
330
76
100
AcDbEntity
  8
0
  6
Continuous
 62
     2
100
AcDbLine
 10
-153.0385549476249
 20
-286.1708745729363
 30
0.0
 11
-153.0385549476249
 21
-285.0366024640927
 31
0.0
  0
LINE
  5
118
102
{ACAD_REACTORS
330
1D6
330
1D7
102
}
330
76
100
AcDbEntity
  8
0
  6
Continuous
 62
     2
100
AcDbLine
 10
-151.8457622454584
 20
-286.1708745729363
 30
0.0
 11
-153.0385549476249
 21
-286.1708745729363
 31
0.0
  0
LINE
  5
119
102
{ACAD_REACTORS
330
1D6
330
1D7
102
}
330
76
100
AcDbEntity
  8
0
  6
Continuous
 62
     2
100
AcDbLine
 10
-151.8457622454584
 20
-283.1170650491252
 30
0.0
 11
-151.8457622454584
 21
-286.1708745729363
 31
0.0
  0
LINE
  5
11A
102
{ACAD_REACTORS
330
1C4
330
1C5
102
}
330
76
100
AcDbEntity
  8
0
  6
Continuous
 62
     2
100
AcDbLine
 10
-148.3628075551315
 20
-284.9929766137523
 30
0.0
 11
-147.0268797287039
 21
-284.9929766137523
 31
0.0
  0
LINE
  5
11B
102
{ACAD_REACTORS
330
1C4
330
1C5
102
}
330
76
100
AcDbEntity
  8
0
  6
Continuous
 62
     2
100
AcDbLine
 10
-147.0268797287039
 20
-284.9929766137523
 30
0.0
 11
-147.0268797287039
 21
-284.2949630083099
 31
0.0
  0
LINE
  5
11C
102
{ACAD_REACTORS
330
1C4
330
1C5
102
}
330
76
100
AcDbEntity
  8
0
  6
Continuous
 62
     2
100
AcDbLine
 10
-147.0268797287039
 20
-284.2949630083099
 30
0.0
 11
-148.3628075551315
 21
-284.2949630083099
 31
0.0
  0
LINE
  5
11D
102
{ACAD_REACTORS
330
1C4
330
1C5
102
}
330
76
100
AcDbEntity
  8
0
  6
Continuous
 62
     2
100
AcDbLine
 10
-148.3628075551315
 20
-284.2949630083099
 30
0.0
 11
-148.3628075551315
 21
-283.8150786545682
 31
0.0
  0
LINE
  5
11E
102
{ACAD_REACTORS
330
1D4
330
1D5
102
}
330
76
100
AcDbEntity
  8
0
  6
Continuous
 62
     2
100
AcDbLine
 10
-152.0367600086906
 20
-289.5300650491107
 30
0.0
 11
-150.8439673065231
 21
-289.5300650491107
 31
0.0
  0
LINE
  5
11F
102
{ACAD_REACTORS
330
1D4
330
1D5
102
}
330
76
100
AcDbEntity
  8
0
  6
Continuous
 62
     2
100
AcDbLine
 10
-149.6034628962701
 20
-289.5300650491107
 30
0.0
 11
-148.4106701941037
 21
-289.5300650491107
 31
0.0
  0
LINE
  5
120
102
{ACAD_REACTORS
330
1D4
330
1D5
102
}
330
76
100
AcDbEntity
  8
0
  6
Continuous
 62
     2
100
AcDbLine
 10
-150.8439673065231
 20
-286.4762555252995
 30
0.0
 11
-152.0367600086906
 21
-286.4762555252995
 31
0.0
  0
LINE
  5
121
102
{ACAD_REACTORS
330
1D4
330
1D5
102
}
330
76
100
AcDbEntity
  8
0
  6
Continuous
 62
     2
100
AcDbLine
 10
-152.0367600086906
 20
-286.4762555252995
 30
0.0
 11
-152.0367600086906
 21
-289.5300650491107
 31
0.0
  0
LINE
  5
122
102
{ACAD_REACTORS
330
1D2
330
1D3
102
}
330
76
100
AcDbEntity
  8
0
  6
Continuous
 62
     2
100
AcDbLine
 10
-144.3550240758504
 20
-283.1170650491252
 30
0.0
 11
-144.3550240758504
 21
-284.4258405593304
 31
0.0
  0
LINE
  5
123
102
{ACAD_REACTORS
330
1D2
330
1D3
102
}
330
76
100
AcDbEntity
  8
0
  6
Continuous
 62
     2
100
AcDbLine
 10
-145.5955284861045
 20
-283.1170650491252
 30
0.0
 11
-146.7883211882709
 21
-283.1170650491252
 31
0.0
  0
LINE
  5
124
102
{ACAD_REACTORS
330
1D2
330
1D3
102
}
330
76
100
AcDbEntity
  8
0
  6
Continuous
 62
     2
100
AcDbLine
 10
-146.7883211882709
 20
-283.1170650491252
 30
0.0
 11
-146.7883211882709
 21
-286.1708745729363
 31
0.0
  0
LINE
  5
125
102
{ACAD_REACTORS
330
1D2
330
1D3
102
}
330
76
100
AcDbEntity
  8
0
  6
Continuous
 62
     2
100
AcDbLine
 10
-145.5955284861045
 20
-286.1708745729363
 30
0.0
 11
-145.5955284861045
 21
-284.8620990627317
 31
0.0
  0
LINE
  5
126
102
{ACAD_REACTORS
330
1D0
330
1D1
102
}
330
76
100
AcDbEntity
  8
0
  6
Continuous
 62
     2
100
AcDbLine
 10
-146.2636433302025
 20
-289.5300650491107
 30
0.0
 11
-146.2636433302025
 21
-287.2615208314232
 31
0.0
  0
LINE
  5
127
102
{ACAD_REACTORS
330
1D0
330
1D1
102
}
330
76
100
AcDbEntity
  8
0
  6
Continuous
 62
     2
100
AcDbLine
 10
-146.2636433302025
 20
-287.2615208314232
 30
0.0
 11
-145.4525442927299
 21
-287.2615208314232
 31
0.0
  0
LINE
  5
128
102
{ACAD_REACTORS
330
1D0
330
1D1
102
}
330
76
100
AcDbEntity
  8
0
  6
Continuous
 62
     2
100
AcDbLine
 10
-145.4525442927299
 20
-287.2615208314232
 30
0.0
 11
-145.4525442927299
 21
-286.4762555252995
 31
0.0
  0
LINE
  5
129
102
{ACAD_REACTORS
330
1D0
330
1D1
102
}
330
76
100
AcDbEntity
  8
0
  6
Continuous
 62
     2
100
AcDbLine
 10
-145.4525442927299
 20
-286.4762555252995
 30
0.0
 11
-148.2675350698436
 21
-286.4762555252995
 31
0.0
  0
LINE
  5
12A
102
{ACAD_REACTORS
330
1D0
330
1D1
102
}
330
76
100
AcDbEntity
  8
0
  6
Continuous
 62
     2
100
AcDbLine
 10
-148.2675350698436
 20
-287.2615208314232
 30
0.0
 11
-147.4564360323689
 21
-287.2615208314232
 31
0.0
  0
LINE
  5
12B
102
{ACAD_REACTORS
330
1CE
330
1CF
102
}
330
76
100
AcDbEntity
  8
0
  6
Continuous
 62
     2
100
AcDbLine
 10
-144.6580384669326
 20
-288.9891045048929
 30
0.0
 11
-143.5255968902587
 21
-288.9891045048929
 31
0.0
  0
LINE
  5
12C
102
{ACAD_REACTORS
330
1CE
330
1CF
102
}
330
76
100
AcDbEntity
  8
0
  6
Continuous
 62
     2
100
AcDbLine
 10
-142.073612426529
 20
-289.5300650491107
 30
0.0
 11
-143.3141168367829
 21
-289.5300650491107
 31
0.0
  0
LINE
  5
12D
102
{ACAD_REACTORS
330
1CE
330
1CF
102
}
330
76
100
AcDbEntity
  8
0
  6
Continuous
 62
     2
100
AcDbLine
 10
-144.7120698837221
 20
-286.4762555252995
 30
0.0
 11
-146.1100229306613
 21
-289.5300650491107
 31
0.0
  0
LINE
  5
12E
102
{ACAD_REACTORS
330
1CE
330
1CF
102
}
330
76
100
AcDbEntity
  8
0
  6
Continuous
 62
     2
100
AcDbLine
 10
-144.8695185204084
 20
-289.5300650491107
 30
0.0
 11
-144.6580384669326
 21
-288.9891045048929
 31
0.0
  0
LINE
  5
12F
102
{ACAD_REACTORS
330
1CE
330
1CF
102
}
330
76
100
AcDbEntity
  8
0
  6
Continuous
 62
     2
100
AcDbLine
 10
-144.3919829157875
 20
-288.3085412395863
 30
0.0
 11
-144.0918176785952
 21
-287.5407262735996
 31
0.0
  0
LINE
  5
130
102
{ACAD_REACTORS
330
1CC
330
1CD
102
}
330
76
100
AcDbEntity
  8
0
  6
Continuous
 62
     2
100
AcDbLine
 10
-142.9236728332499
 20
-286.1708745729363
 30
0.0
 11
-142.9236728332499
 21
-283.1170650491252
 31
0.0
  0
LINE
  5
131
102
{ACAD_REACTORS
330
1CC
330
1CD
102
}
330
76
100
AcDbEntity
  8
0
  6
Continuous
 62
     2
100
AcDbLine
 10
-141.683168422997
 20
-283.1170650491252
 30
0.0
 11
-141.683168422997
 21
-286.1708745729363
 31
0.0
  0
LINE
  5
132
102
{ACAD_REACTORS
330
1CC
330
1CD
102
}
330
76
100
AcDbEntity
  8
0
  6
Continuous
 62
     2
100
AcDbLine
 10
-142.9236728332499
 20
-283.1170650491252
 30
0.0
 11
-141.683168422997
 21
-283.1170650491252
 31
0.0
  0
LINE
  5
133
102
{ACAD_REACTORS
330
1CA
330
1CB
102
}
330
76
100
AcDbEntity
  8
0
  6
Continuous
 62
     2
100
AcDbLine
 10
-139.4645739969662
 20
-285.3831427876427
 30
0.0
 11
-138.7679830589008
 21
-286.1708745729363
 31
0.0
  0
LINE
  5
134
102
{ACAD_REACTORS
330
1CA
330
1CB
102
}
330
76
100
AcDbEntity
  8
0
  6
Continuous
 62
     2
100
AcDbLine
 10
-138.7679830589008
 20
-286.1708745729363
 30
0.0
 11
-137.3652588411525
 21
-286.1708745729363
 31
0.0
  0
LINE
  5
135
102
{ACAD_REACTORS
330
1CA
330
1CB
102
}
330
76
100
AcDbEntity
  8
0
  6
Continuous
 62
     2
100
AcDbLine
 10
-138.7632118880928
 20
-284.5900155791615
 30
0.0
 11
-137.3652588411525
 21
-286.1708745729363
 31
0.0
  0
LINE
  5
136
102
{ACAD_REACTORS
330
1CA
330
1CB
102
}
330
76
100
AcDbEntity
  8
0
  6
Continuous
 62
     2
100
AcDbLine
 10
-138.7632118880928
 20
-284.5900155791615
 30
0.0
 11
-137.4606822573262
 21
-283.1170650491252
 31
0.0
  0
LINE
  5
137
102
{ACAD_REACTORS
330
1CA
330
1CB
102
}
330
76
100
AcDbEntity
  8
0
  6
Continuous
 62
     2
100
AcDbLine
 10
-139.4645739969662
 20
-283.7968883706808
 30
0.0
 11
-138.8634064750734
 21
-283.1170650491252
 31
0.0
  0
LINE
  5
138
102
{ACAD_REACTORS
330
1CA
330
1CB
102
}
330
76
100
AcDbEntity
  8
0
  6
Continuous
 62
     2
100
AcDbLine
 10
-140.0657415188581
 20
-283.1170650491252
 30
0.0
 11
-139.4645739969662
 21
-283.7968883706808
 31
0.0
  0
LINE
  5
139
102
{ACAD_REACTORS
330
1CA
330
1CB
102
}
330
76
100
AcDbEntity
  8
0
  6
Continuous
 62
     2
100
AcDbLine
 10
-140.0657415188581
 20
-283.1170650491252
 30
0.0
 11
-141.4684657366073
 21
-283.1170650491252
 31
0.0
  0
LINE
  5
13A
102
{ACAD_REACTORS
330
1C0
330
1C1
102
}
330
76
100
AcDbEntity
  8
0
  6
Continuous
 62
     2
100
AcDbLine
 10
-139.3691505807936
 20
-289.5300650491107
 30
0.0
 11
-138.1763578786259
 21
-289.5300650491107
 31
0.0
  0
LINE
  5
13B
102
{ACAD_REACTORS
330
1C0
330
1C1
102
}
330
76
100
AcDbEntity
  8
0
  6
Continuous
 62
     2
100
AcDbLine
 10
-138.1763578786259
 20
-289.5300650491107
 30
0.0
 11
-138.1763578786259
 21
-287.2615208314232
 31
0.0
  0
LINE
  5
13C
102
{ACAD_REACTORS
330
1C0
330
1C1
102
}
330
76
100
AcDbEntity
  8
0
  6
Continuous
 62
     2
100
AcDbLine
 10
-138.1763578786259
 20
-287.2615208314232
 30
0.0
 11
-137.3652588411525
 21
-287.2615208314232
 31
0.0
  0
LINE
  5
13D
102
{ACAD_REACTORS
330
1C0
330
1C1
102
}
330
76
100
AcDbEntity
  8
0
  6
Continuous
 62
     2
100
AcDbLine
 10
-137.3652588411525
 20
-287.2615208314232
 30
0.0
 11
-137.3652588411525
 21
-286.4762555252995
 31
0.0
  0
LINE
  5
13E
102
{ACAD_REACTORS
330
1C0
330
1C1
102
}
330
76
100
AcDbEntity
  8
0
  6
Continuous
 62
     2
100
AcDbLine
 10
-140.7502043597811
 20
-286.4762555253002
 30
0.0
 11
-137.3652588411525
 21
-286.4762555252995
 31
0.0
  0
LINE
  5
13F
102
{ACAD_REACTORS
330
1C0
330
1C1
102
}
330
76
100
AcDbEntity
  8
0
  6
Continuous
 62
     2
100
AcDbLine
 10
-139.3691505807936
 20
-287.2615208314232
 30
0.0
 11
-139.3691505807936
 21
-289.5300650491107
 31
0.0
  0
LINE
  5
140
102
{ACAD_REACTORS
330
1C2
330
1C3
102
}
330
76
100
AcDbEntity
  8
0
  6
Continuous
 62
     2
100
AcDbLine
 10
-161.9986370162727
 20
-287.5511848995461
 30
0.0
 11
-161.9986370162727
 21
-286.9693334928511
 31
0.0
  0
LINE
  5
141
102
{ACAD_REACTORS
330
1C2
330
1C3
102
}
330
76
100
AcDbEntity
  8
0
  6
Continuous
 62
     2
100
AcDbLine
 10
-161.9986370162727
 20
-284.751050292915
 30
0.0
 11
-161.9986370162727
 21
-284.1455150044081
 31
0.0
  0
LINE
  5
142
330
76
100
AcDbEntity
  8
1
  6
Continuous
 62
     6
100
AcDbLine
 10
-133.4684584316696
 20
-296.823565049127
 30
0.0
 11
-151.3132629584196
 21
-296.823565049127
 31
0.0
  0
LINE
  5
143
330
76
100
AcDbEntity
  8
1
  6
Continuous
 62
     7
100
AcDbLine
 10
-169.5132629584195
 20
-279.8235650491271
 30
0.0
 11
-133.1132629584196
 21
-279.8235650491271
 31
0.0
  0
LINE
  5
144
330
76
100
AcDbEntity
  8
1
  6
Continuous
 62
     6
100
AcDbLine
 10
-169.5132629584195
 20
-279.8235650491271
 30
0.0
 11
-169.5132629584195
 21
-292.5735650491271
 31
0.0
  0
LINE
  5
145
330
76
100
AcDbEntity
  8
1
  6
Continuous
 62
     6
100
AcDbLine
 10
-133.1132629584196
 20
-279.8235650491271
 30
0.0
 11
-133.1132629584196
 21
-292.573565049127
 31
0.0
  0
LINE
  5
146
330
76
100
AcDbEntity
  8
1
  6
Continuous
 62
     6
100
AcDbLine
 10
-133.1132629584196
 20
-296.8235650491271
 30
0.0
 11
-133.4684584316696
 21
-296.823565049127
 31
0.0
  0
LINE
  5
147
330
76
100
AcDbEntity
  8
1
  6
Continuous
 62
     2
100
AcDbLine
 10
-165.276608071857
 20
-274.4485650491272
 30
0.0
 11
-160.276608071857
 21
-273.1985650491272
 31
0.0
  0
LINE
  5
148
330
76
100
AcDbEntity
  8
1
  6
Continuous
 62
     2
100
AcDbLine
 10
-165.276608071857
 20
-276.9485650491272
 30
0.0
 11
-165.276608071857
 21
-274.4485650491272
 31
0.0
  0
LINE
  5
149
330
76
100
AcDbEntity
  8
1
  6
Continuous
 62
     2
100
AcDbLine
 10
-160.276608071857
 20
-278.1985650491272
 30
0.0
 11
-165.276608071857
 21
-276.9485650491272
 31
0.0
  0
LINE
  5
14A
330
76
100
AcDbEntity
  8
1
  6
Continuous
 62
     2
100
AcDbLine
 10
-160.276608071857
 20
-273.1985650491272
 30
0.0
 11
-160.276608071857
 21
-278.1985650491272
 31
0.0
  0
LINE
  5
14B
330
76
100
AcDbEntity
  8
1
  6
Continuous
 62
     7
100
AcDbLine
 10
-169.5132629584195
 20
-292.5735650491271
 30
0.0
 11
-151.3132629584196
 21
-292.573565049127
 31
0.0
  0
LINE
  5
14C
330
76
100
AcDbEntity
  8
1
  6
Continuous
 62
     6
100
AcDbLine
 10
-169.5132629584195
 20
-292.5735650491271
 30
0.0
 11
-169.5132629584195
 21
-296.8235650491271
 31
0.0
  0
LINE
  5
14D
330
76
100
AcDbEntity
  8
1
  6
Continuous
 62
     6
100
AcDbLine
 10
-133.1132629584196
 20
-292.573565049127
 30
0.0
 11
-133.1132629584196
 21
-296.8235650491271
 31
0.0
  0
LINE
  5
14E
330
76
100
AcDbEntity
  8
1
  6
Continuous
 62
     7
100
AcDbLine
 10
-151.3132629584196
 20
-292.573565049127
 30
0.0
 11
-151.3132629584196
 21
-296.823565049127
 31
0.0
  0
LINE
  5
14F
330
76
100
AcDbEntity
  8
1
  6
Continuous
 62
     6
100
AcDbLine
 10
-151.3132629584196
 20
-296.823565049127
 30
0.0
 11
-169.5132629584195
 21
-296.8235650491271
 31
0.0
  0
LINE
  5
150
330
76
100
AcDbEntity
  8
1
  6
Continuous
 62
     7
100
AcDbLine
 10
-151.3132629584196
 20
-292.573565049127
 30
0.0
 11
-133.1132629584196
 21
-292.573565049127
 31
0.0
  0
LINE
  5
151
330
76
100
AcDbEntity
  8
1
  6
Continuous
 62
     6
100
AcDbLine
 10
-169.5132629584195
 20
-271.3235650491271
 30
0.0
 11
-39.96845843166781
 21
-271.3235650491271
 31
0.0
  0
LINE
  5
152
330
76
100
AcDbEntity
  8
1
  6
PHANTOM
 62
     2
100
AcDbLine
 10
-154.026608071857
 20
-275.6985650491272
 30
0.0
 11
-159.526608071857
 21
-275.6985650491272
 31
0.0
  0
LINE
  5
153
330
76
100
AcDbEntity
  8
1
  6
PHANTOM
 62
     2
100
AcDbLine
 10
-156.776608071857
 20
-272.9485650491271
 30
0.0
 11
-156.776608071857
 21
-278.4485650491271
 31
0.0
  0
LINE
  5
154
330
76
100
AcDbEntity
  8
1
  6
DOT_CENTER
 62
     2
100
AcDbLine
 10
-165.526608071857
 20
-275.6985650491272
 30
0.0
 11
-160.026608071857
 21
-275.6985650491272
 31
0.0
  0
LINE
  5
155
330
76
100
AcDbEntity
  8
1
  6
Continuous
 62
     6
100
AcDbLine
 10
-39.96845843166966
 20
-239.4235650491264
 30
0.0
 11
-39.96845843166781
 21
-271.3235650491271
 31
0.0
  0
LINE
  5
156
330
76
100
AcDbEntity
  8
1
  6
Continuous
 62
     7
100
AcDbLine
 10
-77.0868667133471
 20
-271.3235650491271
 30
0.0
 11
-77.0868667133471
 21
-279.8235650491271
 31
0.0
  0
LINE
  5
157
330
76
100
AcDbEntity
  8
1
  6
Continuous
 62
     6
100
AcDbLine
 10
-39.96845843167006
 20
-288.3235650491271
 30
0.0
 11
-133.1132629584196
 21
-288.3235650491271
 31
0.0
  0
LINE
  5
158
330
76
100
AcDbEntity
  8
1
  6
Continuous
 62
     7
100
AcDbLine
 10
-77.0868667133471
 20
-279.8235650491271
 30
0.0
 11
-77.0868667133471
 21
-288.3235650491271
 31
0.0
  0
LINE
  5
159
330
76
100
AcDbEntity
  8
1
  6
Continuous
 62
     6
100
AcDbLine
 10
-133.1132629584196
 20
-296.8235650491271
 30
0.0
 11
-39.96845843166966
 21
-296.823565049127
 31
0.0
  0
LINE
  5
15A
330
76
100
AcDbEntity
  8
1
  6
Continuous
 62
     6
100
AcDbLine
 10
-39.96845843166781
 20
-271.3235650491271
 30
0.0
 11
-39.96845843167006
 21
-288.3235650491271
 31
0.0
  0
LINE
  5
15B
330
76
100
AcDbEntity
  8
1
  6
Continuous
 62
     6
100
AcDbLine
 10
-39.96845843167006
 20
-288.3235650491271
 30
0.0
 11
-39.96845843166966
 21
-296.823565049127
 31
0.0
  0
ARC
  5
15C
102
{ACAD_REACTORS
330
1C6
330
1C7
102
}
330
76
100
AcDbEntity
  8
0
  6
Continuous
 62
     2
100
AcDbCircle
 10
-154.1216149594595
 20
-288.0031602872055
 30
0.0
 40
0.7717997786795702
100
AcDbArc
 50
321.8795802028399
 51
38.12041979717011
  0
ARC
  5
15D
102
{ACAD_REACTORS
330
1C6
330
1C7
102
}
330
76
100
AcDbEntity
  8
0
  6
Continuous
 62
     2
100
AcDbCircle
 10
-153.9218749231131
 20
-288.1598914653254
 30
0.0
 40
0.5179085730138424
100
AcDbArc
 50
218.1204197971879
 51
321.8795802027927
  0
ARC
  5
15E
102
{ACAD_REACTORS
330
1C6
330
1C7
102
}
330
76
100
AcDbEntity
  8
0
  6
Continuous
 62
     2
100
AcDbCircle
 10
-153.7221348867671
 20
-288.0031602872055
 30
0.0
 40
0.7717997786796084
100
AcDbArc
 50
141.879580202826
 51
218.120419797164
  0
ARC
  5
15F
102
{ACAD_REACTORS
330
1C6
330
1C7
102
}
330
76
100
AcDbEntity
  8
0
  6
Continuous
 62
     2
100
AcDbCircle
 10
-153.9218749231131
 20
-287.846429109085
 30
0.0
 40
0.5179085730133731
100
AcDbArc
 50
38.12041979717264
 51
141.8795802028468
  0
ARC
  5
160
102
{ACAD_REACTORS
330
1BE
330
1BF
102
}
330
76
100
AcDbEntity
  8
0
  6
Continuous
 62
     2
100
AcDbCircle
 10
-156.9838890586771
 20
-289.4136266526135
 30
0.0
 40
2.227384008973369
100
AcDbArc
 50
58.06909105003554
 51
71.55192388186583
  0
ARC
  5
161
102
{ACAD_REACTORS
330
1BE
330
1BF
102
}
330
76
100
AcDbEntity
  8
0
  6
Continuous
 62
     2
100
AcDbCircle
 10
-156.7221613577183
 20
-287.7980888578663
 30
0.0
 40
0.5115800601947136
100
AcDbArc
 50
113.3722778881967
 51
151.4785267423268
  0
ARC
  5
162
102
{ACAD_REACTORS
330
1BE
330
1BF
102
}
330
76
100
AcDbEntity
  8
0
  6
Continuous
 62
     2
100
AcDbCircle
 10
-156.3448040996379
 20
-288.0031602872055
 30
0.0
 40
0.9410597353333294
100
AcDbArc
 50
151.4785267422693
 51
208.5214732576972
  0
ARC
  5
163
102
{ACAD_REACTORS
330
1BE
330
1BF
102
}
330
76
100
AcDbEntity
  8
0
  6
Continuous
 62
     2
100
AcDbCircle
 10
-157.1417619337699
 20
-284.690479341949
 30
0.0
 40
4.852596863498215
100
AcDbArc
 50
275.1581447696238
 51
285.9799912583529
  0
ARC
  5
164
102
{ACAD_REACTORS
330
1BE
330
1BF
102
}
330
76
100
AcDbEntity
  8
0
  6
Continuous
 62
     2
100
AcDbCircle
 10
-156.852905839034
 20
-287.8903699251706
 30
0.0
 40
1.63969512393938
100
AcDbArc
 50
195.0618917770886
 51
275.1581447696363
  0
ARC
  5
165
102
{ACAD_REACTORS
330
1BE
330
1BF
102
}
330
76
100
AcDbEntity
  8
0
  6
Continuous
 62
     2
100
AcDbCircle
 10
-157.2720336824968
 20
-288.0031602872055
 30
0.0
 40
1.205656168390944
100
AcDbArc
 50
164.9381082228765
 51
195.0618917770896
  0
ARC
  5
166
102
{ACAD_REACTORS
330
1BE
330
1BF
102
}
330
76
100
AcDbEntity
  8
0
  6
Continuous
 62
     2
100
AcDbCircle
 10
-156.852905839034
 20
-288.1159506492403
 30
0.0
 40
1.639695123940612
100
AcDbArc
 50
84.84185523036568
 51
164.9381082228903
  0
ARC
  5
167
102
{ACAD_REACTORS
330
1C2
330
1C3
102
}
330
76
100
AcDbEntity
  8
0
  6
Continuous
 62
     2
100
AcDbCircle
 10
-161.6829200931959
 20
-286.9693334928511
 30
0.0
 40
0.3157169230765964
100
AcDbArc
 50
115.3740086783521
 51
180.0
  0
ARC
  5
168
102
{ACAD_REACTORS
330
1C2
330
1C3
102
}
330
76
100
AcDbEntity
  8
0
  6
Continuous
 62
     2
100
AcDbCircle
 10
-161.6829200931959
 20
-284.751050292915
 30
0.0
 40
0.3157169230768204
100
AcDbArc
 50
180.0
 51
244.6259913216346
  0
ARC
  5
169
102
{ACAD_REACTORS
330
1C2
330
1C3
102
}
330
76
100
AcDbEntity
  8
0
  6
Continuous
 62
     2
100
AcDbCircle
 10
-161.6773039578859
 20
-285.8483499519772
 30
0.0
 40
2.018561131933266
100
AcDbArc
 50
269.8110329575834
 51
90.18896704241658
  0
ARC
  5
16A
102
{ACAD_REACTORS
330
1C2
330
1C3
102
}
330
76
100
AcDbEntity
  8
0
  6
Continuous
 62
     2
100
AcDbCircle
 10
-161.6829200931959
 20
-287.5511848995461
 30
0.0
 40
0.3157169230768204
100
AcDbArc
 50
180.0
 51
269.8110329574336
  0
ARC
  5
16B
102
{ACAD_REACTORS
330
1C0
330
1C1
102
}
330
76
100
AcDbEntity
  8
0
  6
Continuous
 62
     2
100
AcDbCircle
 10
-140.6194598784654
 20
-287.7980888578663
 30
0.0
 40
0.5115800601944143
100
AcDbArc
 50
109.3371432194853
 51
151.4785267424253
  0
ARC
  5
16C
102
{ACAD_REACTORS
330
1C0
330
1C1
102
}
330
76
100
AcDbEntity
  8
0
  6
Continuous
 62
     2
100
AcDbCircle
 10
-140.6194598784654
 20
-288.208231716544
 30
0.0
 40
0.5115800601960215
100
AcDbArc
 50
208.5214732576866
 51
246.6277221118373
  0
ARC
  5
16D
102
{ACAD_REACTORS
330
1C0
330
1C1
102
}
330
76
100
AcDbEntity
  8
0
  6
Continuous
 62
     2
100
AcDbCircle
 10
-141.1693322032428
 20
-288.0031602872055
 30
0.0
 40
1.205656168393002
100
AcDbArc
 50
164.9381082229028
 51
195.061891777092
  0
ARC
  5
16E
102
{ACAD_REACTORS
330
1C0
330
1C1
102
}
330
76
100
AcDbEntity
  8
0
  6
Continuous
 62
     2
100
AcDbCircle
 10
-140.7502043597811
 20
-288.1159506492403
 30
0.0
 40
1.639695123940101
100
AcDbArc
 50
90.0
 51
164.9381082228996
  0
ARC
  5
16F
102
{ACAD_REACTORS
330
1C4
330
1C5
102
}
330
76
100
AcDbEntity
  8
0
  6
Continuous
 62
     2
100
AcDbCircle
 10
-150.1771994524848
 20
-284.6439698110311
 30
0.0
 40
1.526904761905939
100
AcDbArc
 50
90.0
 51
270.0
  0
ARC
  5
170
102
{ACAD_REACTORS
330
1C8
330
1C9
102
}
330
76
100
AcDbEntity
  8
0
  6
Continuous
 62
     2
100
AcDbCircle
 10
-156.9198901977106
 20
-284.1330347192364
 30
0.0
 40
0.3528638246711466
100
AcDbArc
 50
270.0
 51
90.0
  0
ARC
  5
171
102
{ACAD_REACTORS
330
1C2
330
1C3
102
}
330
76
100
AcDbEntity
  8
0
  6
Continuous
 62
     2
100
AcDbCircle
 10
-164.2584687797277
 20
-284.1453375277599
 30
0.0
 40
0.3157169230760246
100
AcDbArc
 50
90.0
 51
180.0
  0
ARC
  5
172
102
{ACAD_REACTORS
330
1C2
330
1C3
102
}
330
76
100
AcDbEntity
  8
0
  6
Continuous
 62
     2
100
AcDbCircle
 10
-162.2600510711431
 20
-285.8601918928828
 30
0.0
 40
0.9118975235576555
100
AcDbArc
 50
115.1944106485211
 51
244.8055893514865
  0
ARC
  5
173
102
{ACAD_REACTORS
330
1C2
330
1C3
102
}
330
76
100
AcDbEntity
  8
0
  6
Continuous
 62
     2
100
AcDbCircle
 10
-162.7826355187181
 20
-286.9710216389454
 30
0.0
 40
0.3157169230766215
100
AcDbArc
 50
0.0
 51
64.80558935144161
  0
ARC
  5
174
102
{ACAD_REACTORS
330
1C2
330
1C3
102
}
330
76
100
AcDbEntity
  8
0
  6
Continuous
 62
     2
100
AcDbCircle
 10
-164.8523634564742
 20
-289.1058204337274
 30
0.0
 40
0.4242446153828041
100
AcDbArc
 50
180.0
 51
270.0
  0
ARC
  5
175
102
{ACAD_REACTORS
330
1C4
330
1C5
102
}
330
76
100
AcDbEntity
  8
0
  6
Continuous
 62
     2
100
AcDbCircle
 10
-149.9609274423196
 20
-284.4872386329106
 30
0.0
 40
0.5179085730133669
100
AcDbArc
 50
38.12041979714121
 51
141.8795802028666
  0
ARC
  5
176
102
{ACAD_REACTORS
330
1C4
330
1C5
102
}
330
76
100
AcDbEntity
  8
0
  6
Continuous
 62
     2
100
AcDbCircle
 10
-149.7611874059734
 20
-284.6439698110311
 30
0.0
 40
0.7717997786796373
100
AcDbArc
 50
141.8795802028438
 51
218.1204197971529
  0
ARC
  5
177
102
{ACAD_REACTORS
330
1C6
330
1C7
102
}
330
76
100
AcDbEntity
  8
0
  6
Continuous
 62
     2
100
AcDbCircle
 10
-153.9218749231131
 20
-287.4645852769021
 30
0.0
 40
2.065479772208586
100
AcDbArc
 50
242.4518518243377
 51
297.5481481756867
  0
ARC
  5
178
102
{ACAD_REACTORS
330
1C6
330
1C7
102
}
330
76
100
AcDbEntity
  8
0
  6
Continuous
 62
     2
100
AcDbCircle
 10
-153.9218749231131
 20
-288.5417352975082
 30
0.0
 40
2.065479772208543
100
AcDbArc
 50
62.451851824306
 51
117.5481481756695
  0
ARC
  5
179
102
{ACAD_REACTORS
330
1C6
330
1C7
102
}
330
76
100
AcDbEntity
  8
0
  6
Continuous
 62
     2
100
AcDbCircle
 10
-154.2028148149465
 20
-288.0031602872055
 30
0.0
 40
1.458034083651579
100
AcDbArc
 50
117.5481481756619
 51
242.451851824335
  0
ARC
  5
17A
102
{ACAD_REACTORS
330
1C6
330
1C7
102
}
330
76
100
AcDbEntity
  8
0
  6
Continuous
 62
     2
100
AcDbCircle
 10
-153.6409350312799
 20
-288.0031602872055
 30
0.0
 40
1.458034083651967
100
AcDbArc
 50
297.5481481757055
 51
62.45185182429753
  0
ARC
  5
17B
102
{ACAD_REACTORS
330
1C4
330
1C5
102
}
330
76
100
AcDbEntity
  8
0
  6
Continuous
 62
     2
100
AcDbCircle
 10
-149.9609274423196
 20
-284.8007009891516
 30
0.0
 40
0.5179085730134564
100
AcDbArc
 50
218.1204197971334
 51
321.8795802028588
  0
ARC
  5
17C
102
{ACAD_REACTORS
330
1C4
330
1C5
102
}
330
76
100
AcDbEntity
  8
0
  6
Continuous
 62
     2
100
AcDbCircle
 10
-150.1606674786658
 20
-284.6439698110311
 30
0.0
 40
0.7717997786795351
100
AcDbArc
 50
321.8795802028432
 51
38.12041979716016
  0
ARC
  5
17D
102
{ACAD_REACTORS
330
1C2
330
1C3
102
}
330
76
100
AcDbEntity
  8
0
  6
Continuous
 62
     2
100
AcDbCircle
 10
-159.3790513657573
 20
-289.1058204337274
 30
0.0
 40
0.4242446153833157
100
AcDbArc
 50
270.0
 51
0.0
  0
ARC
  5
17E
102
{ACAD_REACTORS
330
1C2
330
1C3
102
}
330
76
100
AcDbEntity
  8
0
  6
Continuous
 62
     2
100
AcDbCircle
 10
-159.3790513657573
 20
-283.5413096645273
 30
0.0
 40
0.4242446153839126
100
AcDbArc
 50
0.0
 51
90.0
  0
ARC
  5
17F
102
{ACAD_REACTORS
330
1C2
330
1C3
102
}
330
76
100
AcDbEntity
  8
0
  6
Continuous
 62
     2
100
AcDbCircle
 10
-164.8523634564742
 20
-283.5413096645273
 30
0.0
 40
0.4242446153839978
100
AcDbArc
 50
90.0
 51
180.0
  0
ARC
  5
180
102
{ACAD_REACTORS
330
1C2
330
1C3
102
}
330
76
100
AcDbEntity
  8
0
  6
Continuous
 62
     2
100
AcDbCircle
 10
-162.7826355187181
 20
-288.5017925704771
 30
0.0
 40
0.3157169230767067
100
AcDbArc
 50
270.0
 51
0.0
  0
ARC
  5
181
102
{ACAD_REACTORS
330
1C2
330
1C3
102
}
330
76
100
AcDbEntity
  8
0
  6
Continuous
 62
     2
100
AcDbCircle
 10
-162.7826355187181
 20
-284.7493621468205
 30
0.0
 40
0.3157169230762201
100
AcDbArc
 50
295.194410648554
 51
0.0
  0
ARC
  5
182
102
{ACAD_REACTORS
330
1C2
330
1C3
102
}
330
76
100
AcDbEntity
  8
0
  6
Continuous
 62
     2
100
AcDbCircle
 10
-162.7826355187181
 20
-284.1453375277599
 30
0.0
 40
0.3157169230766215
100
AcDbArc
 50
0.0
 51
90.0
  0
ARC
  5
183
102
{ACAD_REACTORS
330
1C2
330
1C3
102
}
330
76
100
AcDbEntity
  8
0
  6
Continuous
 62
     2
100
AcDbCircle
 10
-164.2584687797277
 20
-288.5017925704771
 30
0.0
 40
0.3157169230755983
100
AcDbArc
 50
180.0
 51
270.0
  0
ARC
  5
184
102
{ACAD_REACTORS
330
1C8
330
1C9
102
}
330
76
100
AcDbEntity
  8
0
  6
Continuous
 62
     2
100
AcDbCircle
 10
-156.4784176714722
 20
-284.172430690459
 30
0.0
 40
1.055365641333708
100
AcDbArc
 50
270.0
 51
90.0
  0
ARC
  5
185
102
{ACAD_REACTORS
330
1C0
330
1C1
102
}
330
76
100
AcDbEntity
  8
0
  6
Continuous
 62
     2
100
AcDbCircle
 10
-140.7502043597811
 20
-287.8903699251706
 30
0.0
 40
1.639695123940531
100
AcDbArc
 50
195.0618917771004
 51
275.1581447696762
  0
ARC
  5
186
102
{ACAD_REACTORS
330
1C0
330
1C1
102
}
330
76
100
AcDbEntity
  8
0
  6
Continuous
 62
     2
100
AcDbCircle
 10
-141.039060454517
 20
-284.690479341949
 30
0.0
 40
4.852596863498833
100
AcDbArc
 50
275.1581447696374
 51
285.9799912583384
  0
ARC
  5
187
102
{ACAD_REACTORS
330
1C0
330
1C1
102
}
330
76
100
AcDbEntity
  8
0
  6
Continuous
 62
     2
100
AcDbCircle
 10
-140.8811875794242
 20
-286.5926939217973
 30
0.0
 40
2.227384008972665
100
AcDbArc
 50
288.4480761181342
 51
301.9309089499403
  0
ARC
  5
188
102
{ACAD_REACTORS
330
1C0
330
1C1
102
}
330
76
100
AcDbEntity
  8
0
  6
Continuous
 62
     2
100
AcDbCircle
 10
-140.4630198457622
 20
-287.846239697834
 30
0.0
 40
0.9059297849851573
100
AcDbArc
 50
246.627722111809
 51
288.4480761180801
  0
ARC
  5
189
102
{ACAD_REACTORS
330
1C0
330
1C1
102
}
330
76
100
AcDbEntity
  8
0
  6
Continuous
 62
     2
100
AcDbCircle
 10
-140.2421026203839
 20
-288.0031602872055
 30
0.0
 40
0.9410597353350872
100
AcDbArc
 50
151.4785267423551
 51
208.5214732576662
  0
ARC
  5
18A
102
{ACAD_REACTORS
330
1C0
330
1C1
102
}
330
76
100
AcDbEntity
  8
0
  6
Continuous
 62
     2
100
AcDbCircle
 10
-140.4727898803617
 20
-288.2160438382493
 30
0.0
 40
0.9545230068260935
100
AcDbArc
 50
90.0
 51
109.3371432194297
  0
ARC
  5
18B
102
{ACAD_REACTORS
330
1C2
330
1C3
102
}
330
76
100
AcDbEntity
  8
0
  6
Continuous
 62
     2
100
AcDbCircle
 10
-161.6829200931959
 20
-284.1455150044081
 30
0.0
 40
0.3157169230760714
100
AcDbArc
 50
90.18896704256656
 51
180.0
  0
ARC
  5
18C
102
{ACAD_REACTORS
330
1C2
330
1C3
102
}
330
76
100
AcDbEntity
  8
0
  6
Continuous
 62
     2
100
AcDbCircle
 10
-162.2089627912838
 20
-285.8601918928828
 30
0.0
 40
0.9118481501442791
100
AcDbArc
 50
295.3740086781818
 51
64.62599132181052
  0
ARC
  5
18D
102
{ACAD_REACTORS
330
1BE
330
1BF
102
}
330
76
100
AcDbEntity
  8
0
  6
Continuous
 62
     2
100
AcDbCircle
 10
-156.9838890586771
 20
-286.5926939217968
 30
0.0
 40
2.227384008972773
100
AcDbArc
 50
288.4480761181333
 51
301.9309089499629
  0
ARC
  5
18E
102
{ACAD_REACTORS
330
1BE
330
1BF
102
}
330
76
100
AcDbEntity
  8
0
  6
Continuous
 62
     2
100
AcDbCircle
 10
-156.5657213250162
 20
-287.846239697834
 30
0.0
 40
0.9059297849847627
100
AcDbArc
 50
246.6277221118667
 51
288.4480761181528
  0
ARC
  5
18F
102
{ACAD_REACTORS
330
1BE
330
1BF
102
}
330
76
100
AcDbEntity
  8
0
  6
Continuous
 62
     2
100
AcDbCircle
 10
-156.7221613577183
 20
-288.208231716544
 30
0.0
 40
0.5115800601947491
100
AcDbArc
 50
208.5214732576844
 51
246.6277221118286
  0
ARC
  5
190
102
{ACAD_REACTORS
330
1BE
330
1BF
102
}
330
76
100
AcDbEntity
  8
0
  6
Continuous
 62
     2
100
AcDbCircle
 10
-156.5657213250162
 20
-288.160080876577
 30
0.0
 40
0.9059297849852959
100
AcDbArc
 50
71.55192388185858
 51
113.372277888129
  0
ARC
  5
191
102
{ACAD_REACTORS
330
1BE
330
1BF
102
}
330
76
100
AcDbEntity
  8
0
  6
Continuous
 62
     2
100
AcDbCircle
 10
-157.1417619337699
 20
-291.3158412324613
 30
0.0
 40
4.852596863497986
100
AcDbArc
 50
74.0200087416471
 51
84.84185523037621
  0
CIRCLE
  5
192
102
{ACAD_REACTORS
330
1C2
330
1C3
102
}
330
76
100
AcDbEntity
  8
0
  6
Continuous
 62
     2
100
AcDbCircle
 10
-162.2327778059566
 20
-285.8601918928828
 30
0.0
 40
0.4709789327785074
  0
CIRCLE
  5
193
330
76
100
AcDbEntity
  8
1
  6
Continuous
 62
     2
100
AcDbCircle
 10
-156.776608071857
 20
-275.6985650491272
 30
0.0
 40
1.25
  0
CIRCLE
  5
194
330
76
100
AcDbEntity
  8
1
  6
Continuous
 62
     2
100
AcDbCircle
 10
-156.776608071857
 20
-275.6985650491272
 30
0.0
 40
2.5
  0
TEXT
  5
196
330
76
100
AcDbEntity
  8
1
 62
     7
100
AcDbText
 10
-75.30179176500297
 20
-300.8235650491265
 30
0.0
 40
2.5
  1
6
 41
0.9
  7
CONVERTER_11
100
AcDbText
  0
TEXT
  5
197
330
76
100
AcDbEntity
  8
1
 62
     7
100
AcDbText
 10
-143.6351250983364
 20
-300.8235650491265
 30
0.0
 40
2.5
  1
5
 41
0.9
  7
CONVERTER_11
100
AcDbText
  0
TEXT
  5
198
330
76
100
AcDbEntity
  8
1
 62
     7
100
AcDbText
 10
-211.9684584316696
 20
-300.8235650491265
 30
0.0
 40
2.5
  1
4
 41
0.9
  7
CONVERTER_11
100
AcDbText
  0
TEXT
  5
199
330
76
100
AcDbEntity
  8
1
 62
     7
100
AcDbText
 10
-280.3017917650027
 20
-300.8235650491265
 30
0.0
 40
2.5
  1
3
 41
0.9
  7
CONVERTER_11
100
AcDbText
  0
TEXT
  5
19A
330
76
100
AcDbEntity
  8
1
 62
     7
100
AcDbText
 10
-38.9684584316696
 20
-269.3235650491265
 30
0.0
 40
2.5
  1
E
 41
0.9
  7
CONVERTER_11
100
AcDbText
  0
TEXT
  5
19B
330
76
100
AcDbEntity
  8
1
 62
     7
100
AcDbText
 10
-416.9684584316693
 20
-300.8235650491265
 30
0.0
 40
2.5
  1
1
 41
0.9
  7
CONVERTER_11
100
AcDbText
  0
TEXT
  5
19C
330
76
100
AcDbEntity
  8
1
 62
     7
100
AcDbText
 10
-348.6351250983362
 20
-300.8235650491265
 30
0.0
 40
2.5
  1
2
 41
0.9
  7
CONVERTER_11
100
AcDbText
  0
TEXT
  5
19D
330
76
100
AcDbEntity
  8
1
 62
     7
100
AcDbText
 10
-38.9684584316696
 20
-211.9235650491264
 30
0.0
 40
2.5
  1
D
 41
0.9
  7
CONVERTER_11
100
AcDbText
  0
TEXT
  5
19E
330
76
100
AcDbEntity
  8
1
 62
     7
100
AcDbText
 10
-38.9684584316696
 20
-154.5235650491263
 30
0.0
 40
2.5
  1
C
 41
0.9
  7
CONVERTER_11
100
AcDbText
  0
TEXT
  5
19F
330
76
100
AcDbEntity
  8
1
 62
     7
100
AcDbText
 10
-38.9684584316696
 20
-97.12356504912646
 30
0.0
 40
2.5
  1
B
 41
0.9
  7
CONVERTER_11
100
AcDbText
  0
TEXT
  5
1A0
330
76
100
AcDbEntity
  8
1
 62
     7
100
AcDbText
 10
-38.9684584316696
 20
-39.72356504912657
 30
0.0
 40
2.5
  1
A
 41
0.9
  7
CONVERTER_11
100
AcDbText
  0
TEXT
  5
1A1
330
76
100
AcDbEntity
  8
1
 62
     7
100
AcDbText
 10
-75.30179176500297
 20
-8.82356504912625
 30
0.0
 40
2.5
  1
6
 41
0.9
  7
CONVERTER_11
100
AcDbText
  0
TEXT
  5
1A2
330
76
100
AcDbEntity
  8
1
 62
     7
100
AcDbText
 10
-143.6351250983362
 20
-8.82356504912625
 30
0.0
 40
2.5
  1
5
 41
0.9
  7
CONVERTER_11
100
AcDbText
  0
TEXT
  5
1A3
330
76
100
AcDbEntity
  8
1
 62
     7
100
AcDbText
 10
-211.9684584316696
 20
-8.82356504912625
 30
0.0
 40
2.5
  1
4
 41
0.9
  7
CONVERTER_11
100
AcDbText
  0
TEXT
  5
1A4
330
76
100
AcDbEntity
  8
1
 62
     7
100
AcDbText
 10
-280.3017917650027
 20
-8.82356504912625
 30
0.0
 40
2.5
  1
3
 41
0.9
  7
CONVERTER_11
100
AcDbText
  0
TEXT
  5
1A5
330
76
100
AcDbEntity
  8
1
 62
     7
100
AcDbText
 10
-348.6351250983362
 20
-8.82356504912625
 30
0.0
 40
2.5
  1
2
 41
0.9
  7
CONVERTER_11
100
AcDbText
  0
TEXT
  5
1A6
330
76
100
AcDbEntity
  8
1
 62
     7
100
AcDbText
 10
-416.9684584316693
 20
-8.82356504912625
 30
0.0
 40
2.5
  1
1
 41
0.9
  7
CONVERTER_11
100
AcDbText
  0
TEXT
  5
1A7
330
76
100
AcDbEntity
  8
1
 62
     7
100
AcDbText
 10
-114.1397152364058
 20
-278.523565049127
 30
0.0
 40
2.5
  1
/
 41
0.9
  7
CONVERTER_11
100
AcDbText
  0
TEXT
  5
1A9
330
76
100
AcDbEntity
  8
1
 62
     7
100
AcDbText
 10
-111.9833507393638
 20
-278.523565049127
 30
0.0
 40
2.5
  1
00
 41
0.81
  7
CONVERTER_12
100
AcDbText
  0
TEXT
  5
1AA
330
76
100
AcDbEntity
  8
1
 62
     3
100
AcDbText
 10
-105.8868667133467
 20
-278.523565049127
 30
0.0
 40
2.5
  1
07.08.2018
 41
0.81
  7
CONVERTER_12
100
AcDbText
  0
MTEXT
  5
1AB
330
76
100
AcDbEntity
  8
1
 62
     2
100
AcDbMText
 10
-105.8868667133467
 20
-272.3235650491271
 30
0.0
 40
1.8
 41
0.0
 71
     1
 72
     1
  1
date
  7
CONVERTER_11
 73
     1
 44
1.32052821128451
  0
MTEXT
  5
1AC
330
76
100
AcDbEntity
  8
1
 62
     2
100
AcDbMText
 10
-132.1132629584196
 20
-280.8235650491271
 30
0.0
 40
1.8
 41
0.0
 71
     1
 72
     1
  1
document-type
  7
CONVERTER_11
 73
     1
 44
1.20048019207683
  0
TEXT
  5
1AD
330
76
100
AcDbEntity
  8
1
 62
     3
100
AcDbText
 10
-132.1132629584196
 20
-287.023565049127
 30
0.0
 40
2.5
  1
TECDOC 2D_Design_In
 41
0.81
  7
CONVERTER_12
100
AcDbText
  0
MTEXT
  5
1AF
330
76
100
AcDbEntity
  8
1
 62
     2
100
AcDbMText
 10
-132.0132629584196
 20
-272.3235650491271
 30
0.0
 40
1.8
 41
0.0
 71
     1
 72
     1
  1
document-No. / RI
  7
CONVERTER_13
 73
     1
 44
1.32052821128451
  0
TEXT
  5
1B0
330
76
100
AcDbEntity
  8
1
 62
     7
100
AcDbText
 10
-132.0132629584196
 20
-278.523565049127
 30
0.0
 40
2.5
  1
01103003
 41
0.81
  7
CONVERTER_12
100
AcDbText
  0
MTEXT
  5
1B2
330
76
100
AcDbEntity
  8
1
 62
     3
100
AcDbMText
 10
-82.22766257250761
 20
-278.523565049127
 30
0.0
 40
2.5
 41
0.0
 71
     8
 72
     1
  1
2:1
  7
CONVERTER_14
 73
     1
 44
1.32052821128451
  0
MTEXT
  5
1B3
330
76
100
AcDbEntity
  8
1
 62
     2
100
AcDbMText
 10
-85.38686671334712
 20
-272.3235650491271
 30
0.0
 40
1.8
 41
0.0
 71
     1
 72
     1
  1
scale
  7
CONVERTER_11
 73
     1
 44
1.20048019207683
  0
MTEXT
  5
1B4
330
76
100
AcDbEntity
  8
1
 62
     2
100
AcDbMText
 10
-75.98686671334711
 20
-279.8235650491271
 30
0.0
 40
1.5
 41
0.0
 71
     4
 72
     1
  1
- Simplified representation\P- Document excluded\P  from change process\P- Linear dimensions [mm]\P- EN ISO 291  23/50
  7
CONVERTER_11
 73
     1
 44
1.20048019207683
  0
MTEXT
  5
1B5
330
76
100
AcDbEntity
  8
1
 62
     3
100
AcDbMText
 10
-143.3132629584196
 20
-275.6985650491271
 30
0.0
 40
2.5
 41
0.0
 71
     5
 72
     1
  1
DIN A3
  7
CONVERTER_11
 73
     1
 44
1.20048019207683
  0
MTEXT
  5
1B6
330
76
100
AcDbEntity
  8
1
 62
     2
100
AcDbMText
 10
-132.1132629584196
 20
-289.3235650491271
 30
0.0
 40
1.8
 41
0.0
 71
     1
 72
     1
  1
description
  7
CONVERTER_11
 73
     1
 44
1.20048019207683
  0
MTEXT
  5
1B7
330
76
100
AcDbEntity
  8
1
 62
     7
100
AcDbMText
 10
-86.5408606950441
 20
-293.5735650491268
 30
0.0
 40
3.0
 41
0.0
 71
     5
 72
     1
  1
VS-PPC-F1-..-MNNA-1C-..
  7
CONVERTER_12
 73
     1
 44
1.20048019207683
  0
TEXT
  5
1B8
330
76
100
AcDbEntity
  8
1
 62
     2
100
AcDbText
 10
-145.077954148606
 20
-295.5735650491271
 30
0.0
 40
1.8
  1
1
 41
0.9
  7
CONVERTER_11
100
AcDbText
  0
TEXT
  5
1B9
330
76
100
AcDbEntity
  8
1
 62
     2
100
AcDbText
 10
-159.8669979880775
 20
-295.622813702929
 30
0.0
 40
1.8
  1
1
 41
0.9
  7
CONVERTER_11
100
AcDbText
  0
TEXT
  5
1BA
330
76
100
AcDbEntity
  8
1
 62
     2
100
AcDbText
 10
-168.5132629584195
 20
-295.5825822641187
 30
0.0
 40
1.8
  1
page
 41
0.9
  7
CONVERTER_11
100
AcDbText
  0
TEXT
  5
1BB
330
76
100
AcDbEntity
  8
1
 62
     2
100
AcDbText
 10
-150.3132629584197
 20
-295.5825822641185
 30
0.0
 40
1.8
  1
of
 41
0.9
  7
CONVERTER_11
100
AcDbText
  0
MTEXT
  5
1BC
330
76
100
AcDbEntity
  8
1
 62
     3
100
AcDbMText
 10
-436.6999914314103
 20
-123.8372809354728
 30
0.0
 40
1.8
 41
0.0
 71
     7
 72
     1
  3
Transfer or duplication of this document as well as the utilisation or\Pcommunication of its content are not permitted unless express consent\Pis granted. Violations give rise to claims for damages. All rights reserved\Pin case of patent, utility mo
  1
del or design patent registrations.\PTolerance specifications do not include clearances inherent in the design.
  7
CONVERTER_11
 11
0.0
 21
1.0
 31
0.0
 73
     1
 44
0.99639855942377
  0
MTEXT
  5
1BD
330
76
100
AcDbEntity
  8
1
 62
     3
100
AcDbMText
 10
-436.5457851203164
 20
-296.7966509496258
 30
0.0
 40
1.8
 41
0.0
 71
     7
 72
     1
  3
Weitergabe sowie Vervielfältigung dieses Dokuments, Verwertung und\PMitteilung seines Inhalts sind verboten, soweit nicht ausdrücklich gestattet.\PZuwiderhandlungen verpflichten zu Schadenersatz. Alle Rechte für den Fall\Pder Patent-, Gebrauchsmuste
  1
r- oder Designeintragung vorbehalten.\PBauartbedingtes Spiel ist in den Toleranzangaben nicht berücksichtigt.
  7
CONVERTER_11
 11
0.0
 21
1.0
 31
0.0
 73
     1
 44
0.99639855942377
  0
HATCH
  5
1BE
330
76
100
AcDbEntity
  8
1
  6
Continuous
 62
     2
100
AcDbHatch
 10
0.0
 20
0.0
 30
0.0
210
0.0
220
0.0
230
1.0
  2
CUSTOM0
 70
     0
 71
     1
 91
        1
 92
        1
 93
       14
 72
     2
 10
-157.2720336824968
 20
-288.0031602872055
 40
1.205656168390944
 50
164.9381082228765
 51
195.0618917770896
 73
     1
 72
     2
 10
-156.852905839034
 20
-287.8903699251706
 40
1.63969512393938
 50
195.0618917770886
 51
275.1581447696363
 73
     1
 72
     2
 10
-157.1417619337699
 20
-284.690479341949
 40
4.852596863498215
 50
275.1581447696238
 51
285.9799912583529
 73
     1
 72
     1
 10
-155.8058340166521
 20
-289.3555616477498
 11
-155.8058340166521
 21
-288.4830446409466
 72
     2
 10
-156.9838890586771
 20
-286.5926939217968
 40
2.227384008972773
 50
58.06909105003709
 51
71.55192388186677
 73
     0
 72
     2
 10
-156.5657213250162
 20
-287.846239697834
 40
0.9059297849847627
 50
71.55192388184723
 51
113.3722778881332
 73
     0
 72
     2
 10
-156.7221613577183
 20
-288.208231716544
 40
0.5115800601947491
 50
113.3722778881714
 51
151.4785267423156
 73
     0
 72
     2
 10
-156.3448040996379
 20
-288.0031602872055
 40
0.9410597353333294
 50
151.4785267423028
 51
208.5214732577306
 73
     0
 72
     2
 10
-156.7221613577183
 20
-287.7980888578663
 40
0.5115800601947136
 50
208.5214732576732
 51
246.6277221118033
 73
     0
 72
     2
 10
-156.5657213250162
 20
-288.160080876577
 40
0.9059297849852959
 50
246.627722111871
 51
288.4480761181414
 73
     0
 72
     2
 10
-156.9838890586771
 20
-289.4136266526135
 40
2.227384008973369
 50
288.4480761181342
 51
301.9309089499645
 73
     0
 72
     1
 10
-155.8058340166521
 20
-287.5232759334638
 11
-155.8058340166521
 21
-286.6507589266605
 72
     2
 10
-157.1417619337699
 20
-291.3158412324613
 40
4.852596863497986
 50
74.0200087416471
 51
84.84185523037621
 73
     1
 72
     2
 10
-156.852905839034
 20
-288.1159506492403
 40
1.639695123940612
 50
84.84185523036568
 51
164.9381082228903
 73
     1
 97
       14
330
191
330
D7
330
160
330
190
330
161
330
162
330
18F
330
18E
330
18D
330
D8
330
163
330
164
330
165
330
166
 75
     1
 76
     2
 52
45.0
 41
0.1
 77
     0
 78
     1
 53
45.0
 43
62.7811309658083
 44
-72.3161373035813
 45
-0.1414213562373095
 46
0.0
 79
     0
 98
        1
 10
0.0
 20
0.0
  0
HATCH
  5
1BF
330
76
100
AcDbEntity
  8
1
  6
Continuous
 62
     2
100
AcDbHatch
 10
0.0
 20
0.0
 30
0.0
210
0.0
220
0.0
230
1.0
  2
CUSTOM1
 70
     0
 71
     1
 91
        1
 92
        1
 93
       14
 72
     2
 10
-157.2720336824968
 20
-288.0031602872055
 40
1.205656168390944
 50
164.9381082228765
 51
195.0618917770896
 73
     1
 72
     2
 10
-156.852905839034
 20
-287.8903699251706
 40
1.63969512393938
 50
195.0618917770886
 51
275.1581447696363
 73
     1
 72
     2
 10
-157.1417619337699
 20
-284.690479341949
 40
4.852596863498215
 50
275.1581447696238
 51
285.9799912583529
 73
     1
 72
     1
 10
-155.8058340166521
 20
-289.3555616477498
 11
-155.8058340166521
 21
-288.4830446409466
 72
     2
 10
-156.9838890586771
 20
-286.5926939217968
 40
2.227384008972773
 50
58.06909105003709
 51
71.55192388186677
 73
     0
 72
     2
 10
-156.5657213250162
 20
-287.846239697834
 40
0.9059297849847627
 50
71.55192388184723
 51
113.3722778881332
 73
     0
 72
     2
 10
-156.7221613577183
 20
-288.208231716544
 40
0.5115800601947491
 50
113.3722778881714
 51
151.4785267423156
 73
     0
 72
     2
 10
-156.3448040996379
 20
-288.0031602872055
 40
0.9410597353333294
 50
151.4785267423028
 51
208.5214732577306
 73
     0
 72
     2
 10
-156.7221613577183
 20
-287.7980888578663
 40
0.5115800601947136
 50
208.5214732576732
 51
246.6277221118033
 73
     0
 72
     2
 10
-156.5657213250162
 20
-288.160080876577
 40
0.9059297849852959
 50
246.627722111871
 51
288.4480761181414
 73
     0
 72
     2
 10
-156.9838890586771
 20
-289.4136266526135
 40
2.227384008973369
 50
288.4480761181342
 51
301.9309089499645
 73
     0
 72
     1
 10
-155.8058340166521
 20
-287.5232759334638
 11
-155.8058340166521
 21
-286.6507589266605
 72
     2
 10
-157.1417619337699
 20
-291.3158412324613
 40
4.852596863497986
 50
74.0200087416471
 51
84.84185523037621
 73
     1
 72
     2
 10
-156.852905839034
 20
-288.1159506492403
 40
1.639695123940612
 50
84.84185523036568
 51
164.9381082228903
 73
     1
 97
       14
330
191
330
D7
330
160
330
190
330
161
330
162
330
18F
330
18E
330
18D
330
D8
330
163
330
164
330
165
330
166
 75
     1
 76
     2
 52
45.0
 41
0.1
 77
     0
 78
     1
 53
45.0
 43
62.7811309658083
 44
-72.3161373035813
 45
-0.1414213562373095
 46
0.0
 79
     0
 98
        1
 10
0.0
 20
0.0
  0
HATCH
  5
1C0
330
76
100
AcDbEntity
  8
1
  6
Continuous
 62
     2
100
AcDbHatch
 10
0.0
 20
0.0
 30
0.0
210
0.0
220
0.0
230
1.0
  2
CUSTOM2
 70
     0
 71
     1
 91
        1
 92
        1
 93
       18
 72
     2
 10
-140.7502043597811
 20
-288.1159506492403
 40
1.639695123940101
 50
90.0
 51
164.9381082228996
 73
     1
 72
     2
 10
-141.1693322032428
 20
-288.0031602872055
 40
1.205656168393002
 50
164.9381082229028
 51
195.061891777092
 73
     1
 72
     2
 10
-140.7502043597811
 20
-287.8903699251706
 40
1.639695123940531
 50
195.0618917771004
 51
275.1581447696762
 73
     1
 72
     2
 10
-141.039060454517
 20
-284.690479341949
 40
4.852596863498833
 50
275.1581447696374
 51
285.9799912583384
 73
     1
 72
     1
 10
-139.7031325374003
 20
-289.3555616477504
 11
-139.7031325374003
 21
-288.483044640947
 72
     2
 10
-140.8811875794242
 20
-286.5926939217973
 40
2.227384008972665
 50
58.06909105005974
 51
71.5519238818658
 73
     0
 72
     2
 10
-140.4630198457622
 20
-287.846239697834
 40
0.9059297849851573
 50
71.55192388191995
 51
113.372277888191
 73
     0
 72
     2
 10
-140.6194598784654
 20
-288.208231716544
 40
0.5115800601960215
 50
113.3722778881627
 51
151.4785267423134
 73
     0
 72
     2
 10
-140.2421026203839
 20
-288.0031602872055
 40
0.9410597353350872
 50
151.4785267423338
 51
208.5214732576449
 73
     0
 72
     2
 10
-140.6194598784654
 20
-287.7980888578663
 40
0.5115800601944143
 50
208.5214732575747
 51
250.6628567805147
 73
     0
 72
     2
 10
-140.4727898803617
 20
-288.2160438382493
 40
0.9545230068260935
 50
250.6628567805703
 51
270.0
 73
     0
 72
     1
 10
-140.4727898803617
 20
-287.2615208314232
 11
-139.3691505807936
 21
-287.2615208314232
 72
     1
 10
-139.3691505807936
 20
-287.2615208314232
 11
-139.3691505807936
 21
-289.5300650491107
 72
     1
 10
-139.3691505807936
 20
-289.5300650491107
 11
-138.1763578786259
 21
-289.5300650491107
 72
     1
 10
-138.1763578786259
 20
-289.5300650491107
 11
-138.1763578786259
 21
-287.2615208314232
 72
     1
 10
-138.1763578786259
 20
-287.2615208314232
 11
-137.3652588411525
 21
-287.2615208314232
 72
     1
 10
-137.3652588411525
 20
-287.2615208314232
 11
-137.3652588411525
 21
-286.4762555252995
 72
     1
 10
-137.3652588411525
 20
-286.4762555252995
 11
-140.7502043597811
 21
-286.4762555253002
 97
       18
330
13D
330
13C
330
13B
330
13A
330
13F
330
D9
330
18A
330
16B
330
189
330
16C
330
188
330
187
330
DA
330
186
330
185
330
16D
330
16E
330
13E
 75
     1
 76
     2
 52
45.0
 41
0.1
 77
     0
 78
     1
 53
45.0
 43
62.7811309658083
 44
-72.3161373035813
 45
-0.1414213562373095
 46
0.0
 79
     0
 98
        1
 10
0.0
 20
0.0
  0
HATCH
  5
1C1
330
76
100
AcDbEntity
  8
1
  6
Continuous
 62
     2
100
AcDbHatch
 10
0.0
 20
0.0
 30
0.0
210
0.0
220
0.0
230
1.0
  2
CUSTOM3
 70
     0
 71
     1
 91
        1
 92
        1
 93
       18
 72
     2
 10
-140.7502043597811
 20
-288.1159506492403
 40
1.639695123940101
 50
90.0
 51
164.9381082228996
 73
     1
 72
     2
 10
-141.1693322032428
 20
-288.0031602872055
 40
1.205656168393002
 50
164.9381082229028
 51
195.061891777092
 73
     1
 72
     2
 10
-140.7502043597811
 20
-287.8903699251706
 40
1.639695123940531
 50
195.0618917771004
 51
275.1581447696762
 73
     1
 72
     2
 10
-141.039060454517
 20
-284.690479341949
 40
4.852596863498833
 50
275.1581447696374
 51
285.9799912583384
 73
     1
 72
     1
 10
-139.7031325374003
 20
-289.3555616477504
 11
-139.7031325374003
 21
-288.483044640947
 72
     2
 10
-140.8811875794242
 20
-286.5926939217973
 40
2.227384008972665
 50
58.06909105005974
 51
71.5519238818658
 73
     0
 72
     2
 10
-140.4630198457622
 20
-287.846239697834
 40
0.9059297849851573
 50
71.55192388191995
 51
113.372277888191
 73
     0
 72
     2
 10
-140.6194598784654
 20
-288.208231716544
 40
0.5115800601960215
 50
113.3722778881627
 51
151.4785267423134
 73
     0
 72
     2
 10
-140.2421026203839
 20
-288.0031602872055
 40
0.9410597353350872
 50
151.4785267423338
 51
208.5214732576449
 73
     0
 72
     2
 10
-140.6194598784654
 20
-287.7980888578663
 40
0.5115800601944143
 50
208.5214732575747
 51
250.6628567805147
 73
     0
 72
     2
 10
-140.4727898803617
 20
-288.2160438382493
 40
0.9545230068260935
 50
250.6628567805703
 51
270.0
 73
     0
 72
     1
 10
-140.4727898803617
 20
-287.2615208314232
 11
-139.3691505807936
 21
-287.2615208314232
 72
     1
 10
-139.3691505807936
 20
-287.2615208314232
 11
-139.3691505807936
 21
-289.5300650491107
 72
     1
 10
-139.3691505807936
 20
-289.5300650491107
 11
-138.1763578786259
 21
-289.5300650491107
 72
     1
 10
-138.1763578786259
 20
-289.5300650491107
 11
-138.1763578786259
 21
-287.2615208314232
 72
     1
 10
-138.1763578786259
 20
-287.2615208314232
 11
-137.3652588411525
 21
-287.2615208314232
 72
     1
 10
-137.3652588411525
 20
-287.2615208314232
 11
-137.3652588411525
 21
-286.4762555252995
 72
     1
 10
-137.3652588411525
 20
-286.4762555252995
 11
-140.7502043597811
 21
-286.4762555253002
 97
       18
330
13D
330
13C
330
13B
330
13A
330
13F
330
D9
330
18A
330
16B
330
189
330
16C
330
188
330
187
330
DA
330
186
330
185
330
16D
330
16E
330
13E
 75
     1
 76
     2
 52
45.0
 41
0.1
 77
     0
 78
     1
 53
45.0
 43
62.7811309658083
 44
-72.3161373035813
 45
-0.1414213562373095
 46
0.0
 79
     0
 98
        1
 10
0.0
 20
0.0
  0
HATCH
  5
1C2
330
76
100
AcDbEntity
  8
1
  6
Continuous
 62
     2
100
AcDbHatch
 10
0.0
 20
0.0
 30
0.0
210
0.0
220
0.0
230
1.0
  2
CUSTOM4
 70
     0
 71
     1
 91
        4
 92
        1
 93
        8
 72
     2
 10
-164.8523634564742
 20
-283.5413096645273
 40
0.4242446153839978
 50
90.0
 51
180.0
 73
     1
 72
     1
 10
-165.276608071857
 20
-283.5413096645273
 11
-165.276608071857
 21
-289.1058204337274
 72
     2
 10
-164.8523634564742
 20
-289.1058204337274
 40
0.4242446153828041
 50
180.0
 51
270.0
 73
     1
 72
     1
 10
-164.8523634564742
 20
-289.5300650491107
 11
-159.3790513657573
 21
-289.5300650491107
 72
     2
 10
-159.3790513657573
 20
-289.1058204337274
 40
0.4242446153833157
 50
270.0
 51
360.0
 73
     1
 72
     1
 10
-158.9548067503734
 20
-289.1058204337274
 11
-158.9548067503734
 21
-283.5413096645273
 72
     2
 10
-159.3790513657573
 20
-283.5413096645273
 40
0.4242446153839126
 50
0.0
 51
90.0
 73
     1
 72
     1
 10
-159.3790513657573
 20
-283.1170650491433
 11
-164.8523634564742
 21
-283.1170650491433
 97
        8
330
17E
330
108
330
17D
330
109
330
174
330
106
330
17F
330
107
 92
       16
 93
       12
 72
     1
 10
-164.2584687797277
 20
-288.8175094935538
 11
-162.7826355187181
 21
-288.8175094935538
 72
     2
 10
-162.7826355187181
 20
-288.5017925704771
 40
0.3157169230767067
 50
270.0
 51
360.0
 73
     1
 72
     1
 10
-162.4669185956415
 20
-288.5017925704771
 11
-162.4669185956415
 21
-286.9710216389454
 72
     2
 10
-162.7826355187181
 20
-286.9710216389454
 40
0.3157169230766215
 50
0.0
 51
64.80558935144161
 73
     1
 72
     2
 10
-162.2600510711431
 20
-285.8601918928828
 40
0.9118975235576555
 50
115.1944106485135
 51
244.8055893514789
 73
     0
 72
     2
 10
-162.7826355187181
 20
-284.7493621468205
 40
0.3157169230762201
 50
295.194410648554
 51
360.0
 73
     1
 72
     1
 10
-162.4669185956415
 20
-284.7493621468205
 11
-162.4669185956415
 21
-284.1453375277599
 72
     2
 10
-162.7826355187181
 20
-284.1453375277599
 40
0.3157169230766215
 50
0.0
 51
90.0
 73
     1
 72
     1
 10
-162.7826355187181
 20
-283.8296206046839
 11
-164.2584687797277
 21
-283.8296206046839
 72
     2
 10
-164.2584687797277
 20
-284.1453375277599
 40
0.3157169230760246
 50
90.0
 51
180.0
 73
     1
 72
     1
 10
-164.5741857028033
 20
-284.1453375277599
 11
-164.5741857028033
 21
-288.5017925704771
 72
     2
 10
-164.2584687797277
 20
-288.5017925704771
 40
0.3157169230755983
 50
180.0
 51
270.0
 73
     1
 97
       12
330
10D
330
171
330
10C
330
182
330
10B
330
181
330
172
330
173
330
10A
330
180
330
105
330
183
 92
       16
 93
        8
 72
     2
 10
-162.2089627912838
 20
-285.8601918928828
 40
0.9118481501442791
 50
295.3740086781818
 51
424.6259913218105
 73
     1
 72
     2
 10
-161.6829200931959
 20
-284.751050292915
 40
0.3157169230768204
 50
115.3740086783654
 51
180.0
 73
     0
 72
     1
 10
-161.9986370162727
 20
-284.751050292915
 11
-161.9986370162727
 21
-284.1455150044081
 72
     2
 10
-161.6829200931959
 20
-284.1455150044081
 40
0.3157169230760714
 50
180.0
 51
269.8110329574334
 73
     0
 72
     2
 10
-161.6773039578859
 20
-285.8483499519772
 40
2.018561131933266
 50
269.8110329575834
 51
450.1889670424166
 73
     0
 72
     2
 10
-161.6829200931959
 20
-287.5511848995461
 40
0.3157169230768204
 50
90.18896704256646
 51
180.0
 73
     0
 72
     1
 10
-161.9986370162727
 20
-287.5511848995461
 11
-161.9986370162727
 21
-286.9693334928511
 72
     2
 10
-161.6829200931959
 20
-286.9693334928511
 40
0.3157169230765964
 50
180.0
 51
244.6259913216479
 73
     0
 97
        8
330
18C
330
168
330
141
330
18B
330
169
330
16A
330
140
330
167
 92
       16
 93
        1
 72
     2
 10
-162.2327778059566
 20
-285.8601918928828
 40
0.4709789327785074
 50
0.0
 51
360.0
 73
     1
 97
        1
330
192
 75
     1
 76
     2
 52
45.0
 41
0.1
 77
     0
 78
     1
 53
45.0
 43
62.7811309658083
 44
-72.3161373035813
 45
-0.1414213562373095
 46
0.0
 79
     0
 98
        1
 10
0.0
 20
0.0
  0
HATCH
  5
1C3
330
76
100
AcDbEntity
  8
1
  6
Continuous
 62
     2
100
AcDbHatch
 10
0.0
 20
0.0
 30
0.0
210
0.0
220
0.0
230
1.0
  2
CUSTOM5
 70
     0
 71
     1
 91
        4
 92
        1
 93
        8
 72
     2
 10
-164.8523634564742
 20
-283.5413096645273
 40
0.4242446153839978
 50
90.0
 51
180.0
 73
     1
 72
     1
 10
-165.276608071857
 20
-283.5413096645273
 11
-165.276608071857
 21
-289.1058204337274
 72
     2
 10
-164.8523634564742
 20
-289.1058204337274
 40
0.4242446153828041
 50
180.0
 51
270.0
 73
     1
 72
     1
 10
-164.8523634564742
 20
-289.5300650491107
 11
-159.3790513657573
 21
-289.5300650491107
 72
     2
 10
-159.3790513657573
 20
-289.1058204337274
 40
0.4242446153833157
 50
270.0
 51
360.0
 73
     1
 72
     1
 10
-158.9548067503734
 20
-289.1058204337274
 11
-158.9548067503734
 21
-283.5413096645273
 72
     2
 10
-159.3790513657573
 20
-283.5413096645273
 40
0.4242446153839126
 50
0.0
 51
90.0
 73
     1
 72
     1
 10
-159.3790513657573
 20
-283.1170650491433
 11
-164.8523634564742
 21
-283.1170650491433
 97
        8
330
17E
330
108
330
17D
330
109
330
174
330
106
330
17F
330
107
 92
       16
 93
       12
 72
     1
 10
-164.2584687797277
 20
-288.8175094935538
 11
-162.7826355187181
 21
-288.8175094935538
 72
     2
 10
-162.7826355187181
 20
-288.5017925704771
 40
0.3157169230767067
 50
270.0
 51
360.0
 73
     1
 72
     1
 10
-162.4669185956415
 20
-288.5017925704771
 11
-162.4669185956415
 21
-286.9710216389454
 72
     2
 10
-162.7826355187181
 20
-286.9710216389454
 40
0.3157169230766215
 50
0.0
 51
64.80558935144161
 73
     1
 72
     2
 10
-162.2600510711431
 20
-285.8601918928828
 40
0.9118975235576555
 50
115.1944106485135
 51
244.8055893514789
 73
     0
 72
     2
 10
-162.7826355187181
 20
-284.7493621468205
 40
0.3157169230762201
 50
295.194410648554
 51
360.0
 73
     1
 72
     1
 10
-162.4669185956415
 20
-284.7493621468205
 11
-162.4669185956415
 21
-284.1453375277599
 72
     2
 10
-162.7826355187181
 20
-284.1453375277599
 40
0.3157169230766215
 50
0.0
 51
90.0
 73
     1
 72
     1
 10
-162.7826355187181
 20
-283.8296206046839
 11
-164.2584687797277
 21
-283.8296206046839
 72
     2
 10
-164.2584687797277
 20
-284.1453375277599
 40
0.3157169230760246
 50
90.0
 51
180.0
 73
     1
 72
     1
 10
-164.5741857028033
 20
-284.1453375277599
 11
-164.5741857028033
 21
-288.5017925704771
 72
     2
 10
-164.2584687797277
 20
-288.5017925704771
 40
0.3157169230755983
 50
180.0
 51
270.0
 73
     1
 97
       12
330
10D
330
171
330
10C
330
182
330
10B
330
181
330
172
330
173
330
10A
330
180
330
105
330
183
 92
       16
 93
        8
 72
     2
 10
-162.2089627912838
 20
-285.8601918928828
 40
0.9118481501442791
 50
295.3740086781818
 51
424.6259913218105
 73
     1
 72
     2
 10
-161.6829200931959
 20
-284.751050292915
 40
0.3157169230768204
 50
115.3740086783654
 51
180.0
 73
     0
 72
     1
 10
-161.9986370162727
 20
-284.751050292915
 11
-161.9986370162727
 21
-284.1455150044081
 72
     2
 10
-161.6829200931959
 20
-284.1455150044081
 40
0.3157169230760714
 50
180.0
 51
269.8110329574334
 73
     0
 72
     2
 10
-161.6773039578859
 20
-285.8483499519772
 40
2.018561131933266
 50
269.8110329575834
 51
450.1889670424166
 73
     0
 72
     2
 10
-161.6829200931959
 20
-287.5511848995461
 40
0.3157169230768204
 50
90.18896704256646
 51
180.0
 73
     0
 72
     1
 10
-161.9986370162727
 20
-287.5511848995461
 11
-161.9986370162727
 21
-286.9693334928511
 72
     2
 10
-161.6829200931959
 20
-286.9693334928511
 40
0.3157169230765964
 50
180.0
 51
244.6259913216479
 73
     0
 97
        8
330
18C
330
168
330
141
330
18B
330
169
330
16A
330
140
330
167
 92
       16
 93
        1
 72
     2
 10
-162.2327778059566
 20
-285.8601918928828
 40
0.4709789327785074
 50
0.0
 51
360.0
 73
     1
 97
        1
330
192
 75
     1
 76
     2
 52
45.0
 41
0.1
 77
     0
 78
     1
 53
45.0
 43
62.7811309658083
 44
-72.3161373035813
 45
-0.1414213562373095
 46
0.0
 79
     0
 98
        1
 10
0.0
 20
0.0
  0
HATCH
  5
1C4
330
76
100
AcDbEntity
  8
1
  6
Continuous
 62
     2
100
AcDbHatch
 10
0.0
 20
0.0
 30
0.0
210
0.0
220
0.0
230
1.0
  2
CUSTOM6
 70
     0
 71
     1
 91
        2
 92
        1
 93
       12
 72
     2
 10
-150.1771994524848
 20
-284.6439698110311
 40
1.526904761905939
 50
90.0
 51
270.0
 73
     1
 72
     1
 10
-150.1771994524848
 20
-286.1708745729363
 11
-147.0268797287039
 21
-286.1708745729363
 72
     1
 10
-147.0268797287039
 20
-286.1708745729363
 11
-147.0268797287039
 21
-285.4728609674939
 72
     1
 10
-147.0268797287039
 20
-285.4728609674939
 11
-148.3628075551315
 21
-285.4728609674939
 72
     1
 10
-148.3628075551315
 20
-285.4728609674939
 11
-148.3628075551315
 21
-284.9929766137523
 72
     1
 10
-148.3628075551315
 20
-284.9929766137523
 11
-147.0268797287039
 21
-284.9929766137523
 72
     1
 10
-147.0268797287039
 20
-284.9929766137523
 11
-147.0268797287039
 21
-284.2949630083099
 72
     1
 10
-147.0268797287039
 20
-284.2949630083099
 11
-148.3628075551315
 21
-284.2949630083099
 72
     1
 10
-148.3628075551315
 20
-284.2949630083099
 11
-148.3628075551315
 21
-283.8150786545682
 72
     1
 10
-148.3628075551315
 20
-283.8150786545682
 11
-147.0268797287039
 21
-283.8150786545682
 72
     1
 10
-147.0268797287039
 20
-283.8150786545682
 11
-147.0268797287039
 21
-283.1170650491252
 72
     1
 10
-147.0268797287039
 20
-283.1170650491252
 11
-150.1771994524848
 21
-283.1170650491252
 97
       12
330
FC
330
F6
330
11D
330
11C
330
11B
330
11A
330
F7
330
F8
330
F9
330
FA
330
16F
330
FB
 92
       16
 93
        4
 72
     2
 10
-149.7611874059734
 20
-284.6439698110311
 40
0.7717997786796373
 50
141.8795802028438
 51
218.1204197971529
 73
     1
 72
     2
 10
-149.9609274423196
 20
-284.8007009891516
 40
0.5179085730134564
 50
218.1204197971334
 51
321.8795802028588
 73
     1
 72
     2
 10
-150.1606674786658
 20
-284.6439698110311
 40
0.7717997786795351
 50
321.8795802028432
 51
398.1204197971601
 73
     1
 72
     2
 10
-149.9609274423196
 20
-284.4872386329106
 40
0.5179085730133669
 50
38.12041979714121
 51
141.8795802028666
 73
     1
 97
        4
330
17C
330
17B
330
176
330
175
 75
     1
 76
     2
 52
45.0
 41
0.1
 77
     0
 78
     1
 53
45.0
 43
62.7811309658083
 44
-72.3161373035813
 45
-0.1414213562373095
 46
0.0
 79
     0
 98
        1
 10
0.0
 20
0.0
  0
HATCH
  5
1C5
330
76
100
AcDbEntity
  8
1
  6
Continuous
 62
     2
100
AcDbHatch
 10
0.0
 20
0.0
 30
0.0
210
0.0
220
0.0
230
1.0
  2
CUSTOM7
 70
     0
 71
     1
 91
        2
 92
        1
 93
       12
 72
     2
 10
-150.1771994524848
 20
-284.6439698110311
 40
1.526904761905939
 50
90.0
 51
270.0
 73
     1
 72
     1
 10
-150.1771994524848
 20
-286.1708745729363
 11
-147.0268797287039
 21
-286.1708745729363
 72
     1
 10
-147.0268797287039
 20
-286.1708745729363
 11
-147.0268797287039
 21
-285.4728609674939
 72
     1
 10
-147.0268797287039
 20
-285.4728609674939
 11
-148.3628075551315
 21
-285.4728609674939
 72
     1
 10
-148.3628075551315
 20
-285.4728609674939
 11
-148.3628075551315
 21
-284.9929766137523
 72
     1
 10
-148.3628075551315
 20
-284.9929766137523
 11
-147.0268797287039
 21
-284.9929766137523
 72
     1
 10
-147.0268797287039
 20
-284.9929766137523
 11
-147.0268797287039
 21
-284.2949630083099
 72
     1
 10
-147.0268797287039
 20
-284.2949630083099
 11
-148.3628075551315
 21
-284.2949630083099
 72
     1
 10
-148.3628075551315
 20
-284.2949630083099
 11
-148.3628075551315
 21
-283.8150786545682
 72
     1
 10
-148.3628075551315
 20
-283.8150786545682
 11
-147.0268797287039
 21
-283.8150786545682
 72
     1
 10
-147.0268797287039
 20
-283.8150786545682
 11
-147.0268797287039
 21
-283.1170650491252
 72
     1
 10
-147.0268797287039
 20
-283.1170650491252
 11
-150.1771994524848
 21
-283.1170650491252
 97
       12
330
FC
330
F6
330
11D
330
11C
330
11B
330
11A
330
F7
330
F8
330
F9
330
FA
330
16F
330
FB
 92
       16
 93
        4
 72
     2
 10
-149.7611874059734
 20
-284.6439698110311
 40
0.7717997786796373
 50
141.8795802028438
 51
218.1204197971529
 73
     1
 72
     2
 10
-149.9609274423196
 20
-284.8007009891516
 40
0.5179085730134564
 50
218.1204197971334
 51
321.8795802028588
 73
     1
 72
     2
 10
-150.1606674786658
 20
-284.6439698110311
 40
0.7717997786795351
 50
321.8795802028432
 51
398.1204197971601
 73
     1
 72
     2
 10
-149.9609274423196
 20
-284.4872386329106
 40
0.5179085730133669
 50
38.12041979714121
 51
141.8795802028666
 73
     1
 97
        4
330
17C
330
17B
330
176
330
175
 75
     1
 76
     2
 52
45.0
 41
0.1
 77
     0
 78
     1
 53
45.0
 43
62.7811309658083
 44
-72.3161373035813
 45
-0.1414213562373095
 46
0.0
 79
     0
 98
        1
 10
0.0
 20
0.0
  0
HATCH
  5
1C6
330
76
100
AcDbEntity
  8
1
  6
Continuous
 62
     2
100
AcDbHatch
 10
0.0
 20
0.0
 30
0.0
210
0.0
220
0.0
230
1.0
  2
CUSTOM8
 70
     0
 71
     1
 91
        2
 92
        1
 93
        4
 72
     2
 10
-154.2028148149465
 20
-288.0031602872055
 40
1.458034083651579
 50
117.5481481756619
 51
242.451851824335
 73
     1
 72
     2
 10
-153.9218749231131
 20
-287.4645852769021
 40
2.065479772208586
 50
242.4518518243377
 51
297.5481481756867
 73
     1
 72
     2
 10
-153.6409350312799
 20
-288.0031602872055
 40
1.458034083651967
 50
297.5481481757055
 51
422.4518518242975
 73
     1
 72
     2
 10
-153.9218749231131
 20
-288.5417352975082
 40
2.065479772208543
 50
62.451851824306
 51
117.5481481756695
 73
     1
 97
        4
330
17A
330
177
330
179
330
178
 92
       16
 93
        4
 72
     2
 10
-153.9218749231131
 20
-287.846429109085
 40
0.5179085730133731
 50
38.12041979717264
 51
141.8795802028468
 73
     1
 72
     2
 10
-153.7221348867671
 20
-288.0031602872055
 40
0.7717997786796084
 50
141.879580202826
 51
218.120419797164
 73
     1
 72
     2
 10
-153.9218749231131
 20
-288.1598914653254
 40
0.5179085730138424
 50
218.1204197971879
 51
321.8795802027927
 73
     1
 72
     2
 10
-154.1216149594595
 20
-288.0031602872055
 40
0.7717997786795702
 50
321.8795802028399
 51
398.1204197971701
 73
     1
 97
        4
330
15D
330
15E
330
15F
330
15C
 75
     1
 76
     2
 52
45.0
 41
0.1
 77
     0
 78
     1
 53
45.0
 43
62.7811309658083
 44
-72.3161373035813
 45
-0.1414213562373095
 46
0.0
 79
     0
 98
        1
 10
0.0
 20
0.0
  0
HATCH
  5
1C7
330
76
100
AcDbEntity
  8
1
  6
Continuous
 62
     2
100
AcDbHatch
 10
0.0
 20
0.0
 30
0.0
210
0.0
220
0.0
230
1.0
  2
CUSTOM9
 70
     0
 71
     1
 91
        2
 92
        1
 93
        4
 72
     2
 10
-154.2028148149465
 20
-288.0031602872055
 40
1.458034083651579
 50
117.5481481756619
 51
242.451851824335
 73
     1
 72
     2
 10
-153.9218749231131
 20
-287.4645852769021
 40
2.065479772208586
 50
242.4518518243377
 51
297.5481481756867
 73
     1
 72
     2
 10
-153.6409350312799
 20
-288.0031602872055
 40
1.458034083651967
 50
297.5481481757055
 51
422.4518518242975
 73
     1
 72
     2
 10
-153.9218749231131
 20
-288.5417352975082
 40
2.065479772208543
 50
62.451851824306
 51
117.5481481756695
 73
     1
 97
        4
330
17A
330
177
330
179
330
178
 92
       16
 93
        4
 72
     2
 10
-153.9218749231131
 20
-287.846429109085
 40
0.5179085730133731
 50
38.12041979717264
 51
141.8795802028468
 73
     1
 72
     2
 10
-153.7221348867671
 20
-288.0031602872055
 40
0.7717997786796084
 50
141.879580202826
 51
218.120419797164
 73
     1
 72
     2
 10
-153.9218749231131
 20
-288.1598914653254
 40
0.5179085730138424
 50
218.1204197971879
 51
321.8795802027927
 73
     1
 72
     2
 10
-154.1216149594595
 20
-288.0031602872055
 40
0.7717997786795702
 50
321.8795802028399
 51
398.1204197971701
 73
     1
 97
        4
330
15D
330
15E
330
15F
330
15C
 75
     1
 76
     2
 52
45.0
 41
0.1
 77
     0
 78
     1
 53
45.0
 43
62.7811309658083
 44
-72.3161373035813
 45
-0.1414213562373095
 46
0.0
 79
     0
 98
        1
 10
0.0
 20
0.0
  0
HATCH
  5
1C8
330
76
100
AcDbEntity
  8
1
  6
Continuous
 62
     2
100
AcDbHatch
 10
0.0
 20
0.0
 30
0.0
210
0.0
220
0.0
230
1.0
  2
CUSTOM10
 70
     0
 71
     1
 91
        2
 92
        1
 93
        6
 72
     1
 10
-158.4776896695066
 20
-283.1170650491252
 11
-158.4776896695066
 21
-286.1708745729363
 72
     1
 10
-158.4776896695066
 20
-286.1708745729363
 11
-157.2371852592526
 21
-286.1708745729363
 72
     1
 10
-157.2371852592526
 20
-286.1708745729363
 11
-157.2371852592526
 21
-285.2277963317927
 72
     1
 10
-157.2371852592526
 20
-285.2277963317927
 11
-156.4784176714722
 21
-285.2277963317927
 72
     2
 10
-156.4784176714722
 20
-284.172430690459
 40
1.055365641333708
 50
270.0
 51
450.0
 73
     1
 72
     1
 10
-156.4784176714722
 20
-283.1170650491252
 11
-158.4776896695066
 21
-283.1170650491252
 97
        6
330
184
330
10E
330
104
330
103
330
110
330
10F
 92
       16
 93
        4
 72
     1
 10
-156.9198901977106
 20
-283.7801708945652
 11
-157.2371852592526
 21
-283.7801708945652
 72
     1
 10
-157.2371852592526
 20
-283.7801708945652
 11
-157.2371852592526
 21
-284.4858985439075
 72
     1
 10
-157.2371852592526
 20
-284.4858985439075
 11
-156.9198901977106
 21
-284.4858985439075
 72
     2
 10
-156.9198901977106
 20
-284.1330347192364
 40
0.3528638246711466
 50
270.0
 51
450.0
 73
     1
 97
        4
330
111
330
102
330
112
330
170
 75
     1
 76
     2
 52
45.0
 41
0.1
 77
     0
 78
     1
 53
45.0
 43
62.7811309658083
 44
-72.3161373035813
 45
-0.1414213562373095
 46
0.0
 79
     0
 98
        1
 10
0.0
 20
0.0
  0
HATCH
  5
1C9
330
76
100
AcDbEntity
  8
1
  6
Continuous
 62
     2
100
AcDbHatch
 10
0.0
 20
0.0
 30
0.0
210
0.0
220
0.0
230
1.0
  2
CUSTOM11
 70
     0
 71
     1
 91
        2
 92
        1
 93
        6
 72
     1
 10
-158.4776896695066
 20
-283.1170650491252
 11
-158.4776896695066
 21
-286.1708745729363
 72
     1
 10
-158.4776896695066
 20
-286.1708745729363
 11
-157.2371852592526
 21
-286.1708745729363
 72
     1
 10
-157.2371852592526
 20
-286.1708745729363
 11
-157.2371852592526
 21
-285.2277963317927
 72
     1
 10
-157.2371852592526
 20
-285.2277963317927
 11
-156.4784176714722
 21
-285.2277963317927
 72
     2
 10
-156.4784176714722
 20
-284.172430690459
 40
1.055365641333708
 50
270.0
 51
450.0
 73
     1
 72
     1
 10
-156.4784176714722
 20
-283.1170650491252
 11
-158.4776896695066
 21
-283.1170650491252
 97
        6
330
184
330
10E
330
104
330
103
330
110
330
10F
 92
       16
 93
        4
 72
     1
 10
-156.9198901977106
 20
-283.7801708945652
 11
-157.2371852592526
 21
-283.7801708945652
 72
     1
 10
-157.2371852592526
 20
-283.7801708945652
 11
-157.2371852592526
 21
-284.4858985439075
 72
     1
 10
-157.2371852592526
 20
-284.4858985439075
 11
-156.9198901977106
 21
-284.4858985439075
 72
     2
 10
-156.9198901977106
 20
-284.1330347192364
 40
0.3528638246711466
 50
270.0
 51
450.0
 73
     1
 97
        4
330
111
330
102
330
112
330
170
 75
     1
 76
     2
 52
45.0
 41
0.1
 77
     0
 78
     1
 53
45.0
 43
62.7811309658083
 44
-72.3161373035813
 45
-0.1414213562373095
 46
0.0
 79
     0
 98
        1
 10
0.0
 20
0.0
  0
HATCH
  5
1CA
330
76
100
AcDbEntity
  8
1
  6
Continuous
 62
     2
100
AcDbHatch
 10
0.0
 20
0.0
 30
0.0
210
0.0
220
0.0
230
1.0
  2
CUSTOM12
 70
     0
 71
     1
 91
        1
 92
        1
 93
       12
 72
     1
 10
-138.8634064750734
 20
-283.1170650491252
 11
-137.4606822573262
 21
-283.1170650491252
 72
     1
 10
-137.4606822573262
 20
-283.1170650491252
 11
-138.7632118880928
 21
-284.5900155791615
 72
     1
 10
-138.7632118880928
 20
-284.5900155791615
 11
-137.3652588411525
 21
-286.1708745729363
 72
     1
 10
-137.3652588411525
 20
-286.1708745729363
 11
-138.7679830589008
 21
-286.1708745729363
 72
     1
 10
-138.7679830589008
 20
-286.1708745729363
 11
-139.4645739969662
 21
-285.3831427876427
 72
     1
 10
-139.4645739969662
 20
-285.3831427876427
 11
-140.161164935032
 21
-286.1708745729363
 72
     1
 10
-140.161164935032
 20
-286.1708745729363
 11
-141.5638891527801
 21
-286.1708745729363
 72
     1
 10
-141.5638891527801
 20
-286.1708745729363
 11
-140.1659361058398
 21
-284.5900155791615
 72
     1
 10
-140.1659361058398
 20
-284.5900155791615
 11
-141.4684657366073
 21
-283.1170650491252
 72
     1
 10
-141.4684657366073
 20
-283.1170650491252
 11
-140.0657415188581
 21
-283.1170650491252
 72
     1
 10
-140.0657415188581
 20
-283.1170650491252
 11
-139.4645739969662
 21
-283.7968883706808
 72
     1
 10
-139.4645739969662
 20
-283.7968883706808
 11
-138.8634064750734
 21
-283.1170650491252
 97
       12
330
DD
330
136
330
135
330
134
330
133
330
DE
330
DF
330
DB
330
DC
330
139
330
138
330
137
 75
     1
 76
     2
 52
45.0
 41
0.1
 77
     0
 78
     1
 53
45.0
 43
62.7811309658083
 44
-72.3161373035813
 45
-0.1414213562373095
 46
0.0
 79
     0
 98
        1
 10
0.0
 20
0.0
  0
HATCH
  5
1CB
330
76
100
AcDbEntity
  8
1
  6
Continuous
 62
     2
100
AcDbHatch
 10
0.0
 20
0.0
 30
0.0
210
0.0
220
0.0
230
1.0
  2
CUSTOM13
 70
     0
 71
     1
 91
        1
 92
        1
 93
       12
 72
     1
 10
-138.8634064750734
 20
-283.1170650491252
 11
-137.4606822573262
 21
-283.1170650491252
 72
     1
 10
-137.4606822573262
 20
-283.1170650491252
 11
-138.7632118880928
 21
-284.5900155791615
 72
     1
 10
-138.7632118880928
 20
-284.5900155791615
 11
-137.3652588411525
 21
-286.1708745729363
 72
     1
 10
-137.3652588411525
 20
-286.1708745729363
 11
-138.7679830589008
 21
-286.1708745729363
 72
     1
 10
-138.7679830589008
 20
-286.1708745729363
 11
-139.4645739969662
 21
-285.3831427876427
 72
     1
 10
-139.4645739969662
 20
-285.3831427876427
 11
-140.161164935032
 21
-286.1708745729363
 72
     1
 10
-140.161164935032
 20
-286.1708745729363
 11
-141.5638891527801
 21
-286.1708745729363
 72
     1
 10
-141.5638891527801
 20
-286.1708745729363
 11
-140.1659361058398
 21
-284.5900155791615
 72
     1
 10
-140.1659361058398
 20
-284.5900155791615
 11
-141.4684657366073
 21
-283.1170650491252
 72
     1
 10
-141.4684657366073
 20
-283.1170650491252
 11
-140.0657415188581
 21
-283.1170650491252
 72
     1
 10
-140.0657415188581
 20
-283.1170650491252
 11
-139.4645739969662
 21
-283.7968883706808
 72
     1
 10
-139.4645739969662
 20
-283.7968883706808
 11
-138.8634064750734
 21
-283.1170650491252
 97
       12
330
DD
330
136
330
135
330
134
330
133
330
DE
330
DF
330
DB
330
DC
330
139
330
138
330
137
 75
     1
 76
     2
 52
45.0
 41
0.1
 77
     0
 78
     1
 53
45.0
 43
62.7811309658083
 44
-72.3161373035813
 45
-0.1414213562373095
 46
0.0
 79
     0
 98
        1
 10
0.0
 20
0.0
  0
HATCH
  5
1CC
330
76
100
AcDbEntity
  8
1
  6
Continuous
 62
     2
100
AcDbHatch
 10
0.0
 20
0.0
 30
0.0
210
0.0
220
0.0
230
1.0
  2
CUSTOM14
 70
     0
 71
     1
 91
        1
 92
        1
 93
        4
 72
     1
 10
-141.683168422997
 20
-283.1170650491252
 11
-141.683168422997
 21
-286.1708745729363
 72
     1
 10
-141.683168422997
 20
-286.1708745729363
 11
-142.9236728332499
 21
-286.1708745729363
 72
     1
 10
-142.9236728332499
 20
-286.1708745729363
 11
-142.9236728332499
 21
-283.1170650491252
 72
     1
 10
-142.9236728332499
 20
-283.1170650491252
 11
-141.683168422997
 21
-283.1170650491252
 97
        4
330
131
330
E0
330
130
330
132
 75
     1
 76
     2
 52
45.0
 41
0.1
 77
     0
 78
     1
 53
45.0
 43
62.7811309658083
 44
-72.3161373035813
 45
-0.1414213562373095
 46
0.0
 79
     0
 98
        1
 10
0.0
 20
0.0
  0
HATCH
  5
1CD
330
76
100
AcDbEntity
  8
1
  6
Continuous
 62
     2
100
AcDbHatch
 10
0.0
 20
0.0
 30
0.0
210
0.0
220
0.0
230
1.0
  2
CUSTOM15
 70
     0
 71
     1
 91
        1
 92
        1
 93
        4
 72
     1
 10
-141.683168422997
 20
-283.1170650491252
 11
-141.683168422997
 21
-286.1708745729363
 72
     1
 10
-141.683168422997
 20
-286.1708745729363
 11
-142.9236728332499
 21
-286.1708745729363
 72
     1
 10
-142.9236728332499
 20
-286.1708745729363
 11
-142.9236728332499
 21
-283.1170650491252
 72
     1
 10
-142.9236728332499
 20
-283.1170650491252
 11
-141.683168422997
 21
-283.1170650491252
 97
        4
330
131
330
E0
330
130
330
132
 75
     1
 76
     2
 52
45.0
 41
0.1
 77
     0
 78
     1
 53
45.0
 43
62.7811309658083
 44
-72.3161373035813
 45
-0.1414213562373095
 46
0.0
 79
     0
 98
        1
 10
0.0
 20
0.0
  0
HATCH
  5
1CE
330
76
100
AcDbEntity
  8
1
  6
Continuous
 62
     2
100
AcDbHatch
 10
0.0
 20
0.0
 30
0.0
210
0.0
220
0.0
230
1.0
  2
CUSTOM16
 70
     0
 71
     1
 91
        2
 92
        1
 93
        8
 72
     1
 10
-142.073612426529
 20
-289.5300650491107
 11
-143.3141168367829
 21
-289.5300650491107
 72
     1
 10
-143.3141168367829
 20
-289.5300650491107
 11
-143.5255968902587
 21
-288.9891045048929
 72
     1
 10
-143.5255968902587
 20
-288.9891045048929
 11
-144.6580384669326
 21
-288.9891045048929
 72
     1
 10
-144.6580384669326
 20
-288.9891045048929
 11
-144.8695185204084
 21
-289.5300650491107
 72
     1
 10
-144.8695185204084
 20
-289.5300650491107
 11
-146.1100229306613
 21
-289.5300650491107
 72
     1
 10
-146.1100229306613
 20
-289.5300650491107
 11
-144.7120698837221
 21
-286.4762555252995
 72
     1
 10
-144.7120698837221
 20
-286.4762555252995
 11
-143.4715654734693
 21
-286.4762555252995
 72
     1
 10
-143.4715654734693
 20
-286.4762555252995
 11
-142.073612426529
 21
-289.5300650491107
 97
        8
330
12C
330
E6
330
12B
330
12E
330
E3
330
12D
330
E4
330
E5
 92
       16
 93
        3
 72
     1
 10
-144.3919829157875
 20
-288.3085412395863
 11
-143.791652441405
 21
-288.3085412395863
 72
     1
 10
-143.791652441405
 20
-288.3085412395863
 11
-144.0918176785952
 21
-287.5407262735996
 72
     1
 10
-144.0918176785952
 20
-287.5407262735996
 11
-144.3919829157875
 21
-288.3085412395863
 97
        3
330
E2
330
E1
330
12F
 75
     1
 76
     2
 52
45.0
 41
0.1
 77
     0
 78
     1
 53
45.0
 43
62.7811309658083
 44
-72.3161373035813
 45
-0.1414213562373095
 46
0.0
 79
     0
 98
        1
 10
0.0
 20
0.0
  0
HATCH
  5
1CF
330
76
100
AcDbEntity
  8
1
  6
Continuous
 62
     2
100
AcDbHatch
 10
0.0
 20
0.0
 30
0.0
210
0.0
220
0.0
230
1.0
  2
CUSTOM17
 70
     0
 71
     1
 91
        2
 92
        1
 93
        8
 72
     1
 10
-142.073612426529
 20
-289.5300650491107
 11
-143.3141168367829
 21
-289.5300650491107
 72
     1
 10
-143.3141168367829
 20
-289.5300650491107
 11
-143.5255968902587
 21
-288.9891045048929
 72
     1
 10
-143.5255968902587
 20
-288.9891045048929
 11
-144.6580384669326
 21
-288.9891045048929
 72
     1
 10
-144.6580384669326
 20
-288.9891045048929
 11
-144.8695185204084
 21
-289.5300650491107
 72
     1
 10
-144.8695185204084
 20
-289.5300650491107
 11
-146.1100229306613
 21
-289.5300650491107
 72
     1
 10
-146.1100229306613
 20
-289.5300650491107
 11
-144.7120698837221
 21
-286.4762555252995
 72
     1
 10
-144.7120698837221
 20
-286.4762555252995
 11
-143.4715654734693
 21
-286.4762555252995
 72
     1
 10
-143.4715654734693
 20
-286.4762555252995
 11
-142.073612426529
 21
-289.5300650491107
 97
        8
330
12C
330
E6
330
12B
330
12E
330
E3
330
12D
330
E4
330
E5
 92
       16
 93
        3
 72
     1
 10
-144.3919829157875
 20
-288.3085412395863
 11
-143.791652441405
 21
-288.3085412395863
 72
     1
 10
-143.791652441405
 20
-288.3085412395863
 11
-144.0918176785952
 21
-287.5407262735996
 72
     1
 10
-144.0918176785952
 20
-287.5407262735996
 11
-144.3919829157875
 21
-288.3085412395863
 97
        3
330
E2
330
E1
330
12F
 75
     1
 76
     2
 52
45.0
 41
0.1
 77
     0
 78
     1
 53
45.0
 43
62.7811309658083
 44
-72.3161373035813
 45
-0.1414213562373095
 46
0.0
 79
     0
 98
        1
 10
0.0
 20
0.0
  0
HATCH
  5
1D0
330
76
100
AcDbEntity
  8
1
  6
Continuous
 62
     2
100
AcDbHatch
 10
0.0
 20
0.0
 30
0.0
210
0.0
220
0.0
230
1.0
  2
CUSTOM18
 70
     0
 71
     1
 91
        1
 92
        1
 93
        8
 72
     1
 10
-148.2675350698436
 20
-286.4762555252995
 11
-148.2675350698436
 21
-287.2615208314232
 72
     1
 10
-148.2675350698436
 20
-287.2615208314232
 11
-147.4564360323689
 21
-287.2615208314232
 72
     1
 10
-147.4564360323689
 20
-287.2615208314232
 11
-147.4564360323689
 21
-289.5300650491107
 72
     1
 10
-147.4564360323689
 20
-289.5300650491107
 11
-146.2636433302025
 21
-289.5300650491107
 72
     1
 10
-146.2636433302025
 20
-289.5300650491107
 11
-146.2636433302025
 21
-287.2615208314232
 72
     1
 10
-146.2636433302025
 20
-287.2615208314232
 11
-145.4525442927299
 21
-287.2615208314232
 72
     1
 10
-145.4525442927299
 20
-287.2615208314232
 11
-145.4525442927299
 21
-286.4762555252995
 72
     1
 10
-145.4525442927299
 20
-286.4762555252995
 11
-148.2675350698436
 21
-286.4762555252995
 97
        8
330
128
330
127
330
126
330
E7
330
E8
330
12A
330
E9
330
129
 75
     1
 76
     2
 52
45.0
 41
0.1
 77
     0
 78
     1
 53
45.0
 43
62.7811309658083
 44
-72.3161373035813
 45
-0.1414213562373095
 46
0.0
 79
     0
 98
        1
 10
0.0
 20
0.0
  0
HATCH
  5
1D1
330
76
100
AcDbEntity
  8
1
  6
Continuous
 62
     2
100
AcDbHatch
 10
0.0
 20
0.0
 30
0.0
210
0.0
220
0.0
230
1.0
  2
CUSTOM19
 70
     0
 71
     1
 91
        1
 92
        1
 93
        8
 72
     1
 10
-148.2675350698436
 20
-286.4762555252995
 11
-148.2675350698436
 21
-287.2615208314232
 72
     1
 10
-148.2675350698436
 20
-287.2615208314232
 11
-147.4564360323689
 21
-287.2615208314232
 72
     1
 10
-147.4564360323689
 20
-287.2615208314232
 11
-147.4564360323689
 21
-289.5300650491107
 72
     1
 10
-147.4564360323689
 20
-289.5300650491107
 11
-146.2636433302025
 21
-289.5300650491107
 72
     1
 10
-146.2636433302025
 20
-289.5300650491107
 11
-146.2636433302025
 21
-287.2615208314232
 72
     1
 10
-146.2636433302025
 20
-287.2615208314232
 11
-145.4525442927299
 21
-287.2615208314232
 72
     1
 10
-145.4525442927299
 20
-287.2615208314232
 11
-145.4525442927299
 21
-286.4762555252995
 72
     1
 10
-145.4525442927299
 20
-286.4762555252995
 11
-148.2675350698436
 21
-286.4762555252995
 97
        8
330
128
330
127
330
126
330
E7
330
E8
330
12A
330
E9
330
129
 75
     1
 76
     2
 52
45.0
 41
0.1
 77
     0
 78
     1
 53
45.0
 43
62.7811309658083
 44
-72.3161373035813
 45
-0.1414213562373095
 46
0.0
 79
     0
 98
        1
 10
0.0
 20
0.0
  0
HATCH
  5
1D2
330
76
100
AcDbEntity
  8
1
  6
Continuous
 62
     2
100
AcDbHatch
 10
0.0
 20
0.0
 30
0.0
210
0.0
220
0.0
230
1.0
  2
CUSTOM20
 70
     0
 71
     1
 91
        1
 92
        1
 93
       10
 72
     1
 10
-145.5955284861045
 20
-283.1170650491252
 11
-146.7883211882709
 21
-283.1170650491252
 72
     1
 10
-146.7883211882709
 20
-283.1170650491252
 11
-146.7883211882709
 21
-286.1708745729363
 72
     1
 10
-146.7883211882709
 20
-286.1708745729363
 11
-145.5955284861045
 21
-286.1708745729363
 72
     1
 10
-145.5955284861045
 20
-286.1708745729363
 11
-145.5955284861045
 21
-284.8620990627317
 72
     1
 10
-145.5955284861045
 20
-284.8620990627317
 11
-144.3550240758504
 21
-286.1708745729363
 72
     1
 10
-144.3550240758504
 20
-286.1708745729363
 11
-143.1622313736838
 21
-286.1708745729363
 72
     1
 10
-143.1622313736838
 20
-286.1708745729363
 11
-143.1622313736838
 21
-283.1170650491252
 72
     1
 10
-143.1622313736838
 20
-283.1170650491252
 11
-144.3550240758504
 21
-283.1170650491252
 72
     1
 10
-144.3550240758504
 20
-283.1170650491252
 11
-144.3550240758504
 21
-284.4258405593304
 72
     1
 10
-144.3550240758504
 20
-284.4258405593304
 11
-145.5955284861045
 21
-283.1170650491252
 97
       10
330
122
330
EC
330
ED
330
EE
330
EF
330
125
330
EA
330
124
330
123
330
EB
 75
     1
 76
     2
 52
45.0
 41
0.1
 77
     0
 78
     1
 53
45.0
 43
62.7811309658083
 44
-72.3161373035813
 45
-0.1414213562373095
 46
0.0
 79
     0
 98
        1
 10
0.0
 20
0.0
  0
HATCH
  5
1D3
330
76
100
AcDbEntity
  8
1
  6
Continuous
 62
     2
100
AcDbHatch
 10
0.0
 20
0.0
 30
0.0
210
0.0
220
0.0
230
1.0
  2
CUSTOM21
 70
     0
 71
     1
 91
        1
 92
        1
 93
       10
 72
     1
 10
-145.5955284861045
 20
-283.1170650491252
 11
-146.7883211882709
 21
-283.1170650491252
 72
     1
 10
-146.7883211882709
 20
-283.1170650491252
 11
-146.7883211882709
 21
-286.1708745729363
 72
     1
 10
-146.7883211882709
 20
-286.1708745729363
 11
-145.5955284861045
 21
-286.1708745729363
 72
     1
 10
-145.5955284861045
 20
-286.1708745729363
 11
-145.5955284861045
 21
-284.8620990627317
 72
     1
 10
-145.5955284861045
 20
-284.8620990627317
 11
-144.3550240758504
 21
-286.1708745729363
 72
     1
 10
-144.3550240758504
 20
-286.1708745729363
 11
-143.1622313736838
 21
-286.1708745729363
 72
     1
 10
-143.1622313736838
 20
-286.1708745729363
 11
-143.1622313736838
 21
-283.1170650491252
 72
     1
 10
-143.1622313736838
 20
-283.1170650491252
 11
-144.3550240758504
 21
-283.1170650491252
 72
     1
 10
-144.3550240758504
 20
-283.1170650491252
 11
-144.3550240758504
 21
-284.4258405593304
 72
     1
 10
-144.3550240758504
 20
-284.4258405593304
 11
-145.5955284861045
 21
-283.1170650491252
 97
       10
330
122
330
EC
330
ED
330
EE
330
EF
330
125
330
EA
330
124
330
123
330
EB
 75
     1
 76
     2
 52
45.0
 41
0.1
 77
     0
 78
     1
 53
45.0
 43
62.7811309658083
 44
-72.3161373035813
 45
-0.1414213562373095
 46
0.0
 79
     0
 98
        1
 10
0.0
 20
0.0
  0
HATCH
  5
1D4
330
76
100
AcDbEntity
  8
1
  6
Continuous
 62
     2
100
AcDbHatch
 10
0.0
 20
0.0
 30
0.0
210
0.0
220
0.0
230
1.0
  2
CUSTOM22
 70
     0
 71
     1
 91
        1
 92
        1
 93
       10
 72
     1
 10
-150.8439673065231
 20
-286.4762555252995
 11
-152.0367600086906
 21
-286.4762555252995
 72
     1
 10
-152.0367600086906
 20
-286.4762555252995
 11
-152.0367600086906
 21
-289.5300650491107
 72
     1
 10
-152.0367600086906
 20
-289.5300650491107
 11
-150.8439673065231
 21
-289.5300650491107
 72
     1
 10
-150.8439673065231
 20
-289.5300650491107
 11
-150.8439673065231
 21
-288.2212895389062
 72
     1
 10
-150.8439673065231
 20
-288.2212895389062
 11
-149.6034628962701
 21
-289.5300650491107
 72
     1
 10
-149.6034628962701
 20
-289.5300650491107
 11
-148.4106701941037
 21
-289.5300650491107
 72
     1
 10
-148.4106701941037
 20
-289.5300650491107
 11
-148.4106701941037
 21
-286.4762555252995
 72
     1
 10
-148.4106701941037
 20
-286.4762555252995
 11
-149.6034628962701
 21
-286.4762555252995
 72
     1
 10
-149.6034628962701
 20
-286.4762555252995
 11
-149.6034628962701
 21
-287.7850310355047
 72
     1
 10
-149.6034628962701
 20
-287.7850310355047
 11
-150.8439673065231
 21
-286.4762555252995
 97
       10
330
F1
330
F2
330
F3
330
11F
330
F4
330
F5
330
11E
330
121
330
120
330
F0
 75
     1
 76
     2
 52
45.0
 41
0.1
 77
     0
 78
     1
 53
45.0
 43
62.7811309658083
 44
-72.3161373035813
 45
-0.1414213562373095
 46
0.0
 79
     0
 98
        1
 10
0.0
 20
0.0
  0
HATCH
  5
1D5
330
76
100
AcDbEntity
  8
1
  6
Continuous
 62
     2
100
AcDbHatch
 10
0.0
 20
0.0
 30
0.0
210
0.0
220
0.0
230
1.0
  2
CUSTOM23
 70
     0
 71
     1
 91
        1
 92
        1
 93
       10
 72
     1
 10
-150.8439673065231
 20
-286.4762555252995
 11
-152.0367600086906
 21
-286.4762555252995
 72
     1
 10
-152.0367600086906
 20
-286.4762555252995
 11
-152.0367600086906
 21
-289.5300650491107
 72
     1
 10
-152.0367600086906
 20
-289.5300650491107
 11
-150.8439673065231
 21
-289.5300650491107
 72
     1
 10
-150.8439673065231
 20
-289.5300650491107
 11
-150.8439673065231
 21
-288.2212895389062
 72
     1
 10
-150.8439673065231
 20
-288.2212895389062
 11
-149.6034628962701
 21
-289.5300650491107
 72
     1
 10
-149.6034628962701
 20
-289.5300650491107
 11
-148.4106701941037
 21
-289.5300650491107
 72
     1
 10
-148.4106701941037
 20
-289.5300650491107
 11
-148.4106701941037
 21
-286.4762555252995
 72
     1
 10
-148.4106701941037
 20
-286.4762555252995
 11
-149.6034628962701
 21
-286.4762555252995
 72
     1
 10
-149.6034628962701
 20
-286.4762555252995
 11
-149.6034628962701
 21
-287.7850310355047
 72
     1
 10
-149.6034628962701
 20
-287.7850310355047
 11
-150.8439673065231
 21
-286.4762555252995
 97
       10
330
F1
330
F2
330
F3
330
11F
330
F4
330
F5
330
11E
330
121
330
120
330
F0
 75
     1
 76
     2
 52
45.0
 41
0.1
 77
     0
 78
     1
 53
45.0
 43
62.7811309658083
 44
-72.3161373035813
 45
-0.1414213562373095
 46
0.0
 79
     0
 98
        1
 10
0.0
 20
0.0
  0
HATCH
  5
1D6
330
76
100
AcDbEntity
  8
1
  6
Continuous
 62
     2
100
AcDbHatch
 10
0.0
 20
0.0
 30
0.0
210
0.0
220
0.0
230
1.0
  2
CUSTOM24
 70
     0
 71
     1
 91
        1
 92
        1
 93
       12
 72
     1
 10
-151.8457622454584
 20
-283.1170650491252
 11
-151.8457622454584
 21
-286.1708745729363
 72
     1
 10
-151.8457622454584
 20
-286.1708745729363
 11
-153.0385549476249
 21
-286.1708745729363
 72
     1
 10
-153.0385549476249
 20
-286.1708745729363
 11
-153.0385549476249
 21
-285.0366024640927
 72
     1
 10
-153.0385549476249
 20
-285.0366024640927
 11
-154.0882125255323
 21
-285.0366024640927
 72
     1
 10
-154.0882125255323
 20
-285.0366024640927
 11
-154.0882125255323
 21
-286.1708745729363
 72
     1
 10
-154.0882125255323
 20
-286.1708745729363
 11
-155.2810052276989
 21
-286.1708745729363
 72
     1
 10
-155.2810052276989
 20
-286.1708745729363
 11
-155.2810052276989
 21
-283.1170650491252
 72
     1
 10
-155.2810052276989
 20
-283.1170650491252
 11
-154.0882125255323
 21
-283.1170650491252
 72
     1
 10
-154.0882125255323
 20
-283.1170650491252
 11
-154.0882125255323
 21
-284.1858983824599
 72
     1
 10
-154.0882125255323
 20
-284.1858983824599
 11
-153.0385549476249
 21
-284.1858983824599
 72
     1
 10
-153.0385549476249
 20
-284.1858983824599
 11
-153.0385549476249
 21
-283.1170650491252
 72
     1
 10
-153.0385549476249
 20
-283.1170650491252
 11
-151.8457622454584
 21
-283.1170650491252
 97
       12
330
119
330
118
330
117
330
FF
330
100
330
116
330
101
330
115
330
114
330
113
330
FD
330
FE
 75
     1
 76
     2
 52
45.0
 41
0.1
 77
     0
 78
     1
 53
45.0
 43
62.7811309658083
 44
-72.3161373035813
 45
-0.1414213562373095
 46
0.0
 79
     0
 98
        1
 10
0.0
 20
0.0
  0
HATCH
  5
1D7
330
76
100
AcDbEntity
  8
1
  6
Continuous
 62
     2
100
AcDbHatch
 10
0.0
 20
0.0
 30
0.0
210
0.0
220
0.0
230
1.0
  2
CUSTOM25
 70
     0
 71
     1
 91
        1
 92
        1
 93
       12
 72
     1
 10
-151.8457622454584
 20
-283.1170650491252
 11
-151.8457622454584
 21
-286.1708745729363
 72
     1
 10
-151.8457622454584
 20
-286.1708745729363
 11
-153.0385549476249
 21
-286.1708745729363
 72
     1
 10
-153.0385549476249
 20
-286.1708745729363
 11
-153.0385549476249
 21
-285.0366024640927
 72
     1
 10
-153.0385549476249
 20
-285.0366024640927
 11
-154.0882125255323
 21
-285.0366024640927
 72
     1
 10
-154.0882125255323
 20
-285.0366024640927
 11
-154.0882125255323
 21
-286.1708745729363
 72
     1
 10
-154.0882125255323
 20
-286.1708745729363
 11
-155.2810052276989
 21
-286.1708745729363
 72
     1
 10
-155.2810052276989
 20
-286.1708745729363
 11
-155.2810052276989
 21
-283.1170650491252
 72
     1
 10
-155.2810052276989
 20
-283.1170650491252
 11
-154.0882125255323
 21
-283.1170650491252
 72
     1
 10
-154.0882125255323
 20
-283.1170650491252
 11
-154.0882125255323
 21
-284.1858983824599
 72
     1
 10
-154.0882125255323
 20
-284.1858983824599
 11
-153.0385549476249
 21
-284.1858983824599
 72
     1
 10
-153.0385549476249
 20
-284.1858983824599
 11
-153.0385549476249
 21
-283.1170650491252
 72
     1
 10
-153.0385549476249
 20
-283.1170650491252
 11
-151.8457622454584
 21
-283.1170650491252
 97
       12
330
119
330
118
330
117
330
FF
330
100
330
116
330
101
330
115
330
114
330
113
330
FD
330
FE
 75
     1
 76
     2
 52
45.0
 41
0.1
 77
     0
 78
     1
 53
45.0
 43
62.7811309658083
 44
-72.3161373035813
 45
-0.1414213562373095
 46
0.0
 79
     0
 98
        1
 10
0.0
 20
0.0
  0
ENDBLK
  5
78
330
76
100
AcDbEntity
  8
0
100
AcDbBlockEnd
  0
BLOCK
  5
7A
330
79
100
AcDbEntity
  8
0
100
AcDbBlockBegin
  2
_punkt
 70
     0
 10
-39.96845843166966
 20
-296.823565049127
 30
0.0
  3
_punkt
  1

  0
LINE
  5
1D8
330
79
100
AcDbEntity
  8
1
  6
Continuous
 62
     2
100
AcDbLine
 10
-39.9684584316696
 20
-296.823565049127
 30
0.0
 11
-39.9684584316696
 21
-301.8235650491265
 31
0.0
  0
LINE
  5
1D9
330
79
100
AcDbEntity
  8
1
  6
Continuous
 62
     2
100
AcDbLine
 10
-39.9684584316696
 20
-296.823565049127
 30
0.0
 11
-34.96845843167199
 21
-296.823565049127
 31
0.0
  0
ENDBLK
  5
7B
330
79
100
AcDbEntity
  8
0
100
AcDbBlockEnd
  0
BLOCK
  5
7F
330
7C
100
AcDbEntity
  8
0
100
AcDbBlockBegin
  2
A3I_TD_PRF
 70
     0
 10
-39.9684584316696
 20
-301.8235650491265
 30
0.0
  3
A3I_TD_PRF
  1

  0
INSERT
  5
7D
330
7C
100
AcDbEntity
  8
1
100
AcDbBlockReference
  2
_rahmen
 10
-39.9684584316696
 20
-301.8235650491265
 30
0.0
  0
INSERT
  5
7E
330
7C
100
AcDbEntity
  8
1
100
AcDbBlockReference
  2
_punkt
 10
-39.96845843166966
 20
-296.823565049127
 30
0.0
  0
ENDBLK
  5
80
330
7C
100
AcDbEntity
  8
0
100
AcDbBlockEnd
  0
BLOCK
  5
82
330
81
100
AcDbEntity
  8
0
100
AcDbBlockBegin
  2
Wandausschnitt_D32_5
 70
     0
 10
-153.4209798475567
 20
-105.7151910708879
 30
0.0
  3
Wandausschnitt_D32_5
  1

  0
LINE
  5
1DA
330
81
100
AcDbEntity
  8
1
  6
DOT_CENTER
 62
     2
100
AcDbLine
 10
-109.9585296578042
 20
-74.83827260219616
 30
0.0
 11
-145.7085296578042
 21
-74.83827260219616
 31
0.0
  0
LINE
  5
1DB
330
81
100
AcDbEntity
  8
1
  6
DOT_CENTER
 62
     2
100
AcDbLine
 10
-127.8335296578042
 20
-56.96327260219616
 30
0.0
 11
-127.8335296578042
 21
-92.71327260219616
 31
0.0
  0
CIRCLE
  5
1DC
330
81
100
AcDbEntity
  8
0
  6
Continuous
 62
     7
100
AcDbCircle
 10
-127.8335296578042
 20
-74.83827260219616
 30
0.0
 40
16.25
  0
SPLINE
  5
1DD
330
81
100
AcDbEntity
  8
0
  6
Continuous
 62
     7
100
AcDbSpline
210
0.0
220
0.0
230
1.0
 70
  1067
 71
     3
 72
   187
 73
   183
 74
   181
 42
0.000000001
 43
0.0000000001
 44
0.00000001
 40
0.0
 40
0.0
 40
0.0
 40
0.0
 40
0.7017613016258212
 40
1.367422690731842
 40
2.349916025160955
 40
3.245001848112714
 40
4.107846032109078
 40
4.977837175965485
 40
5.917631804919887
 40
7.013676046426518
 40
8.292577843898567
 40
9.702416301831295
 40
11.38821671492687
 40
13.38747390400208
 40
14.60081865674462
 40
16.11289558947289
 40
16.97314000617945
 40
17.92656004523859
 40
18.44205977265841
 40
18.96926440454764
 40
19.48274910143082
 40
20.02806331828531
 40
20.5628577467402
 40
21.00983714241139
 40
21.42201636508528
 40
21.81922308648243
 40
22.57185632245868
 40
23.2766374265844
 40
23.95723577323562
 40
24.55353075370546
 40
25.05972415809811
 40
25.55116052715347
 40
27.40132955776673
 40
29.06185407402244
 40
30.57091883786535
 40
32.04127376611045
 40
33.46849653021862
 40
34.79751326084027
 40
37.25465175272697
 40
39.49455166089865
 40
40.52802204338452
 40
41.58665455659316
 40
42.77875708119041
 40
44.10792248117048
 40
45.54593983152313
 40
47.1174357502759
 40
48.82054529484692
 40
50.6810904281153
 40
51.18024816743564
 40
51.68913491267953
 40
52.21998848771649
 40
52.70925703725391
 40
53.2315850697822
 40
53.79513692139356
 40
54.303326360624
 40
54.78788198619631
 40
56.5469176903465
 40
58.11159969296612
 40
59.49017281765288
 40
60.68152868233596
 40
61.66470928150099
 40
62.45711623496128
 40
62.79334097977053
 40
63.09849928828317
 40
63.38274535111479
 40
63.70055127024521
 40
64.57075350912643
 40
65.689567565866
 40
66.99316018432366
 40
68.44973936874389
 40
69.2452556657334
 40
70.19886781670178
 40
71.33718315240532
 40
72.62339869820183
 40
73.41662995654548
 40
74.35812374421704
 40
75.39717283803452
 40
76.47715204253765
 40
77.53095810724362
 40
78.53985336507054
 40
79.44733552430272
 40
80.21313948063842
 40
81.53411516322089
 40
82.74825582795629
 40
83.79418057504456
 40
84.68141882556925
 40
86.36670528415186
 40
88.00827119112566
 40
89.60737134648764
 40
91.14213205217548
 40
94.04765703579992
 40
96.70272969723396
 40
97.93599042562518
 40
99.10128110135817
 40
100.1675111519613
 40
101.1787198478163
 40
103.1045675377517
 40
105.2083771535822
 40
106.4659357586864
 40
107.8505190458326
 40
109.311442422813
 40
110.8352782747265
 40
111.2259440759665
 40
111.6214300117505
 40
112.0003473985447
 40
112.4574375806915
 40
113.6001444178152
 40
114.8394449923614
 40
115.512394408802
 40
116.2313075139655
 40
116.6107872508276
 40
117.004577799532
 40
117.4449831779515
 40
117.9504882657878
 40
118.4762935546741
 40
119.063253618968
 40
119.6648095143116
 40
120.2237321545933
 40
121.2844784065279
 40
122.2339494694659
 40
122.6805469618633
 40
123.1090470900753
 40
123.533063566833
 40
123.9015123011659
 40
124.5014075022241
 40
125.0714098732944
 40
126.1426897307957
 40
127.1496605983433
 40
128.0324550661055
 40
128.7944856506329
 40
129.5295620354237
 40
130.2510459395974
 40
131.6510528031546
 40
132.9744086538962
 40
134.1592348117656
 40
135.1967847495392
 40
136.1430848324268
 40
137.1521933086094
 40
138.3004273920698
 40
139.5473320271289
 40
141.4614380096317
 40
143.66319018949
 40
146.0836027824469
 40
147.9142538172031
 40
149.6010103765646
 40
151.1599179540369
 40
152.638928584039
 40
154.0275712486605
 40
155.3176663501156
 40
156.5134435495404
 40
157.609362108243
 40
158.5970598512162
 40
159.583301731271
 40
160.6812362629512
 40
161.8946208580855
 40
163.223331801313
 40
164.6698183881595
 40
166.2342146494881
 40
167.9138574476509
 40
169.7118322046855
 40
171.5893225218982
 40
173.5146737691694
 40
175.5301516686042
 40
176.5851800386196
 40
177.6681467417147
 40
178.7660645486726
 40
179.9296899274756
 40
181.0746979832678
 40
182.1404125332098
 40
183.2099346540471
 40
184.2222692672665
 40
186.1595518887086
 40
188.07994311782
 40
189.9153838608721
 40
191.7582390165598
 40
194.1701272512943
 40
196.3925536468434
 40
198.4273379971623
 40
199.8261156036992
 40
201.1202197216188
 40
201.5873501110582
 40
202.0397853261866
 40
202.0397853261866
 40
202.0397853261866
 40
202.0397853261866
 10
-129.3329338088597
 20
-103.1555455435543
 30
0.0
 10
-129.5564876170525
 20
-103.0866285050727
 30
0.0
 10
-129.9920952060978
 20
-102.952339643574
 30
0.0
 10
-130.7480630797237
 20
-102.7467539914644
 30
0.0
 10
-131.5756506094959
 20
-102.5600297706461
 30
0.0
 10
-132.480570298785
 20
-102.4281648077539
 30
0.0
 10
-133.356359108583
 20
-102.377249293339
 30
0.0
 10
-134.2481117658888
 20
-102.418266483934
 30
0.0
 10
-135.2066353611649
 20
-102.5659059194099
 30
0.0
 10
-136.2867130877828
 20
-102.7998543333112
 30
0.0
 10
-137.5124510521966
 20
-103.098605140002
 30
0.0
 10
-138.9306633968311
 20
-103.4376429306869
 30
0.0
 10
-140.5944057900797
 20
-103.7820514644302
 30
0.0
 10
-142.2236262711442
 20
-103.9537872539313
 30
0.0
 10
-143.8011871983023
 20
-103.9197230913506
 30
0.0
 10
-144.985622140834
 20
-103.7157421134351
 30
0.0
 10
-146.0437750057063
 20
-103.3791536515145
 30
0.0
 10
-146.7513235817233
 20
-103.05375614588
 30
0.0
 10
-147.3270005776631
 20
-102.719225327908
 30
0.0
 10
-147.7556003444096
 20
-102.4262795986105
 30
0.0
 10
-148.1722232012963
 20
-102.1000345530255
 30
0.0
 10
-148.5617050713945
 20
-101.7380609597145
 30
0.0
 10
-148.9122932035742
 20
-101.3684395274766
 30
0.0
 10
-149.2068173553928
 20
-101.0086739064819
 30
0.0
 10
-149.4555495181328
 20
-100.6715480280958
 30
0.0
 10
-149.7428320807484
 20
-100.23707440566
 30
0.0
 10
-150.0484699220846
 20
-99.69875687255295
 30
0.0
 10
-150.3497559781561
 20
-99.0521527369356
 30
0.0
 10
-150.584824834643
 20
-98.43437132370687
 30
0.0
 10
-150.7676321965617
 20
-97.86857992143304
 30
0.0
 10
-150.9064067368627
 20
-97.35554579831067
 30
0.0
 10
-151.1208513246942
 20
-96.43069208647532
 30
0.0
 10
-151.3256894387932
 20
-95.10957657510826
 30
0.0
 10
-151.4444090319367
 20
-93.43981684862632
 30
0.0
 10
-151.4943997392255
 20
-91.8937424292206
 30
0.0
 10
-151.5007374945595
 20
-90.42475804564347
 30
0.0
 10
-151.4862159755696
 20
-89.01594955307438
 30
0.0
 10
-151.452289643638
 20
-87.27846059655235
 30
0.0
 10
-151.4227536077652
 20
-85.27012052896237
 30
0.0
 10
-151.494566614295
 20
-83.3586310332422
 30
0.0
 10
-151.6728052326836
 20
-81.92470009415823
 30
0.0
 10
-151.8763344310665
 20
-80.84848293143659
 30
0.0
 10
-152.1480856745816
 20
-79.68640812890908
 30
0.0
 10
-152.4630283135379
 20
-78.40482192786598
 30
0.0
 10
-152.7998740278838
 20
-76.998242938883
 30
0.0
 10
-153.1098480915788
 20
-75.45779056477134
 30
0.0
 10
-153.3581807730685
 20
-73.76276570895092
 30
0.0
 10
-153.4239904632349
 20
-72.40687788336288
 30
0.0
 10
-153.4013683276998
 20
-71.45087124240814
 30
0.0
 10
-153.3721561519168
 20
-70.93859460613771
 30
0.0
 10
-153.3223280210038
 20
-70.43127355888845
 30
0.0
 10
-153.2570423496679
 20
-69.92113825285693
 30
0.0
 10
-153.1643674105401
 20
-69.40418653852832
 30
0.0
 10
-153.056273205954
 20
-68.88381890773194
 30
0.0
 10
-152.9275181635845
 20
-68.38113122445206
 30
0.0
 10
-152.6729581503413
 20
-67.49981874183415
 30
0.0
 10
-152.2373255169723
 20
-66.30502513661402
 30
0.0
 10
-151.5917359300126
 20
-64.8762520792113
 30
0.0
 10
-150.9955672472815
 20
-63.63375490033243
 30
0.0
 10
-150.4919282520856
 20
-62.5615694826612
 30
0.0
 10
-150.1199965457498
 20
-61.64446409501618
 30
0.0
 10
-149.9121263489355
 20
-60.97034101969948
 30
0.0
 10
-149.8161374387026
 20
-60.50176807861284
 30
0.0
 10
-149.7761918446431
 20
-60.19557108165724
 30
0.0
 10
-149.7584823429574
 20
-59.8933539784979
 30
0.0
 10
-149.7737666624077
 20
-59.40234677623145
 30
0.0
 10
-149.8696681905727
 20
-58.63819717208717
 30
0.0
 10
-150.0702286865411
 20
-57.5589618528336
 30
0.0
 10
-150.3526409587678
 20
-56.29706813701043
 30
0.0
 10
-150.5943177989882
 20
-55.13666667453909
 30
0.0
 10
-150.7817005832136
 20
-54.08439612093753
 30
0.0
 10
-150.8996619576715
 20
-53.12869956409013
 30
0.0
 10
-150.9689367161936
 20
-52.00346369456346
 30
0.0
 10
-150.9072382899177
 20
-50.9288273757493
 30
0.0
 10
-150.7335034695008
 20
-49.93583423234517
 30
0.0
 10
-150.4815378063687
 20
-49.04363593800197
 30
0.0
 10
-150.0677338152666
 20
-48.10745540650249
 30
0.0
 10
-149.5092172081677
 20
-47.20458917546865
 30
0.0
 10
-148.821101110703
 20
-46.4092816477398
 30
0.0
 10
-148.0740792971962
 20
-45.75527526716317
 30
0.0
 10
-147.3317213208432
 20
-45.25322096400836
 30
0.0
 10
-146.4499802706919
 20
-44.7832132362484
 30
0.0
 10
-145.4235402305255
 20
-44.37588786576158
 30
0.0
 10
-144.2647724468933
 20
-44.08109963114627
 30
0.0
 10
-143.2300228344136
 20
-43.90244766902168
 30
0.0
 10
-142.0290328473384
 20
-43.7847059323894
 30
0.0
 10
-140.6237858688297
 20
-43.7341963090581
 30
0.0
 10
-138.9818870983212
 20
-43.79119041052351
 30
0.0
 10
-137.3948255567556
 20
-43.9189720230639
 30
0.0
 10
-135.3950130817892
 20
-44.15311895792517
 30
0.0
 10
-133.0581270324444
 20
-44.52215295067883
 30
0.0
 10
-130.8308275056827
 20
-44.93133562118014
 30
0.0
 10
-129.1698168807289
 20
-45.21236837059435
 30
0.0
 10
-128.0263355675052
 20
-45.37605726835096
 30
0.0
 10
-126.9500997139963
 20
-45.48207010827794
 30
0.0
 10
-125.6161500098732
 20
-45.53575444555202
 30
0.0
 10
-123.9321947840437
 20
-45.42882790678472
 30
0.0
 10
-122.2078279536197
 20
-45.04290637115803
 30
0.0
 10
-120.6847333210394
 20
-44.61668450339997
 30
0.0
 10
-119.3711679652591
 20
-44.23537871704977
 30
0.0
 10
-117.9703293886299
 20
-43.83677641022697
 30
0.0
 10
-116.8785780942101
 20
-43.56292440345509
 30
0.0
 10
-116.1257949512825
 20
-43.4008589242723
 30
0.0
 10
-115.7447097958316
 20
-43.32600573093625
 30
0.0
 10
-115.3408569304459
 20
-43.25222338542653
 30
0.0
 10
-114.6887156354226
 20
-43.15323326728927
 30
0.0
 10
-113.7472556046274
 20
-43.04820774457891
 30
0.0
 10
-112.7265177430398
 20
-43.03890571011082
 30
0.0
 10
-111.8518060674086
 20
-43.11055186421915
 30
0.0
 10
-111.2681544721953
 20
-43.20494639675469
 30
0.0
 10
-110.7831971373639
 20
-43.31613938199563
 30
0.0
 10
-110.3935449534054
 20
-43.42557522931877
 30
0.0
 10
-109.9704797548759
 20
-43.56937216656569
 30
0.0
 10
-109.5167705797693
 20
-43.75675252407655
 30
0.0
 10
-109.0317215541996
 20
-43.99406585416927
 30
0.0
 10
-108.5429457181593
 20
-44.29136324746091
 30
0.0
 10
-108.0675750570341
 20
-44.6292675187416
 30
0.0
 10
-107.5070811821388
 20
-45.11414277618715
 30
0.0
 10
-106.9187491408213
 20
-45.74097291736466
 30
0.0
 10
-106.4501771536103
 20
-46.41557489040407
 30
0.0
 10
-106.1466750567695
 20
-46.9428357088595
 30
0.0
 10
-105.9509598487126
 20
-47.32939170133631
 30
0.0
 10
-105.7870274103188
 20
-47.70206652645587
 30
0.0
 10
-105.6162486798603
 20
-48.13372846139454
 30
0.0
 10
-105.4542765778109
 20
-48.6206802871668
 30
0.0
 10
-105.2587162831601
 20
-49.34195591880604
 30
0.0
 10
-105.0871455457572
 20
-50.20912247174324
 30
0.0
 10
-104.9692625260814
 20
-51.18960262849767
 30
0.0
 10
-104.9022197188947
 20
-52.07122037098922
 30
0.0
 10
-104.872507957414
 20
-52.864071794871
 30
0.0
 10
-104.8580519114322
 20
-53.60348331958262
 30
0.0
 10
-104.8547879039644
 20
-54.55569821336671
 30
0.0
 10
-104.8648605085998
 20
-55.70393846644983
 30
0.0
 10
-104.873160853873
 20
-57.00666926045021
 30
0.0
 10
-104.8534762347192
 20
-58.18859099436068
 30
0.0
 10
-104.7912588419433
 20
-59.24352490226532
 30
0.0
 10
-104.6615771596226
 20
-60.23385929300778
 30
0.0
 10
-104.4385523998961
 20
-61.24509124038788
 30
0.0
 10
-104.1316401581994
 20
-62.33788783154226
 30
0.0
 10
-103.6960643935636
 20
-63.70674772328541
 30
0.0
 10
-103.1400251125708
 20
-65.4057712020886
 30
0.0
 10
-102.5950198345254
 20
-67.51825100472388
 30
0.0
 10
-102.3146405488218
 20
-69.65943112463447
 30
0.0
 10
-102.3306600020894
 20
-71.64237662655859
 30
0.0
 10
-102.4882362941438
 20
-73.3284317269638
 30
0.0
 10
-102.7279387700404
 20
-74.88560244050738
 30
0.0
 10
-103.008050525955
 20
-76.33445189736211
 30
0.0
 10
-103.2928580094991
 20
-77.69078299268999
 30
0.0
 10
-103.5579862315842
 20
-78.95479955870258
 30
0.0
 10
-103.7790951831041
 20
-80.128229403862
 30
0.0
 10
-103.9429072549836
 20
-81.20937069792501
 30
0.0
 10
-104.037857645813
 20
-82.22912352340651
 30
0.0
 10
-104.0514152355153
 20
-83.25392390053588
 30
0.0
 10
-103.999376165889
 20
-84.35224554287714
 30
0.0
 10
-103.9021836416178
 20
-85.56177328689995
 30
0.0
 10
-103.7774276994512
 20
-86.88542775161528
 30
0.0
 10
-103.6599692683887
 20
-88.32728276559246
 30
0.0
 10
-103.5852712759853
 20
-89.8895305469068
 30
0.0
 10
-103.6046409098263
 20
-91.57153055057977
 30
0.0
 10
-103.7747181348292
 20
-93.3510577465496
 30
0.0
 10
-104.1389387114892
 20
-95.18579400970535
 30
0.0
 10
-104.7304422334243
 20
-97.03763023683976
 30
0.0
 10
-105.4406572534804
 20
-98.55014798678053
 30
0.0
 10
-106.1593606546346
 20
-99.73488671095434
 30
0.0
 10
-106.7930872140561
 20
-100.6092189206547
 30
0.0
 10
-107.5203798926348
 20
-101.4562434153151
 30
0.0
 10
-108.3448710104044
 20
-102.2396293568089
 30
0.0
 10
-109.2264388999503
 20
-102.9407819735592
 30
0.0
 10
-110.1446853181347
 20
-103.536972444061
 30
0.0
 10
-111.0673010255925
 20
-104.0385489360728
 30
0.0
 10
-112.2881062890445
 20
-104.5928627218345
 30
0.0
 10
-113.8329048657792
 20
-105.1070375327878
 30
0.0
 10
-115.6934958900808
 20
-105.4979924051022
 30
0.0
 10
-117.5535957191154
 20
-105.6872768003111
 30
0.0
 10
-119.5869551730033
 20
-105.6806422801758
 30
0.0
 10
-121.7374573155555
 20
-105.4328232535517
 30
0.0
 10
-123.9074382373217
 20
-104.9356461164318
 30
0.0
 10
-125.7096141240835
 20
-104.3791758262858
 30
0.0
 10
-127.2015718507697
 20
-103.8717981094461
 30
0.0
 10
-128.196975933233
 20
-103.5272348946606
 30
0.0
 10
-128.8971464307598
 20
-103.2942800904383
 30
0.0
 10
-129.1892272215131
 20
-103.2012950761423
 30
0.0
 10
-129.3329338088597
 20
-103.1555455435543
 30
0.0
 11
-129.3329338088597
 21
-103.1555455435543
 31
0.0
 11
-130.0047257029955
 21
-102.9526549628064
 31
0.0
 11
-130.6471348246986
 21
-102.7782542653646
 31
0.0
 11
-131.6065639009594
 21
-102.5666201530436
 31
0.0
 11
-132.4926075175532
 21
-102.439713342936
 31
0.0
 11
-133.3541483524177
 21
-102.3923058060705
 31
0.0
 11
-134.2232323120513
 21
-102.4320255802085
 31
0.0
 11
-135.1533498835892
 21
-102.5665441543184
 31
0.0
 11
-136.2261283893993
 21
-102.7911755325019
 31
0.0
 11
-137.4702512828259
 21
-103.087398477678
 31
0.0
 11
-138.8427088196348
 21
-103.4098962097939
 31
0.0
 11
-140.4967132531826
 21
-103.7357679136573
 31
0.0
 11
-142.4866346055311
 21
-103.9287506115376
 31
0.0
 11
-143.6995110308743
 21
-103.8950420518796
 31
0.0
 11
-145.1892245952159
 21
-103.6359471869525
 31
0.0
 11
-146.0082567232531
 21
-103.3728752754324
 31
0.0
 11
-146.8748361808019
 21
-102.975320479306
 31
0.0
 11
-147.3203166056059
 21
-102.7159227913777
 31
0.0
 11
-147.7559794050811
 21
-102.419034513562
 31
0.0
 11
-148.1593092392953
 21
-102.1012427905171
 31
0.0
 11
-148.5601945769725
 21
-101.7315692295129
 31
0.0
 11
-148.9271248668209
 21
-101.342509794882
 31
0.0
 11
-149.2110751874236
 21
-100.9973101482865
 31
0.0
 11
-149.4555624961787
 21
-100.6654703257231
 31
0.0
 11
-149.6748395187498
 21
-100.3342743606824
 31
0.0
 11
-150.0470746577411
 21
-99.68013539183251
 31
0.0
 11
-150.3451692385424
 21
-99.04149932418619
 31
0.0
 11
-150.588985079484
 21
-98.4060719511521
 31
0.0
 11
-150.771884172489
 21
-97.83851963948862
 31
0.0
 11
-150.9046703992915
 21
-97.35005307838041
 31
0.0
 11
-151.0160485585289
 21
-96.87140434378561
 31
0.0
 11
-151.3085508031122
 21
-95.04450317312796
 31
0.0
 11
-151.4367894189355
 21
-93.38893785215201
 31
0.0
 11
-151.4876811505002
 21
-91.88073146826139
 31
0.0
 11
-151.4971629569802
 21
-90.41040711203738
 31
0.0
 11
-151.4836083902796
 21
-88.9832487138653
 31
0.0
 11
-151.4603802536088
 21
-87.65443498548181
 31
0.0
 11
-151.4440971675692
 21
-85.19735044665373
 31
0.0
 11
-151.55354075382
 21
-82.96012589366057
 31
0.0
 11
-151.6824028135268
 21
-81.93472080245519
 31
0.0
 11
-151.8750032013913
 21
-80.8937559189828
 31
0.0
 11
-152.1397300835694
 21
-79.73141857251079
 31
0.0
 11
-152.4531518469621
 21
-78.43973461010506
 31
0.0
 11
-152.7813600343937
 21
-77.03967272375223
 31
0.0
 11
-153.0880566749825
 21
-75.49839513898459
 31
0.0
 11
-153.3243900798118
 21
-73.81176280128435
 31
0.0
 11
-153.4107113307458
 21
-71.95322121320793
 31
0.0
 11
-153.3987023621865
 21
-71.45420795346038
 31
0.0
 11
-153.3691843279917
 21
-70.94617802801241
 31
0.0
 11
-153.3182828930704
 21
-70.41777045609064
 31
0.0
 11
-153.2545347705605
 21
-69.93267264074306
 31
0.0
 11
-153.1645379968483
 21
-69.41815621311093
 31
0.0
 11
-153.0480973772628
 21
-68.86676499846575
 31
0.0
 11
-152.9230198114762
 21
-68.37420829238636
 31
0.0
 11
-152.7885668016612
 21
-67.90868005216122
 31
0.0
 11
-152.1937731317498
 21
-66.25325651147972
 31
0.0
 11
-151.5604473879495
 21
-64.82247760757593
 31
0.0
 11
-150.970379630219
 21
-63.57657074845196
 31
0.0
 11
-150.4731163920085
 21
-62.49395444136319
 31
0.0
 11
-150.110740392377
 21
-61.57999179139905
 31
0.0
 11
-149.8847395873759
 21
-60.82049694872265
 31
0.0
 11
-149.8182511832937
 21
-60.49091179865393
 31
0.0
 11
-149.7790234141087
 21
-60.18828533685826
 31
0.0
 11
-149.7631503863582
 21
-59.90448281533196
 31
0.0
 11
-149.770683713201
 21
-59.58676619439414
 31
0.0
 11
-149.8666954603132
 21
-58.72187679049993
 31
0.0
 11
-150.0651191240557
 21
-57.62079870824009
 31
0.0
 11
-150.3385249068296
 21
-56.3461995583654
 31
0.0
 11
-150.630284730258
 21
-54.91913994996298
 31
0.0
 11
-150.7660917635708
 21
-54.13530155559903
 31
0.0
 11
-150.8832714841172
 21
-53.18891630235275
 31
0.0
 11
-150.9446966786053
 21
-52.05225947244917
 31
0.0
 11
-150.8672867089101
 21
-50.76837547191589
 31
0.0
 11
-150.7299412712579
 21
-49.98712515353488
 31
0.0
 11
-150.4705420855835
 21
-49.08207122436222
 31
0.0
 11
-150.0524685411757
 21
-48.13084174054833
 31
0.0
 11
-149.4811451816755
 21
-47.21435677005587
 31
0.0
 11
-148.7937441456935
 21
-46.41561586220872
 31
0.0
 11
-148.0351528152061
 21
-45.7504776549746
 31
0.0
 11
-147.2837957954102
 21
-45.24157049422034
 31
0.0
 11
-146.6088344486575
 21
-44.87979310405157
 31
0.0
 11
-145.3816269102484
 21
-44.39097983501236
 31
0.0
 11
-144.2069557077846
 21
-44.08392101301605
 31
0.0
 11
-143.1760774465545
 21
-43.90714831343418
 31
0.0
 11
-142.2934346237839
 21
-43.81696316629561
 31
0.0
 11
-140.6093328903663
 21
-43.75378247665768
 31
0.0
 11
-138.9685448228828
 21
-43.80431113247721
 31
0.0
 11
-137.3744309703223
 21
-43.93049485737929
 31
0.0
 11
-135.8498533421624
 21
-44.106998341387
 31
0.0
 11
-132.9779381329887
 21
-44.54765519573453
 31
0.0
 11
-130.363183062143
 21
-45.00859636141006
 31
0.0
 11
-129.1466189079006
 21
-45.21084295117443
 31
0.0
 11
-127.9925094873497
 21
-45.37188271206035
 31
0.0
 11
-126.9311152956068
 21
-45.47331688158044
 31
0.0
 11
-125.9206253103389
 21
-45.51143533417171
 31
0.0
 11
-123.9989360708704
 21
-45.38494504846348
 31
0.0
 11
-121.9386978424816
 21
-44.95899511874491
 31
0.0
 11
-120.7259671351945
 21
-44.62622210737457
 31
0.0
 11
-119.3952951857509
 21
-44.24362173849228
 31
0.0
 11
-117.9884724048305
 21
-43.84973498220628
 31
0.0
 11
-116.5091039120457
 21
-43.48429748214592
 31
0.0
 11
-116.1271307603986
 21
-43.40234457066211
 31
0.0
 11
-115.7391196498827
 21
-43.32581677478775
 31
0.0
 11
-115.366210920087
 21
-43.25860468303524
 31
0.0
 11
-114.9144152572999
 21
-43.18923528248598
 31
0.0
 11
-113.7779053150129
 21
-43.0703905649284
 31
0.0
 11
-112.5386366517912
 21
-43.06149704620494
 31
0.0
 11
-111.8680449485072
 21
-43.11777923388458
 31
0.0
 11
-111.1584288931432
 21
-43.2330229184534
 31
0.0
 11
-110.7885831994686
 21
-43.31798781463866
 31
0.0
 11
-110.4094886066427
 21
-43.42456307426809
 31
0.0
 11
-109.9925765001325
 21
-43.56648274456914
 31
0.0
 11
-109.5251480557581
 21
-43.75895623172899
 31
0.0
 11
-109.0536839697499
 21
-43.99174973994705
 31
0.0
 11
-108.5508972452278
 21
-44.29461543092346
 31
0.0
 11
-108.0621211239644
 21
-44.64528250744223
 31
0.0
 11
-107.6382100173274
 21
-45.00955423503999
 31
0.0
 11
-106.9146915952403
 21
-45.78524986091806
 31
0.0
 11
-106.3700115081206
 21
-46.5629508973819
 31
0.0
 11
-106.1472404918722
 21
-46.95001987643613
 31
0.0
 11
-105.9538140135371
 21
-47.33237907583452
 31
0.0
 11
-105.7822007505583
 21
-47.72011463074011
 31
0.0
 11
-105.6470708900077
 21
-48.06288917854475
 31
0.0
 11
-105.4566759962387
 21
-48.63176881140726
 31
0.0
 11
-105.3069050435665
 21
-49.18174277875873
 31
0.0
 11
-105.0967708106881
 21
-50.23221131101506
 31
0.0
 11
-104.9721148521147
 21
-51.23143662098009
 31
0.0
 11
-104.9052301188028
 21
-52.11169368840592
 31
0.0
 11
-104.8744865116017
 21
-52.87310385537552
 31
0.0
 11
-104.8599566409742
 21
-53.6080366239536
 31
0.0
 11
-104.8565610036846
 21
-54.32951253735801
 31
0.0
 11
-104.8645087739818
 21
-55.72949684117367
 31
0.0
 11
-104.8680958738099
 21
-57.05284783028677
 31
0.0
 11
-104.8437624541736
 21
-58.23742408745462
 31
0.0
 11
-104.7766100158304
 21
-59.2727986203611
 31
0.0
 11
-104.6512331504677
 21
-60.21075623587801
 31
0.0
 11
-104.4399135189714
 21
-61.19749020715091
 31
0.0
 11
-104.1345227518143
 21
-62.30436779288321
 31
0.0
 11
-103.7622229758063
 21
-63.49439470257282
 31
0.0
 11
-103.1879233170599
 21
-65.32031409137615
 31
0.0
 11
-102.6551316185194
 21
-67.4566300014647
 31
0.0
 11
-102.3526123942057
 21
-69.85806274864117
 31
0.0
 11
-102.3580531655267
 21
-71.68870569828591
 31
0.0
 11
-102.5094675270364
 21
-73.36865253722942
 31
0.0
 11
-102.7420281644528
 21
-74.91011560361123
 31
0.0
 11
-103.0177513422588
 21
-76.36319824849946
 31
0.0
 11
-103.2995569691697
 21
-77.72294603343818
 31
0.0
 11
-103.5599562610933
 21
-78.9864877144137
 31
0.0
 11
-103.7779099082137
 21
-80.16223399587547
 31
0.0
 11
-103.9373484100486
 21
-81.24649266033057
 31
0.0
 11
-104.0247979027726
 21
-82.23031145345836
 31
0.0
 11
-104.0414976085938
 21
-83.21641193811371
 31
0.0
 11
-103.9955028321245
 21
-84.31338263803224
 31
0.0
 11
-103.9026119725344
 21
-85.52320637067649
 31
0.0
 11
-103.7837907582851
 21
-86.84659380069867
 31
0.0
 11
-103.6709030707387
 21
-88.28866863102957
 31
0.0
 11
-103.6020189842646
 21
-89.85154759164875
 31
0.0
 11
-103.6268347899756
 21
-91.53100705997876
 31
0.0
 11
-103.8014550630578
 21
-93.32048211926177
 31
0.0
 11
-104.1697819608354
 21
-95.16148868857553
 31
0.0
 11
-104.7593750571946
 21
-96.99434367648811
 31
0.0
 11
-105.6180430948651
 21
-98.81775815618204
 31
0.0
 11
-106.1663990117711
 21
-99.71908531657019
 31
0.0
 11
-106.8017841630457
 21
-100.5960702592284
 31
0.0
 11
-107.5191885010152
 21
-101.4271866931652
 31
0.0
 11
-108.3606523698311
 21
-102.2309046658932
 31
0.0
 11
-109.2582306707708
 21
-102.9418172072626
 31
0.0
 11
-110.1506340188832
 21
-103.5243665752673
 31
0.0
 11
-111.0899034038147
 21
-104.0358845020128
 31
0.0
 11
-112.0118313278962
 21
-104.4540594316713
 31
0.0
 11
-113.8476100912391
 21
-105.0729134425659
 31
0.0
 11
-115.7265851202211
 21
-105.4695938082923
 31
0.0
 11
-117.5526309932509
 21
-105.6550639946452
 31
0.0
 11
-119.3954828788871
 21
-105.6515924569592
 31
0.0
 11
-121.7920334752169
 21
-105.3800227698762
 31
0.0
 11
-123.9606651431517
 21
-104.894002428037
 31
0.0
 11
-125.908586496978
 21
-104.3058274937068
 31
0.0
 11
-127.2341832371168
 21
-103.8593164899147
 31
0.0
 11
-128.4587030861656
 21
-103.440679884097
 31
0.0
 11
-128.9021112283522
 21
-103.2937104329068
 31
0.0
 11
-129.3329338088597
 21
-103.1555455435543
 31
0.0
  0
ENDBLK
  5
83
330
81
100
AcDbEntity
  8
0
100
AcDbBlockEnd
  0
BLOCK
  5
86
330
84
100
AcDbEntity
  8
0
100
AcDbBlockBegin
  2
VS-PPC-F1-RJ45-MNNA-1C-F-Wandausschnitt
 70
     0
 10
-153.4209798475567
 20
-105.7151910708879
 30
0.0
  3
VS-PPC-F1-RJ45-MNNA-1C-F-Wandausschnitt
  1

  0
INSERT
  5
85
330
84
100
AcDbEntity
  8
0
100
AcDbBlockReference
  2
Wandausschnitt_D32_5
 10
-153.4209798475567
 20
-105.7151910708879
 30
0.0
  0
ENDBLK
  5
87
330
84
100
AcDbEntity
  8
0
100
AcDbBlockEnd
  0
BLOCK
  5
8A
330
88
100
AcDbEntity
  8
0
100
AcDbBlockBegin
  2
Vordans1
 70
     0
 10
-127.8541098480855
 20
-74.36249458982451
 30
0.0
  3
Vordans1
  1

  0
INSERT
  5
89
330
88
100
AcDbEntity
  8
0
100
AcDbBlockReference
  2
VS-PPC-F1-RJ45-MNNA-1C-F-Wandausschnitt
 10
-153.4209798475567
 20
-105.7151910708879
 30
0.0
  0
LINE
  5
1DE
330
88
100
AcDbEntity
  8
1
  6
DASHED
 62
     2
100
AcDbLine
 10
-138.6260738471958
 20
-54.89107260816032
 30
0.0
 11
-145.4046800965504
 21
-60.57899861188983
 31
0.0
  0
LINE
  5
1DF
330
88
100
AcDbEntity
  8
1
  6
DASHED
 62
     2
100
AcDbLine
 10
-119.9335297120021
 20
-53.83827260219572
 30
0.0
 11
-135.7335296036063
 21
-53.83827260219572
 31
0.0
  0
LINE
  5
1E0
330
88
100
AcDbEntity
  8
1
  6
DASHED
 62
     2
100
AcDbLine
 10
-110.2623792190581
 20
-60.57899861188979
 30
0.0
 11
-117.0409854684127
 21
-54.89107260816031
 31
0.0
  0
LINE
  5
1E1
330
88
100
AcDbEntity
  8
1
  6
DASHED
 62
     2
100
AcDbLine
 10
-108.8335296578042
 20
-86.03336882002574
 30
0.0
 11
-108.8335296578042
 21
-63.6431763843657
 31
0.0
  0
LINE
  5
1E2
330
88
100
AcDbEntity
  8
1
  6
DASHED
 62
     2
100
AcDbLine
 10
-117.0409854684128
 20
-94.78547259623114
 30
0.0
 11
-110.2623792190581
 21
-89.09754659250166
 31
0.0
  0
LINE
  5
1E3
330
88
100
AcDbEntity
  8
1
  6
DASHED
 62
     2
100
AcDbLine
 10
-135.7335296036063
 20
-95.83827260219573
 30
0.0
 11
-119.9335297120022
 21
-95.83827260219573
 31
0.0
  0
LINE
  5
1E4
330
88
100
AcDbEntity
  8
1
  6
DASHED
 62
     2
100
AcDbLine
 10
-145.4046800965504
 20
-89.09754659250162
 30
0.0
 11
-138.6260738471958
 21
-94.78547259623113
 31
0.0
  0
LINE
  5
1E5
330
88
100
AcDbEntity
  8
1
  6
DASHED
 62
     2
100
AcDbLine
 10
-146.8335296578042
 20
-63.64317638436574
 30
0.0
 11
-146.8335296578042
 21
-86.03336882002571
 31
0.0
  0
ARC
  5
1E6
330
88
100
AcDbEntity
  8
1
  6
DASHED
 62
     2
100
AcDbCircle
 10
-135.7335296036063
 20
-58.33827260219572
 30
0.0
 40
4.5
100
AcDbArc
 50
90.0
 51
130.0000000000007
  0
ARC
  5
1E7
330
88
100
AcDbEntity
  8
1
  6
DASHED
 62
     2
100
AcDbCircle
 10
-119.9335297120021
 20
-58.33827260219572
 30
0.0
 40
4.499999999999993
100
AcDbArc
 50
50.00000000000039
 51
90.0
  0
ARC
  5
1E8
330
88
100
AcDbEntity
  8
1
  6
DASHED
 62
     2
100
AcDbCircle
 10
-119.9335297120022
 20
-91.33827260219573
 30
0.0
 40
4.5
100
AcDbArc
 50
270.0
 51
309.9999999999996
  0
ARC
  5
1E9
330
88
100
AcDbEntity
  8
1
  6
DASHED
 62
     2
100
AcDbCircle
 10
-135.7335296036063
 20
-91.33827260219573
 30
0.0
 40
4.500000000000046
100
AcDbArc
 50
229.9999999999993
 51
270.0
  0
ARC
  5
1EA
330
88
100
AcDbEntity
  8
1
  6
DASHED
 62
     2
100
AcDbCircle
 10
-142.8335296578042
 20
-63.64317638436574
 30
0.0
 40
4.000000000000025
100
AcDbArc
 50
130.0000000000005
 51
180.0
  0
ARC
  5
1EB
330
88
100
AcDbEntity
  8
1
  6
DASHED
 62
     2
100
AcDbCircle
 10
-142.8335296578042
 20
-86.0333688200257
 30
0.0
 40
4.0
100
AcDbArc
 50
180.0000000000002
 51
229.9999999999995
  0
ARC
  5
1EC
330
88
100
AcDbEntity
  8
1
  6
DASHED
 62
     2
100
AcDbCircle
 10
-112.8335296578042
 20
-86.03336882002574
 30
0.0
 40
3.999999999999967
100
AcDbArc
 50
309.9999999999993
 51
0.0
  0
ARC
  5
1ED
330
88
100
AcDbEntity
  8
1
  6
DASHED
 62
     2
100
AcDbCircle
 10
-112.8335296578042
 20
-63.6431763843657
 30
0.0
 40
4.0
100
AcDbArc
 50
0.0
 51
50.00000000000064
  0
MTEXT
  5
1EE
330
88
100
AcDbEntity
  8
1
 62
     6
100
AcDbMText
 10
-127.8541098480855
 20
-108.1665798444937
 30
0.0
 40
2.5
 41
0.0
 71
     2
 72
     1
  1
 
  7
CONVERTER_11
 73
     1
 44
1.32052821128451
  0
INSERT
  5
1F6
330
88
100
AcDbEntity
  8
1
100
AcDbBlockReference
  2
*D8
 10
0.0
 20
0.0
 30
0.0
  0
ENDBLK
  5
8B
330
88
100
AcDbEntity
  8
0
100
AcDbBlockEnd
  0
BLOCK
  5
8F
330
8C
100
AcDbEntity
  8
0
100
AcDbBlockBegin
  2
1
 70
     0
 10
0.0
 20
0.0
 30
0.0
  3
1
  1

  0
INSERT
  5
8D
330
8C
100
AcDbEntity
  8
0
100
AcDbBlockReference
  2
A3I_TD_PRF
 10
-39.9684584316696
 20
-301.8235650491265
 30
0.0
  0
INSERT
  5
8E
330
8C
100
AcDbEntity
  8
0
100
AcDbBlockReference
  2
Vordans1
 10
-255.708219696171
 20
-148.724989179649
 30
0.0
 41
2.0
 42
2.0
 43
2.0
  0
ENDBLK
  5
90
330
8C
100
AcDbEntity
  8
0
100
AcDbBlockEnd
  0
BLOCK
  5
1F4
330
1EF
100
AcDbEntity
  8
0
100
AcDbBlockBegin
  2
*D8
 70
     1
 10
0.0
 20
0.0
 30
0.0
  3
*D8
  1

  0
LINE
  5
1F0
330
1EF
100
AcDbEntity
  8
1
  6
Continuous
 62
     2
100
AcDbLine
 10
-144.9505890272098
 20
-82.79263640731874
 30
0.0
 11
-91.15323525935321
 21
-57.79279768576421
 31
0.0
  0
SOLID
  5
1F1
330
1EF
100
AcDbEntity
  8
1
 62
     2
100
AcDbTrace
 10
-111.6070688423663
 20
-67.04372002881651
 30
0.0
 11
-111.4128838613957
 21
-67.46158824924929
 31
0.0
 12
-113.0969884788458
 22
-67.99014482295155
 32
0.0
 13
-113.0969884788458
 23
-67.99014482295155
 33
0.0
  0
SOLID
  5
1F2
330
1EF
100
AcDbEntity
  8
1
 62
     2
100
AcDbTrace
 10
-144.0599904732421
 20
-82.6328251755758
 30
0.0
 11
-144.2541754542127
 21
-82.21495695514302
 31
0.0
 12
-142.5700708367627
 22
-81.68640038144076
 32
0.0
 13
-142.5700708367627
 23
-81.68640038144076
 33
0.0
  0
MTEXT
  5
1F3
330
1EF
100
AcDbEntity
  8
1
 62
     3
100
AcDbMText
 10
-98.5100350010855
 20
-60.19153252105715
 30
0.0
 40
1.75
 41
0.0
 71
     7
 72
     1
  1
\C3; {\Fgdt;n}\C3;32,5
  7
CONVERTER_11
 11
0.9068640725512895
 21
0.4214232479535146
 31
0.0
 73
     1
 44
0.60024009603842
  0
ENDBLK
  5
1F5
330
1EF
100
AcDbEntity
  8
0
100
AcDbBlockEnd
  0
ENDSEC
  0
SECTION
  2
ENTITIES
  0
INSERT
  5
91
330
1F
100
AcDbEntity
  8
1
100
AcDbBlockReference
  2
1
 10
0.0
 20
0.0
 30
0.0
  0
ENDSEC
  0
SECTION
  2
OBJECTS
  0
DICTIONARY
  5
C
330
0
100
AcDbDictionary
281
     1
  3
ACAD_DETAILVIEWSTYLE
350
23C
  3
ACAD_GROUP
350
D
  3
ACAD_LAYOUT
350
1A
  3
ACAD_MATERIAL
350
43
  3
ACAD_MLEADERSTYLE
350
6B
  3
ACAD_MLINESTYLE
350
17
  3
ACAD_PLOTSETTINGS
350
19
  3
ACAD_PLOTSTYLENAME
350
E
  3
ACAD_SCALELIST
350
47
  3
ACAD_SECTIONVIEWSTYLE
350
23D
  3
ACAD_TABLESTYLE
350
69
  3
ACAD_VISUALSTYLE
350
2A
  3
ACDB_RECOMPOSE_DATA
350
239
  3
AcDbVariableDictionary
350
1F9
  0
DICTIONARY
  5
1F7
330
8
100
AcDbDictionary
280
     1
281
     1
  3
ACAD_XREC_ROUNDTRIP
360
1F8
  0
DICTIONARY
  5
23C
102
{ACAD_REACTORS
330
C
102
}
330
C
100
AcDbDictionary
281
     1
  0
DICTIONARY
  5
D
102
{ACAD_REACTORS
330
C
102
}
330
C
100
AcDbDictionary
281
     1
  0
DICTIONARY
  5
1A
102
{ACAD_REACTORS
330
C
102
}
330
C
100
AcDbDictionary
281
     1
  3
Layout1
350
1E
  3
Layout2
350
26
  3
Model
350
22
  0
DICTIONARY
  5
43
102
{ACAD_REACTORS
330
C
102
}
330
C
100
AcDbDictionary
281
     1
  3
ByBlock
350
45
  3
ByLayer
350
44
  3
Global
350
46
  0
DICTIONARY
  5
6B
102
{ACAD_REACTORS
330
C
102
}
330
C
100
AcDbDictionary
281
     1
  3
Standard
350
6C
  0
DICTIONARY
  5
17
102
{ACAD_REACTORS
330
C
102
}
330
C
100
AcDbDictionary
281
     1
  3
Standard
350
18
  0
DICTIONARY
  5
19
102
{ACAD_REACTORS
330
C
102
}
330
C
100
AcDbDictionary
281
     1
  0
ACDBDICTIONARYWDFLT
  5
E
102
{ACAD_REACTORS
330
C
102
}
330
C
100
AcDbDictionary
281
     1
  3
Normal
350
F
100
AcDbDictionaryWithDefault
340
F
  0
DICTIONARY
  5
47
102
{ACAD_REACTORS
330
C
102
}
330
C
100
AcDbDictionary
281
     1
  3
A0
350
48
  3
A1
350
49
  3
A2
350
4A
  3
A3
350
4B
  3
A4
350
4C
  3
A5
350
4D
  3
A6
350
4E
  3
A7
350
4F
  3
A8
350
50
  3
A9
350
51
  3
B0
350
52
  3
B1
350
53
  3
B2
350
54
  3
B3
350
55
  3
B4
350
56
  3
B5
350
57
  3
B6
350
58
  3
B7
350
59
  3
B8
350
5A
  3
B9
350
5B
  3
C0
350
5C
  3
C1
350
5D
  3
C2
350
5E
  3
C3
350
5F
  3
C4
350
60
  3
C5
350
61
  3
C6
350
62
  3
C7
350
63
  3
C8
350
64
  3
C9
350
65
  3
D0
350
66
  3
D1
350
67
  3
D2
350
68
  0
DICTIONARY
  5
23D
102
{ACAD_REACTORS
330
C
102
}
330
C
100
AcDbDictionary
281
     1
  0
DICTIONARY
  5
69
102
{ACAD_REACTORS
330
C
102
}
330
C
100
AcDbDictionary
281
     1
  3
Standard
350
6A
  0
DICTIONARY
  5
2A
102
{ACAD_REACTORS
330
C
102
}
330
C
100
AcDbDictionary
281
     1
  3
2dWireframe
350
2F
  3
Basic
350
32
  3
Brighten
350
36
  3
ColorChange
350
3A
  3
Conceptual
350
34
  3
Dim
350
35
  3
EdgeColorOff
350
3D
  3
Facepattern
350
39
  3
Flat
350
2B
  3
FlatWithEdges
350
2C
  3
Gouraud
350
2D
  3
GouraudWithEdges
350
2E
  3
Hidden
350
31
  3
JitterOff
350
3B
  3
Linepattern
350
38
  3
OverhangOff
350
3C
  3
Realistic
350
33
  3
Shaded
350
42
  3
Shaded with edges
350
41
  3
Shades of Gray
350
3E
  3
Sketchy
350
3F
  3
Thicken
350
37
  3
Wireframe
350
30
  3
X-Ray
350
40
  0
XRECORD
  5
239
102
{ACAD_REACTORS
330
C
102
}
330
C
100
AcDbXrecord
280
     1
 90
        1
330
6A
  0
DICTIONARY
  5
1F9
102
{ACAD_REACTORS
330
C
102
}
330
C
100
AcDbDictionary
281
     1
  3
CANNOSCALE
350
1FA
  3
CMLEADERSTYLE
350
23B
  3
CTABLESTYLE
350
23A
  3
MSLTSCALE
350
1FB
  3
XCLIPFRAME
350
1FC
  0
XRECORD
  5
1F8
102
{ACAD_REACTORS
330
1F7
102
}
330
1F7
100
AcDbXrecord
280
     1
102
VTR_0.000_0.000_1.000_1.000_VISUALSTYLE
340
2F
102
VTR_0.000_0.000_1.000_1.000_GRIDDISPLAY
 70
     3
102
VTR_0.000_0.000_1.000_1.000_GRIDMAJOR
 70
     5
102
VTR_0.000_0.000_1.000_1.000_DEFAULTLIGHTING
280
     1
102
VTR_0.000_0.000_1.000_1.000_DEFAULTLIGHTINGTYPE
 70
     1
102
VTR_0.000_0.000_1.000_1.000_BRIGHTNESS
141
0.0
102
VTR_0.000_0.000_1.000_1.000_CONTRAST
142
0.0
  0
LAYOUT
  5
1E
102
{ACAD_REACTORS
330
1A
102
}
330
1A
100
AcDbPlotSettings
  1

  2
none_device
  4

  6

 40
0.0
 41
0.0
 42
0.0
 43
0.0
 44
0.0
 45
0.0
 46
0.0
 47
0.0
 48
0.0
 49
0.0
140
0.0
141
0.0
142
1.0
143
1.0
 70
   688
 72
     0
 73
     0
 74
     5
  7

 75
    16
 76
     0
 77
     2
 78
   300
147
1.0
148
0.0
149
0.0
100
AcDbLayout
  1
Layout1
 70
     1
 71
     1
 10
0.0
 20
0.0
 11
12.0
 21
9.0
 12
0.0
 22
0.0
 32
0.0
 14
1.00000000000000E+20
 24
1.00000000000000E+20
 34
1.00000000000000E+20
 15
-1.00000000000000E+20
 25
-1.00000000000000E+20
 35
-1.00000000000000E+20
146
0.0
 13
0.0
 23
0.0
 33
0.0
 16
1.0
 26
0.0
 36
0.0
 17
0.0
 27
1.0
 37
0.0
 76
     0
330
1B
  0
LAYOUT
  5
26
102
{ACAD_REACTORS
330
1A
102
}
330
1A
100
AcDbPlotSettings
  1

  2
none_device
  4

  6

 40
0.0
 41
0.0
 42
0.0
 43
0.0
 44
0.0
 45
0.0
 46
0.0
 47
0.0
 48
0.0
 49
0.0
140
0.0
141
0.0
142
1.0
143
1.0
 70
   688
 72
     0
 73
     0
 74
     5
  7

 75
    16
 76
     0
 77
     2
 78
   300
147
1.0
148
0.0
149
0.0
100
AcDbLayout
  1
Layout2
 70
     1
 71
     2
 10
0.0
 20
0.0
 11
0.0
 21
0.0
 12
0.0
 22
0.0
 32
0.0
 14
0.0
 24
0.0
 34
0.0
 15
0.0
 25
0.0
 35
0.0
146
0.0
 13
0.0
 23
0.0
 33
0.0
 16
1.0
 26
0.0
 36
0.0
 17
0.0
 27
1.0
 37
0.0
 76
     0
330
23
  0
LAYOUT
  5
22
102
{ACAD_REACTORS
330
1A
102
}
330
1A
100
AcDbPlotSettings
  1

  2
none_device
  4
Letter_(8.50_x_11.00_Inches)
  6

 40
6.35
 41
6.35
 42
6.35000508
 43
6.35000508
 44
215.9
 45
279.4
 46
0.0
 47
0.0
 48
0.0
 49
0.0
140
0.0
141
0.0
142
1.0
143
1.0
 70
  1712
 72
     0
 73
     0
 74
     0
  7

 75
     0
 76
     0
 77
     2
 78
   300
147
1.0
148
0.0
149
0.0
100
AcDbLayout
  1
Model
 70
     1
 71
     0
 10
0.0
 20
0.0
 11
12.0
 21
9.0
 12
0.0
 22
0.0
 32
0.0
 14
-454.9684584316704
 24
-301.8235650491265
 34
0.0
 15
-34.96845843167199
 25
-4.82356504912648
 35
0.0
146
0.0
 13
0.0
 23
0.0
 33
0.0
 16
1.0
 26
0.0
 36
0.0
 17
0.0
 27
1.0
 37
0.0
 76
     0
330
1F
331
29
  0
MATERIAL
  5
45
102
{ACAD_REACTORS
330
43
102
}
102
{ACAD_XDICTIONARY
360
22F
102
}
330
43
100
AcDbMaterial
  1
ByBlock
  0
MATERIAL
  5
44
102
{ACAD_REACTORS
330
43
102
}
102
{ACAD_XDICTIONARY
360
22D
102
}
330
43
100
AcDbMaterial
  1
ByLayer
  0
MATERIAL
  5
46
102
{ACAD_REACTORS
330
43
102
}
102
{ACAD_XDICTIONARY
360
231
102
}
330
43
100
AcDbMaterial
  1
Global
  0
MLEADERSTYLE
  5
6C
102
{ACAD_REACTORS
330
6B
102
}
102
{ACAD_XDICTIONARY
360
237
102
}
330
6B
100
AcDbMLeaderStyle
170
     2
171
     1
172
     0
 90
        2
 40
0.0
 41
0.0
173
     1
 91
-1056964608
340
14
 92
       -2
290
     1
 42
0.09
291
     1
 43
0.36
  3
Standard
341
0
 44
0.18
300

342
11
174
     1
178
     6
175
     1
176
     0
 93
-1056964608
 45
0.18
292
     0
297
     0
 46
0.18
343
0
 94
-1056964608
 47
1.0
 49
1.0
140
1.0
293
     1
141
0.0
294
     1
177
     0
142
1.0
295
     0
296
     0
143
0.125
1001
ACAD_MLEADERVER
1070
     2
  0
MLINESTYLE
  5
18
102
{ACAD_REACTORS
330
17
102
}
330
17
100
AcDbMlineStyle
  2
Standard
 70
     0
  3

 62
   256
 51
90.0
 52
90.0
 71
     2
 49
0.5
 62
   256
  6
BYLAYER
 49
-0.5
 62
   256
  6
BYLAYER
  0
ACDBPLACEHOLDER
  5
F
102
{ACAD_REACTORS
330
E
102
}
330
E
  0
SCALE
  5
48
102
{ACAD_REACTORS
330
47
102
}
330
47
100
AcDbScale
 70
     0
300
1:1
140
1.0
141
1.0
290
     1
  0
SCALE
  5
49
102
{ACAD_REACTORS
330
47
102
}
330
47
100
AcDbScale
 70
     0
300
1:2
140
1.0
141
2.0
290
     0
  0
SCALE
  5
4A
102
{ACAD_REACTORS
330
47
102
}
330
47
100
AcDbScale
 70
     0
300
1:4
140
1.0
141
4.0
290
     0
  0
SCALE
  5
4B
102
{ACAD_REACTORS
330
47
102
}
330
47
100
AcDbScale
 70
     0
300
1:5
140
1.0
141
5.0
290
     0
  0
SCALE
  5
4C
102
{ACAD_REACTORS
330
47
102
}
330
47
100
AcDbScale
 70
     0
300
1:8
140
1.0
141
8.0
290
     0
  0
SCALE
  5
4D
102
{ACAD_REACTORS
330
47
102
}
330
47
100
AcDbScale
 70
     0
300
1:10
140
1.0
141
10.0
290
     0
  0
SCALE
  5
4E
102
{ACAD_REACTORS
330
47
102
}
330
47
100
AcDbScale
 70
     0
300
1:16
140
1.0
141
16.0
290
     0
  0
SCALE
  5
4F
102
{ACAD_REACTORS
330
47
102
}
330
47
100
AcDbScale
 70
     0
300
1:20
140
1.0
141
20.0
290
     0
  0
SCALE
  5
50
102
{ACAD_REACTORS
330
47
102
}
330
47
100
AcDbScale
 70
     0
300
1:30
140
1.0
141
30.0
290
     0
  0
SCALE
  5
51
102
{ACAD_REACTORS
330
47
102
}
330
47
100
AcDbScale
 70
     0
300
1:40
140
1.0
141
40.0
290
     0
  0
SCALE
  5
52
102
{ACAD_REACTORS
330
47
102
}
330
47
100
AcDbScale
 70
     0
300
1:50
140
1.0
141
50.0
290
     0
  0
SCALE
  5
53
102
{ACAD_REACTORS
330
47
102
}
330
47
100
AcDbScale
 70
     0
300
1:100
140
1.0
141
100.0
290
     0
  0
SCALE
  5
54
102
{ACAD_REACTORS
330
47
102
}
330
47
100
AcDbScale
 70
     0
300
2:1
140
2.0
141
1.0
290
     0
  0
SCALE
  5
55
102
{ACAD_REACTORS
330
47
102
}
330
47
100
AcDbScale
 70
     0
300
4:1
140
4.0
141
1.0
290
     0
  0
SCALE
  5
56
102
{ACAD_REACTORS
330
47
102
}
330
47
100
AcDbScale
 70
     0
300
8:1
140
8.0
141
1.0
290
     0
  0
SCALE
  5
57
102
{ACAD_REACTORS
330
47
102
}
330
47
100
AcDbScale
 70
     0
300
10:1
140
10.0
141
1.0
290
     0
  0
SCALE
  5
58
102
{ACAD_REACTORS
330
47
102
}
330
47
100
AcDbScale
 70
     0
300
100:1
140
100.0
141
1.0
290
     0
  0
SCALE
  5
59
102
{ACAD_REACTORS
330
47
102
}
330
47
100
AcDbScale
 70
     0
300
1/128" = 1'-0"
140
0.0078125
141
12.0
290
     0
  0
SCALE
  5
5A
102
{ACAD_REACTORS
330
47
102
}
330
47
100
AcDbScale
 70
     0
300
1/64" = 1'-0"
140
0.015625
141
12.0
290
     0
  0
SCALE
  5
5B
102
{ACAD_REACTORS
330
47
102
}
330
47
100
AcDbScale
 70
     0
300
1/32" = 1'-0"
140
0.03125
141
12.0
290
     0
  0
SCALE
  5
5C
102
{ACAD_REACTORS
330
47
102
}
330
47
100
AcDbScale
 70
     0
300
1/16" = 1'-0"
140
0.0625
141
12.0
290
     0
  0
SCALE
  5
5D
102
{ACAD_REACTORS
330
47
102
}
330
47
100
AcDbScale
 70
     0
300
3/32" = 1'-0"
140
0.09375
141
12.0
290
     0
  0
SCALE
  5
5E
102
{ACAD_REACTORS
330
47
102
}
330
47
100
AcDbScale
 70
     0
300
1/8" = 1'-0"
140
0.125
141
12.0
290
     0
  0
SCALE
  5
5F
102
{ACAD_REACTORS
330
47
102
}
330
47
100
AcDbScale
 70
     0
300
3/16" = 1'-0"
140
0.1875
141
12.0
290
     0
  0
SCALE
  5
60
102
{ACAD_REACTORS
330
47
102
}
330
47
100
AcDbScale
 70
     0
300
1/4" = 1'-0"
140
0.25
141
12.0
290
     0
  0
SCALE
  5
61
102
{ACAD_REACTORS
330
47
102
}
330
47
100
AcDbScale
 70
     0
300
3/8" = 1'-0"
140
0.375
141
12.0
290
     0
  0
SCALE
  5
62
102
{ACAD_REACTORS
330
47
102
}
330
47
100
AcDbScale
 70
     0
300
1/2" = 1'-0"
140
0.5
141
12.0
290
     0
  0
SCALE
  5
63
102
{ACAD_REACTORS
330
47
102
}
330
47
100
AcDbScale
 70
     0
300
3/4" = 1'-0"
140
0.75
141
12.0
290
     0
  0
SCALE
  5
64
102
{ACAD_REACTORS
330
47
102
}
330
47
100
AcDbScale
 70
     0
300
1" = 1'-0"
140
1.0
141
12.0
290
     0
  0
SCALE
  5
65
102
{ACAD_REACTORS
330
47
102
}
330
47
100
AcDbScale
 70
     0
300
1-1/2" = 1'-0"
140
1.5
141
12.0
290
     0
  0
SCALE
  5
66
102
{ACAD_REACTORS
330
47
102
}
330
47
100
AcDbScale
 70
     0
300
3" = 1'-0"
140
3.0
141
12.0
290
     0
  0
SCALE
  5
67
102
{ACAD_REACTORS
330
47
102
}
330
47
100
AcDbScale
 70
     0
300
6" = 1'-0"
140
6.0
141
12.0
290
     0
  0
SCALE
  5
68
102
{ACAD_REACTORS
330
47
102
}
330
47
100
AcDbScale
 70
     0
300
1'-0" = 1'-0"
140
12.0
141
12.0
290
     0
  0
TABLESTYLE
  5
6A
102
{ACAD_REACTORS
330
69
102
}
102
{ACAD_XDICTIONARY
360
233
102
}
330
69
100
AcDbTableStyle
  3
Standard
 70
     0
 71
     0
 40
0.06
 41
0.06
280
     0
281
     0
  7
Standard
140
0.18
170
     2
 62
     0
 63
   257
283
     0
274
    -2
284
     1
 64
     0
275
    -2
285
     1
 65
     0
276
    -2
286
     1
 66
     0
277
    -2
287
     1
 67
     0
278
    -2
288
     1
 68
     0
279
    -2
289
     1
 69
     0
  7
Standard
140
0.25
170
     5
 62
     0
 63
   257
283
     0
274
    -2
284
     1
 64
     0
275
    -2
285
     1
 65
     0
276
    -2
286
     1
 66
     0
277
    -2
287
     1
 67
     0
278
    -2
288
     1
 68
     0
279
    -2
289
     1
 69
     0
  7
Standard
140
0.18
170
     5
 62
     0
 63
   257
283
     0
274
    -2
284
     1
 64
     0
275
    -2
285
     1
 65
     0
276
    -2
286
     1
 66
     0
277
    -2
287
     1
 67
     0
278
    -2
288
     1
 68
     0
279
    -2
289
     1
 69
     0
  0
VISUALSTYLE
  5
2F
102
{ACAD_REACTORS
330
2A
102
}
102
{ACAD_XDICTIONARY
360
205
102
}
330
2A
100
AcDbVisualStyle
  2
2dWireframe
 70
     4
 71
     0
 72
     2
 73
     0
 90
        0
 40
0.6
 41
30.0
 62
     5
 63
     7
421
 16777215
 74
     1
 91
        4
 64
     7
 65
   257
 75
     1
175
     1
 42
1.0
 92
        0
 66
   257
 43
1.0
 76
     1
 77
     6
 78
     2
 67
     7
 79
     5
170
     0
171
     0
290
     0
174
     0
 93
        1
 44
0.0
173
     0
291
     0
 45
0.0
1001
ACAD
1000
AcDbSavedByObjectVersion
1070
     0
  0
VISUALSTYLE
  5
32
102
{ACAD_REACTORS
330
2A
102
}
102
{ACAD_XDICTIONARY
360
20B
102
}
330
2A
100
AcDbVisualStyle
  2
Basic
 70
     7
 71
     1
 72
     0
 73
     1
 90
        0
 40
0.6
 41
30.0
 62
     5
 63
     7
421
 16777215
 74
     0
 91
        4
 64
     7
 65
   257
 75
     1
175
     1
 42
1.0
 92
        8
 66
     7
 43
1.0
 76
     1
 77
     6
 78
     2
 67
     7
 79
     5
170
     0
171
     0
290
     0
174
     0
 93
        1
 44
0.0
173
     0
291
     1
 45
0.0
1001
ACAD
1000
AcDbSavedByObjectVersion
1070
     0
  0
VISUALSTYLE
  5
36
102
{ACAD_REACTORS
330
2A
102
}
102
{ACAD_XDICTIONARY
360
213
102
}
330
2A
100
AcDbVisualStyle
  2
Brighten
 70
    12
 71
     2
 72
     2
 73
     0
 90
        0
 40
0.6
 41
30.0
 62
     5
 63
     7
421
 16777215
 74
     1
 91
        4
 64
     7
 65
   257
 75
     1
175
     1
 42
1.0
 92
        8
 66
     7
 43
1.0
 76
     1
 77
     6
 78
     2
 67
     7
 79
     5
170
     0
171
     0
290
     0
174
     0
 93
        1
 44
50.0
173
     0
291
     1
 45
0.0
1001
ACAD
1000
AcDbSavedByObjectVersion
1070
     0
  0
VISUALSTYLE
  5
3A
102
{ACAD_REACTORS
330
2A
102
}
102
{ACAD_XDICTIONARY
360
21B
102
}
330
2A
100
AcDbVisualStyle
  2
ColorChange
 70
    16
 71
     2
 72
     2
 73
     3
 90
        0
 40
0.6
 41
30.0
 62
     5
 63
     8
421
  8421504
 74
     1
 91
        4
 64
     7
 65
   257
 75
     1
175
     1
 42
1.0
 92
        8
 66
     8
424
  8421504
 43
1.0
 76
     1
 77
     6
 78
     2
 67
     7
 79
     5
170
     0
171
     0
290
     0
174
     0
 93
        1
 44
0.0
173
     0
291
     1
 45
0.0
1001
ACAD
1000
AcDbSavedByObjectVersion
1070
     0
  0
VISUALSTYLE
  5
34
102
{ACAD_REACTORS
330
2A
102
}
102
{ACAD_XDICTIONARY
360
20F
102
}
330
2A
100
AcDbVisualStyle
  2
Conceptual
 70
     9
 71
     3
 72
     2
 73
     0
 90
        0
 40
0.6
 41
30.0
 62
     5
 63
     7
421
 16777215
 74
     2
 91
        2
 64
     7
 65
   257
 75
     1
175
     1
 42
179.0
 92
        8
 66
     7
 43
1.0
 76
     1
 77
     6
 78
     2
 67
     7
 79
     3
170
     0
171
     0
290
     0
174
     0
 93
        1
 44
0.0
173
     0
291
     0
 45
0.0
1001
ACAD
1000
AcDbSavedByObjectVersion
1070
     0
  0
VISUALSTYLE
  5
35
102
{ACAD_REACTORS
330
2A
102
}
102
{ACAD_XDICTIONARY
360
211
102
}
330
2A
100
AcDbVisualStyle
  2
Dim
 70
    11
 71
     2
 72
     2
 73
     0
 90
        0
 40
0.6
 41
30.0
 62
     5
 63
     7
421
 16777215
 74
     1
 91
        4
 64
     7
 65
   257
 75
     1
175
     1
 42
1.0
 92
        8
 66
     7
 43
1.0
 76
     1
 77
     6
 78
     2
 67
     7
 79
     5
170
     0
171
     0
290
     0
174
     0
 93
        1
 44
-50.0
173
     0
291
     1
 45
0.0
1001
ACAD
1000
AcDbSavedByObjectVersion
1070
     0
  0
VISUALSTYLE
  5
3D
102
{ACAD_REACTORS
330
2A
102
}
102
{ACAD_XDICTIONARY
360
221
102
}
330
2A
100
AcDbVisualStyle
  2
EdgeColorOff
 70
    22
 71
     2
 72
     2
 73
     0
 90
        0
 40
0.6
 41
30.0
 62
     5
 63
     7
421
 16777215
 74
     1
 91
        4
 64
     7
 65
   257
 75
     1
175
     1
 42
1.0
 92
        8
 66
     7
 43
1.0
 76
     1
 77
     6
 78
     2
 67
     7
 79
     5
170
     0
171
     0
290
     0
174
     0
 93
        1
 44
0.0
173
     0
291
     1
 45
0.0
1001
ACAD
1000
AcDbSavedByObjectVersion
1070
     0
  0
VISUALSTYLE
  5
39
102
{ACAD_REACTORS
330
2A
102
}
102
{ACAD_XDICTIONARY
360
219
102
}
330
2A
100
AcDbVisualStyle
  2
Facepattern
 70
    15
 71
     2
 72
     2
 73
     0
 90
        0
 40
0.6
 41
30.0
 62
     5
 63
     7
421
 16777215
 74
     1
 91
        4
 64
     7
 65
   257
 75
     1
175
     1
 42
1.0
 92
        8
 66
     7
 43
1.0
 76
     1
 77
     6
 78
     2
 67
     7
 79
     5
170
     0
171
     0
290
     0
174
     0
 93
        1
 44
0.0
173
     0
291
     1
 45
0.0
1001
ACAD
1000
AcDbSavedByObjectVersion
1070
     0
  0
VISUALSTYLE
  5
2B
102
{ACAD_REACTORS
330
2A
102
}
102
{ACAD_XDICTIONARY
360
1FD
102
}
330
2A
100
AcDbVisualStyle
  2
Flat
 70
     0
 71
     2
 72
     1
 73
     1
 90
        2
 40
0.6
 41
30.0
 62
     5
 63
     7
421
 16777215
 74
     0
 91
        0
 64
     7
 65
   257
 75
     1
175
     1
 42
1.0
 92
        8
 66
     7
 43
1.0
 76
     1
 77
     6
 78
     2
 67
     7
 79
     5
170
     0
171
     0
290
     0
174
     0
 93
       13
 44
0.0
173
     0
291
     1
 45
0.0
1001
ACAD
1000
AcDbSavedByObjectVersion
1070
     0
  0
VISUALSTYLE
  5
2C
102
{ACAD_REACTORS
330
2A
102
}
102
{ACAD_XDICTIONARY
360
1FF
102
}
330
2A
100
AcDbVisualStyle
  2
FlatWithEdges
 70
     1
 71
     2
 72
     1
 73
     1
 90
        2
 40
0.6
 41
30.0
 62
     5
 63
     7
421
 16777215
 74
     1
 91
        0
 64
     7
 65
   257
 75
     1
175
     1
 42
1.0
 92
        0
 66
   257
 43
1.0
 76
     1
 77
     6
 78
     2
 67
     7
 79
     5
170
     0
171
     0
290
     0
174
     0
 93
       13
 44
0.0
173
     0
291
     1
 45
0.0
1001
ACAD
1000
AcDbSavedByObjectVersion
1070
     0
  0
VISUALSTYLE
  5
2D
102
{ACAD_REACTORS
330
2A
102
}
102
{ACAD_XDICTIONARY
360
201
102
}
330
2A
100
AcDbVisualStyle
  2
Gouraud
 70
     2
 71
     2
 72
     2
 73
     1
 90
        2
 40
0.6
 41
30.0
 62
     5
 63
     7
421
 16777215
 74
     0
 91
        0
 64
     7
 65
   257
 75
     1
175
     1
 42
1.0
 92
        0
 66
     7
 43
1.0
 76
     1
 77
     6
 78
     2
 67
     7
 79
     5
170
     0
171
     0
290
     0
174
     0
 93
       13
 44
0.0
173
     0
291
     1
 45
0.0
1001
ACAD
1000
AcDbSavedByObjectVersion
1070
     0
  0
VISUALSTYLE
  5
2E
102
{ACAD_REACTORS
330
2A
102
}
102
{ACAD_XDICTIONARY
360
203
102
}
330
2A
100
AcDbVisualStyle
  2
GouraudWithEdges
 70
     3
 71
     2
 72
     2
 73
     1
 90
        2
 40
0.6
 41
30.0
 62
     5
 63
     7
421
 16777215
 74
     1
 91
        0
 64
     7
 65
   257
 75
     1
175
     1
 42
1.0
 92
        0
 66
   257
 43
1.0
 76
     1
 77
     6
 78
     2
 67
     7
 79
     5
170
     0
171
     0
290
     0
174
     0
 93
       13
 44
0.0
173
     0
291
     1
 45
0.0
1001
ACAD
1000
AcDbSavedByObjectVersion
1070
     0
  0
VISUALSTYLE
  5
31
102
{ACAD_REACTORS
330
2A
102
}
102
{ACAD_XDICTIONARY
360
209
102
}
330
2A
100
AcDbVisualStyle
  2
Hidden
 70
     6
 71
     1
 72
     2
 73
     2
 90
        0
 40
0.6
 41
30.0
 62
     5
 63
     7
421
 16777215
 74
     2
 91
        2
 64
     7
 65
   257
 75
     2
175
     1
 42
40.0
 92
        0
 66
   257
 43
1.0
 76
     1
 77
     6
 78
     2
 67
     7
 79
     3
170
     0
171
     0
290
     0
174
     0
 93
        1
 44
0.0
173
     0
291
     0
 45
0.0
1001
ACAD
1000
AcDbSavedByObjectVersion
1070
     0
  0
VISUALSTYLE
  5
3B
102
{ACAD_REACTORS
330
2A
102
}
102
{ACAD_XDICTIONARY
360
21D
102
}
330
2A
100
AcDbVisualStyle
  2
JitterOff
 70
    20
 71
     2
 72
     2
 73
     0
 90
        0
 40
0.6
 41
30.0
 62
     5
 63
     7
421
 16777215
 74
     1
 91
        4
 64
     7
 65
   257
 75
     1
175
     1
 42
1.0
 92
       10
 66
     7
 43
1.0
 76
     1
 77
     6
 78
     2
 67
     7
 79
     5
170
     0
171
     0
290
     0
174
     0
 93
        1
 44
0.0
173
     0
291
     1
 45
0.0
1001
ACAD
1000
AcDbSavedByObjectVersion
1070
     0
  0
VISUALSTYLE
  5
38
102
{ACAD_REACTORS
330
2A
102
}
102
{ACAD_XDICTIONARY
360
217
102
}
330
2A
100
AcDbVisualStyle
  2
Linepattern
 70
    14
 71
     2
 72
     2
 73
     0
 90
        0
 40
0.6
 41
30.0
 62
     5
 63
     7
421
 16777215
 74
     1
 91
        4
 64
     7
 65
   257
 75
     7
175
     7
 42
1.0
 92
        8
 66
     7
 43
1.0
 76
     1
 77
     6
 78
     2
 67
     7
 79
     5
170
     0
171
     0
290
     0
174
     0
 93
        1
 44
0.0
173
     0
291
     1
 45
0.0
1001
ACAD
1000
AcDbSavedByObjectVersion
1070
     0
  0
VISUALSTYLE
  5
3C
102
{ACAD_REACTORS
330
2A
102
}
102
{ACAD_XDICTIONARY
360
21F
102
}
330
2A
100
AcDbVisualStyle
  2
OverhangOff
 70
    21
 71
     2
 72
     2
 73
     0
 90
        0
 40
0.6
 41
30.0
 62
     5
 63
     7
421
 16777215
 74
     1
 91
        4
 64
     7
 65
   257
 75
     1
175
     1
 42
1.0
 92
        9
 66
     7
 43
1.0
 76
     1
 77
     6
 78
     2
 67
     7
 79
     5
170
     0
171
     0
290
     0
174
     0
 93
        1
 44
0.0
173
     0
291
     1
 45
0.0
1001
ACAD
1000
AcDbSavedByObjectVersion
1070
     0
  0
VISUALSTYLE
  5
33
102
{ACAD_REACTORS
330
2A
102
}
102
{ACAD_XDICTIONARY
360
20D
102
}
330
2A
100
AcDbVisualStyle
  2
Realistic
 70
     8
 71
     2
 72
     3
 73
     0
 90
        2
 40
0.6
 41
30.0
 62
     5
 63
     7
421
 16777215
 74
     0
 91
        0
 64
     7
 65
   257
 75
     1
175
     1
 42
1.0
 92
        8
 66
   257
 43
1.0
 76
     1
 77
     6
 78
     2
 67
     7
 79
     3
170
     0
171
     0
290
     0
174
     0
 93
       13
 44
0.0
173
     0
291
     0
 45
0.0
1001
ACAD
1000
AcDbSavedByObjectVersion
1070
     0
  0
VISUALSTYLE
  5
42
102
{ACAD_REACTORS
330
2A
102
}
102
{ACAD_XDICTIONARY
360
22B
102
}
330
2A
100
AcDbVisualStyle
  2
Shaded
 70
    27
 71
     2
 72
     2
 73
     1
 90
        2
 40
0.6
 41
30.0
 62
     5
 63
     7
421
 16777215
 74
     0
 91
        4
 64
     7
 65
   257
 75
     1
175
     1
 42
1.0
 92
        8
 66
   257
 43
1.0
 76
     1
 77
     6
 78
     2
 67
     8
425
  7895160
 79
     3
170
     0
171
     0
290
     0
174
     0
 93
        5
 44
0.0
173
     0
291
     0
 45
0.0
1001
ACAD
1000
AcDbSavedByObjectVersion
1070
     0
  0
VISUALSTYLE
  5
41
102
{ACAD_REACTORS
330
2A
102
}
102
{ACAD_XDICTIONARY
360
229
102
}
330
2A
100
AcDbVisualStyle
  2
Shaded with edges
 70
    26
 71
     2
 72
     2
 73
     1
 90
        2
 40
0.6
 41
30.0
 62
     5
 63
     7
421
 16777215
 74
     1
 91
       10
 64
     7
 65
   257
 75
     2
175
     1
 42
1.0
 92
        8
 66
   257
 43
1.0
 76
     1
 77
     6
 78
     2
 67
     7
 79
     3
170
     0
171
     0
290
     0
174
     0
 93
        5
 44
0.0
173
     0
291
     0
 45
0.0
1001
ACAD
1000
AcDbSavedByObjectVersion
1070
     0
  0
VISUALSTYLE
  5
3E
102
{ACAD_REACTORS
330
2A
102
}
102
{ACAD_XDICTIONARY
360
223
102
}
330
2A
100
AcDbVisualStyle
  2
Shades of Gray
 70
    23
 71
     2
 72
     2
 73
     3
 90
        0
 40
0.6
 41
30.0
 62
     5
 63
     7
421
 16777215
 74
     2
 91
        2
 64
     7
 65
     7
 75
     1
175
     1
 42
40.0
 92
        8
 66
     7
 43
1.0
 76
     1
 77
     6
 78
     2
 67
     7
 79
     3
170
     0
171
     0
290
     0
174
     0
 93
        1
 44
0.0
173
     0
291
     0
 45
0.0
1001
ACAD
1000
AcDbSavedByObjectVersion
1070
     0
  0
VISUALSTYLE
  5
3F
102
{ACAD_REACTORS
330
2A
102
}
102
{ACAD_XDICTIONARY
360
225
102
}
330
2A
100
AcDbVisualStyle
  2
Sketchy
 70
    24
 71
     1
 72
     2
 73
     2
 90
        0
 40
0.6
 41
30.0
 62
     5
 63
     7
421
 16777215
 74
     2
 91
        2
 64
     7
 65
     7
 75
     1
175
     1
 42
40.0
 92
       11
 66
     7
 43
1.0
 76
     1
 77
     6
 78
     2
 67
     7
 79
     6
170
     0
171
     0
290
     0
174
     0
 93
        1
 44
0.0
173
     0
291
     0
 45
0.0
1001
ACAD
1000
AcDbSavedByObjectVersion
1070
     0
  0
VISUALSTYLE
  5
37
102
{ACAD_REACTORS
330
2A
102
}
102
{ACAD_XDICTIONARY
360
215
102
}
330
2A
100
AcDbVisualStyle
  2
Thicken
 70
    13
 71
     2
 72
     2
 73
     0
 90
        0
 40
0.6
 41
30.0
 62
     5
 63
     7
421
 16777215
 74
     1
 91
        4
 64
     7
 65
   257
 75
     1
175
     1
 42
1.0
 92
       12
 66
     7
 43
1.0
 76
     1
 77
     6
 78
     2
 67
     7
 79
     5
170
     0
171
     0
290
     0
174
     0
 93
        1
 44
0.0
173
     0
291
     1
 45
0.0
1001
ACAD
1000
AcDbSavedByObjectVersion
1070
     0
  0
VISUALSTYLE
  5
30
102
{ACAD_REACTORS
330
2A
102
}
102
{ACAD_XDICTIONARY
360
207
102
}
330
2A
100
AcDbVisualStyle
  2
Wireframe
 70
     5
 71
     0
 72
     2
 73
     0
 90
        0
 40
0.6
 41
30.0
 62
     5
 63
     7
421
 16777215
 74
     1
 91
        4
 64
     7
 65
   257
 75
     1
175
     1
 42
1.0
 92
        0
 66
   257
 43
1.0
 76
     1
 77
     6
 78
     2
 67
     7
 79
     3
170
     0
171
     0
290
     0
174
     0
 93
        1
 44
0.0
173
     0
291
     0
 45
0.0
1001
ACAD
1000
AcDbSavedByObjectVersion
1070
     0
  0
VISUALSTYLE
  5
40
102
{ACAD_REACTORS
330
2A
102
}
102
{ACAD_XDICTIONARY
360
227
102
}
330
2A
100
AcDbVisualStyle
  2
X-Ray
 70
    25
 71
     2
 72
     2
 73
     1
 90
        1
 40
0.5
 41
30.0
 62
     5
 63
     7
421
 16777215
 74
     1
 91
        0
 64
     7
 65
   257
 75
     1
175
     1
 42
1.0
 92
        8
 66
     7
 43
1.0
 76
     1
 77
     6
 78
     2
 67
     7
 79
     3
170
     0
171
     0
290
     0
174
     0
 93
       13
 44
0.0
173
     0
291
     0
 45
0.0
1001
ACAD
1000
AcDbSavedByObjectVersion
1070
     0
  0
DICTIONARYVAR
  5
1FA
102
{ACAD_REACTORS
330
1F9
102
}
330
1F9
100
DictionaryVariables
280
     0
  1
1:1
  0
DICTIONARYVAR
  5
23B
102
{ACAD_REACTORS
330
1F9
102
}
330
1F9
100
DictionaryVariables
280
     0
  1
Standard
  0
DICTIONARYVAR
  5
23A
102
{ACAD_REACTORS
330
1F9
102
}
330
1F9
100
DictionaryVariables
280
     0
  1
Standard
  0
DICTIONARYVAR
  5
1FB
102
{ACAD_REACTORS
330
1F9
102
}
330
1F9
100
DictionaryVariables
280
     0
  1
1
  0
DICTIONARYVAR
  5
1FC
102
{ACAD_REACTORS
330
1F9
102
}
330
1F9
100
DictionaryVariables
280
     0
  1
2
  0
DICTIONARY
  5
22F
330
45
100
AcDbDictionary
280
     1
281
     1
  3
ACAD_XREC_ROUNDTRIP
360
230
  0
DICTIONARY
  5
22D
330
44
100
AcDbDictionary
280
     1
281
     1
  3
ACAD_XREC_ROUNDTRIP
360
22E
  0
DICTIONARY
  5
231
330
46
100
AcDbDictionary
280
     1
281
     1
  3
ACAD_XREC_ROUNDTRIP
360
232
  0
DICTIONARY
  5
237
330
6C
100
AcDbDictionary
280
     1
281
     1
  3
ACAD_XREC_ROUNDTRIP
360
238
  0
DICTIONARY
  5
233
330
6A
100
AcDbDictionary
280
     1
281
     1
  3
ACAD_ROUNDTRIP_2008_TABLESTYLE_CELLSTYLEMAP
360
235
  3
ACAD_XREC_ROUNDTRIP
360
234
  0
DICTIONARY
  5
205
330
2F
100
AcDbDictionary
280
     1
281
     1
  3
ACAD_XREC_ROUNDTRIP
360
206
  0
DICTIONARY
  5
20B
330
32
100
AcDbDictionary
280
     1
281
     1
  3
ACAD_XREC_ROUNDTRIP
360
20C
  0
DICTIONARY
  5
213
330
36
100
AcDbDictionary
280
     1
281
     1
  3
ACAD_XREC_ROUNDTRIP
360
214
  0
DICTIONARY
  5
21B
330
3A
100
AcDbDictionary
280
     1
281
     1
  3
ACAD_XREC_ROUNDTRIP
360
21C
  0
DICTIONARY
  5
20F
330
34
100
AcDbDictionary
280
     1
281
     1
  3
ACAD_XREC_ROUNDTRIP
360
210
  0
DICTIONARY
  5
211
330
35
100
AcDbDictionary
280
     1
281
     1
  3
ACAD_XREC_ROUNDTRIP
360
212
  0
DICTIONARY
  5
221
330
3D
100
AcDbDictionary
280
     1
281
     1
  3
ACAD_XREC_ROUNDTRIP
360
222
  0
DICTIONARY
  5
219
330
39
100
AcDbDictionary
280
     1
281
     1
  3
ACAD_XREC_ROUNDTRIP
360
21A
  0
DICTIONARY
  5
1FD
330
2B
100
AcDbDictionary
280
     1
281
     1
  3
ACAD_XREC_ROUNDTRIP
360
1FE
  0
DICTIONARY
  5
1FF
330
2C
100
AcDbDictionary
280
     1
281
     1
  3
ACAD_XREC_ROUNDTRIP
360
200
  0
DICTIONARY
  5
201
330
2D
100
AcDbDictionary
280
     1
281
     1
  3
ACAD_XREC_ROUNDTRIP
360
202
  0
DICTIONARY
  5
203
330
2E
100
AcDbDictionary
280
     1
281
     1
  3
ACAD_XREC_ROUNDTRIP
360
204
  0
DICTIONARY
  5
209
330
31
100
AcDbDictionary
280
     1
281
     1
  3
ACAD_XREC_ROUNDTRIP
360
20A
  0
DICTIONARY
  5
21D
330
3B
100
AcDbDictionary
280
     1
281
     1
  3
ACAD_XREC_ROUNDTRIP
360
21E
  0
DICTIONARY
  5
217
330
38
100
AcDbDictionary
280
     1
281
     1
  3
ACAD_XREC_ROUNDTRIP
360
218
  0
DICTIONARY
  5
21F
330
3C
100
AcDbDictionary
280
     1
281
     1
  3
ACAD_XREC_ROUNDTRIP
360
220
  0
DICTIONARY
  5
20D
330
33
100
AcDbDictionary
280
     1
281
     1
  3
ACAD_XREC_ROUNDTRIP
360
20E
  0
DICTIONARY
  5
22B
330
42
100
AcDbDictionary
280
     1
281
     1
  3
ACAD_XREC_ROUNDTRIP
360
22C
  0
DICTIONARY
  5
229
330
41
100
AcDbDictionary
280
     1
281
     1
  3
ACAD_XREC_ROUNDTRIP
360
22A
  0
DICTIONARY
  5
223
330
3E
100
AcDbDictionary
280
     1
281
     1
  3
ACAD_XREC_ROUNDTRIP
360
224
  0
DICTIONARY
  5
225
330
3F
100
AcDbDictionary
280
     1
281
     1
  3
ACAD_XREC_ROUNDTRIP
360
226
  0
DICTIONARY
  5
215
330
37
100
AcDbDictionary
280
     1
281
     1
  3
ACAD_XREC_ROUNDTRIP
360
216
  0
DICTIONARY
  5
207
330
30
100
AcDbDictionary
280
     1
281
     1
  3
ACAD_XREC_ROUNDTRIP
360
208
  0
DICTIONARY
  5
227
330
40
100
AcDbDictionary
280
     1
281
     1
  3
ACAD_XREC_ROUNDTRIP
360
228
  0
XRECORD
  5
230
102
{ACAD_REACTORS
330
22F
102
}
330
22F
100
AcDbXrecord
280
     1
102
MATERIAL
148
0.0
149
0.0
149
0.0
 93
        0
 94
      127
282
     0
 72
     1
 77
     1
171
     1
175
     1
179
     1
273
     0
  0
XRECORD
  5
22E
102
{ACAD_REACTORS
330
22D
102
}
330
22D
100
AcDbXrecord
280
     1
102
MATERIAL
148
0.0
149
0.0
149
0.0
 93
        0
 94
      127
282
     0
 72
     1
 77
     1
171
     1
175
     1
179
     1
273
     0
  0
XRECORD
  5
232
102
{ACAD_REACTORS
330
231
102
}
330
231
100
AcDbXrecord
280
     1
102
MATERIAL
148
0.0
149
0.0
149
0.0
 93
        0
 94
      127
282
     0
 72
     1
 77
     1
171
     1
175
     1
179
     1
273
     0
  0
XRECORD
  5
238
102
{ACAD_REACTORS
330
237
102
}
330
237
100
AcDbXrecord
280
     1
102
ACAD_ROUNDTRIP_2010_MLEADER_STYLE
  0
CELLSTYLEMAP
  5
235
102
{ACAD_REACTORS
330
233
102
}
330
233
100
AcDbCellStyleMap
 90
        3
300
CELLSTYLE
  1
TABLEFORMAT_BEGIN
 90
        5
170
     1
 91
        0
 92
    32768
 62
   257
 93
        1
300
CONTENTFORMAT
  1
CONTENTFORMAT_BEGIN
 90
        0
 91
        0
 92
        4
 93
        0
300

 40
0.0
140
1.0
 94
        5
 62
     0
340
11
144
0.25
309
CONTENTFORMAT_END
171
     1
301
MARGIN
  1
CELLMARGIN_BEGIN
 40
0.06
 40
0.06
 40
0.06
 40
0.06
 40
0.06
 40
0.06
309
CELLMARGIN_END
 94
        6
 95
        1
302
GRIDFORMAT
  1
GRIDFORMAT_BEGIN
 90
        0
 91
        1
 62
     0
 92
       -2
340
14
 93
        0
 40
0.045
309
GRIDFORMAT_END
 95
        2
302
GRIDFORMAT
  1
GRIDFORMAT_BEGIN
 90
        0
 91
        1
 62
     0
 92
       -2
340
14
 93
        0
 40
0.045
309
GRIDFORMAT_END
 95
        4
302
GRIDFORMAT
  1
GRIDFORMAT_BEGIN
 90
        0
 91
        1
 62
     0
 92
       -2
340
14
 93
        0
 40
0.045
309
GRIDFORMAT_END
 95
        8
302
GRIDFORMAT
  1
GRIDFORMAT_BEGIN
 90
        0
 91
        1
 62
     0
 92
       -2
340
14
 93
        0
 40
0.045
309
GRIDFORMAT_END
 95
       16
302
GRIDFORMAT
  1
GRIDFORMAT_BEGIN
 90
        0
 91
        1
 62
     0
 92
       -2
340
14
 93
        0
 40
0.045
309
GRIDFORMAT_END
 95
       32
302
GRIDFORMAT
  1
GRIDFORMAT_BEGIN
 90
        0
 91
        1
 62
     0
 92
       -2
340
14
 93
        0
 40
0.045
309
GRIDFORMAT_END
309
TABLEFORMAT_END
  1
CELLSTYLE_BEGIN
 90
        1
 91
        1
300
_TITLE
309
CELLSTYLE_END
300
CELLSTYLE
  1
TABLEFORMAT_BEGIN
 90
        5
170
     1
 91
        0
 92
        0
 62
   257
 93
        1
300
CONTENTFORMAT
  1
CONTENTFORMAT_BEGIN
 90
        0
 91
        0
 92
        4
 93
        0
300

 40
0.0
140
1.0
 94
        5
 62
     0
340
11
144
0.18
309
CONTENTFORMAT_END
171
     1
301
MARGIN
  1
CELLMARGIN_BEGIN
 40
0.06
 40
0.06
 40
0.06
 40
0.06
 40
0.06
 40
0.06
309
CELLMARGIN_END
 94
        6
 95
        1
302
GRIDFORMAT
  1
GRIDFORMAT_BEGIN
 90
        0
 91
        1
 62
     0
 92
       -2
340
14
 93
        0
 40
0.045
309
GRIDFORMAT_END
 95
        2
302
GRIDFORMAT
  1
GRIDFORMAT_BEGIN
 90
        0
 91
        1
 62
     0
 92
       -2
340
14
 93
        0
 40
0.045
309
GRIDFORMAT_END
 95
        4
302
GRIDFORMAT
  1
GRIDFORMAT_BEGIN
 90
        0
 91
        1
 62
     0
 92
       -2
340
14
 93
        0
 40
0.045
309
GRIDFORMAT_END
 95
        8
302
GRIDFORMAT
  1
GRIDFORMAT_BEGIN
 90
        0
 91
        1
 62
     0
 92
       -2
340
14
 93
        0
 40
0.045
309
GRIDFORMAT_END
 95
       16
302
GRIDFORMAT
  1
GRIDFORMAT_BEGIN
 90
        0
 91
        1
 62
     0
 92
       -2
340
14
 93
        0
 40
0.045
309
GRIDFORMAT_END
 95
       32
302
GRIDFORMAT
  1
GRIDFORMAT_BEGIN
 90
        0
 91
        1
 62
     0
 92
       -2
340
14
 93
        0
 40
0.045
309
GRIDFORMAT_END
309
TABLEFORMAT_END
  1
CELLSTYLE_BEGIN
 90
        2
 91
        1
300
_HEADER
309
CELLSTYLE_END
300
CELLSTYLE
  1
TABLEFORMAT_BEGIN
 90
        5
170
     1
 91
        0
 92
        0
 62
   257
 93
        1
300
CONTENTFORMAT
  1
CONTENTFORMAT_BEGIN
 90
        0
 91
        0
 92
        4
 93
        0
300

 40
0.0
140
1.0
 94
        2
 62
     0
340
11
144
0.18
309
CONTENTFORMAT_END
171
     1
301
MARGIN
  1
CELLMARGIN_BEGIN
 40
0.06
 40
0.06
 40
0.06
 40
0.06
 40
0.06
 40
0.06
309
CELLMARGIN_END
 94
        6
 95
        1
302
GRIDFORMAT
  1
GRIDFORMAT_BEGIN
 90
        0
 91
        1
 62
     0
 92
       -2
340
14
 93
        0
 40
0.045
309
GRIDFORMAT_END
 95
        2
302
GRIDFORMAT
  1
GRIDFORMAT_BEGIN
 90
        0
 91
        1
 62
     0
 92
       -2
340
14
 93
        0
 40
0.045
309
GRIDFORMAT_END
 95
        4
302
GRIDFORMAT
  1
GRIDFORMAT_BEGIN
 90
        0
 91
        1
 62
     0
 92
       -2
340
14
 93
        0
 40
0.045
309
GRIDFORMAT_END
 95
        8
302
GRIDFORMAT
  1
GRIDFORMAT_BEGIN
 90
        0
 91
        1
 62
     0
 92
       -2
340
14
 93
        0
 40
0.045
309
GRIDFORMAT_END
 95
       16
302
GRIDFORMAT
  1
GRIDFORMAT_BEGIN
 90
        0
 91
        1
 62
     0
 92
       -2
340
14
 93
        0
 40
0.045
309
GRIDFORMAT_END
 95
       32
302
GRIDFORMAT
  1
GRIDFORMAT_BEGIN
 90
        0
 91
        1
 62
     0
 92
       -2
340
14
 93
        0
 40
0.045
309
GRIDFORMAT_END
309
TABLEFORMAT_END
  1
CELLSTYLE_BEGIN
 90
        3
 91
        2
300
_DATA
309
CELLSTYLE_END
  0
XRECORD
  5
234
102
{ACAD_REACTORS
330
233
102
}
330
233
100
AcDbXrecord
280
     1
102
ACAD_ROUNDTRIP_PRE2007_TABLESTYLE
 90
        4
 91
        0
  1

 92
        4
 93
        0
  2

 94
        4
 95
        0
  3

  0
XRECORD
  5
206
102
{ACAD_REACTORS
330
205
102
}
330
205
100
AcDbXrecord
280
     1
102
RTVSPropertyOp0
 70
     1
102
RTVSPropertyOp1
 70
     1
102
RTVSPropertyOp2
 70
     1
102
RTVSPropertyOp3
 70
     1
102
RTVSPropertyOp4
 70
     1
102
RTVSPropertyOp5
 70
     1
102
RTVSPropertyOp6
 70
     1
102
RTVSPropertyOp7
 70
     1
102
RTVSPropertyOp8
 70
     1
102
RTVSPropertyOp9
 70
     1
102
RTVSPropertyOp10
 70
     1
102
RTVSPropertyOp11
 70
     1
102
RTVSPropertyOp12
 70
     1
102
RTVSPropertyOp13
 70
     1
102
RTVSPropertyOp14
 70
     1
102
RTVSPropertyOp15
 70
     1
102
RTVSPropertyOp16
 70
     1
102
RTVSPropertyOp17
 70
     1
102
RTVSPropertyOp18
 70
     1
102
RTVSPropertyOp19
 70
     1
102
RTVSPropertyOp20
 70
     1
102
RTVSPropertyOp21
 70
     1
102
RTVSPropertyOp22
 70
     1
102
RTVSPropertyOp23
 70
     1
102
RTVSPropertyOp24
 70
     1
102
RTVSPropertyOp25
 70
     1
102
RTVSPropertyOp26
 70
     1
102
RTVSPropertyOp27
 70
     1
102
RTVSPropertyOp28
 70
     1
102
RTVSPropertyOp29
 70
     1
102
RTVSPropertyOp30
 70
     1
102
RTVSPropertyOp31
 70
     1
102
RTVSPropertyOp32
 70
     1
102
RTVSPropertyOp33
 70
     1
102
RTVSPropertyOp34
 70
     1
102
RTVSPropertyOp35
 70
     1
102
RTVSPropertyOp36
 70
     1
102
RTVSPropertyOp37
 70
     1
102
RTVSPropertyOp38
 70
     1
102
RTVSPropertyOp39
 70
     1
102
RTVSPropertyOp40
 70
     1
102
RTVSPropertyOp41
 70
     1
102
RTVSPropertyOp42
 70
     1
102
RTVSPropertyOp43
 70
     1
102
RTVSPropertyOp44
 70
     1
102
RTVSPropertyOp45
 70
     1
102
RTVSPropertyOp46
 70
     1
102
RTVSPropertyOp47
 70
     1
102
RTVSPropertyOp48
 70
     1
102
RTVSPropertyOp49
 70
     1
102
RTVSPropertyOp50
 70
     1
102
RTVSPropertyOp51
 70
     0
102
RTVSPropertyOp52
 70
     0
102
RTVSPropertyOp53
 70
     1
102
RTVSPropertyOp54
 70
     1
102
RTVSPropertyOp55
 70
     1
102
RTVSPropertyOp56
 70
     1
102
RTVSPropertyOp57
 70
     1
102
RTVSPost2010Prop28
280
     1
102
RTVSPost2010PropOp28
 70
     1
102
RTVSPost2010Prop29
280
     1
102
RTVSPost2010PropOp29
 70
     1
102
RTVSPost2010Prop30
280
     0
102
RTVSPost2010PropOp30
 70
     1
102
RTVSPost2010Prop31
280
     0
102
RTVSPost2010PropOp31
 70
     1
102
RTVSPost2010Prop32
280
     0
102
RTVSPost2010PropOp32
 70
     1
102
RTVSPost2010Prop33
280
     0
102
RTVSPost2010PropOp33
 70
     1
102
RTVSPost2010Prop34
280
     0
102
RTVSPost2010PropOp34
 70
     1
102
RTVSPost2010Prop35
280
     0
102
RTVSPost2010PropOp35
 70
     1
102
RTVSPost2010Prop36
280
     0
102
RTVSPost2010PropOp36
 70
     1
102
RTVSPost2010Prop37
 90
       50
102
RTVSPost2010PropOp37
 70
     1
102
RTVSPost2010Prop38
140
0.0
102
RTVSPost2010PropOp38
 70
     1
102
RTVSPost2010Prop39
140
1.0
102
RTVSPost2010PropOp39
 70
     1
102
RTVSPost2010Prop40
 90
        0
102
RTVSPost2010PropOp40
 70
     1
102
RTVSPost2010Prop41ColorIndex
 90
       18
102
RTVSPost2010Prop41ColorRGB
 90
        0
102
RTVSPost2010PropOp41
 70
     1
102
RTVSPost2010Prop42
 90
       50
102
RTVSPost2010PropOp42
 70
     1
102
RTVSPost2010Prop43
 90
        3
102
RTVSPost2010PropOp43
 70
     1
102
RTVSPost2010Prop44ColorIndex
 90
        5
102
RTVSPost2010Prop44ColorRGB
 90
      255
102
RTVSPost2010PropOp44
 70
     1
102
RTVSPost2010Prop45
280
     0
102
RTVSPost2010PropOp45
 70
     1
102
RTVSPost2010Prop46
 90
       50
102
RTVSPost2010PropOp46
 70
     1
102
RTVSPost2010Prop47
 90
       50
102
RTVSPost2010PropOp47
 70
     1
102
RTVSPost2010Prop48
 90
       50
102
RTVSPost2010PropOp48
 70
     1
102
RTVSPost2010Prop49
280
     0
102
RTVSPost2010PropOp49
 70
     1
102
RTVSPost2010Prop50
 90
       50
102
RTVSPost2010PropOp50
 70
     1
102
RTVSPost2010Prop51ColorIndex
 90
      256
102
RTVSPost2010Prop51ColorRGB
 90
-16777216
102
RTVSPost2010PropOp51
 70
     0
102
RTVSPost2010Prop52
140
1.0
102
RTVSPost2010PropOp52
 70
     0
102
RTVSPost2010Prop53
 90
        2
102
RTVSPost2010PropOp53
 70
     1
102
RTVSPost2010Prop54
  1
strokes_ogs.tif
102
RTVSPost2010PropOp54
 70
     1
102
RTVSPost2010Prop55
280
     0
102
RTVSPost2010PropOp55
 70
     1
102
RTVSPost2010Prop56
140
1.0
102
RTVSPost2010PropOp56
 70
     1
102
RTVSPost2010Prop57
140
1.0
102
RTVSPost2010PropOp57
 70
     1
  0
XRECORD
  5
20C
102
{ACAD_REACTORS
330
20B
102
}
330
20B
100
AcDbXrecord
280
     1
102
RTVSPropertyOp0
 70
     1
102
RTVSPropertyOp1
 70
     1
102
RTVSPropertyOp2
 70
     1
102
RTVSPropertyOp3
 70
     1
102
RTVSPropertyOp4
 70
     1
102
RTVSPropertyOp5
 70
     1
102
RTVSPropertyOp6
 70
     1
102
RTVSPropertyOp7
 70
     1
102
RTVSPropertyOp8
 70
     1
102
RTVSPropertyOp9
 70
     1
102
RTVSPropertyOp10
 70
     1
102
RTVSPropertyOp11
 70
     1
102
RTVSPropertyOp12
 70
     1
102
RTVSPropertyOp13
 70
     1
102
RTVSPropertyOp14
 70
     1
102
RTVSPropertyOp15
 70
     1
102
RTVSPropertyOp16
 70
     1
102
RTVSPropertyOp17
 70
     1
102
RTVSPropertyOp18
 70
     1
102
RTVSPropertyOp19
 70
     1
102
RTVSPropertyOp20
 70
     1
102
RTVSPropertyOp21
 70
     1
102
RTVSPropertyOp22
 70
     1
102
RTVSPropertyOp23
 70
     1
102
RTVSPropertyOp24
 70
     1
102
RTVSPropertyOp25
 70
     1
102
RTVSPropertyOp26
 70
     1
102
RTVSPropertyOp27
 70
     1
102
RTVSPropertyOp28
 70
     1
102
RTVSPropertyOp29
 70
     1
102
RTVSPropertyOp30
 70
     1
102
RTVSPropertyOp31
 70
     1
102
RTVSPropertyOp32
 70
     1
102
RTVSPropertyOp33
 70
     1
102
RTVSPropertyOp34
 70
     1
102
RTVSPropertyOp35
 70
     1
102
RTVSPropertyOp36
 70
     1
102
RTVSPropertyOp37
 70
     1
102
RTVSPropertyOp38
 70
     1
102
RTVSPropertyOp39
 70
     1
102
RTVSPropertyOp40
 70
     1
102
RTVSPropertyOp41
 70
     1
102
RTVSPropertyOp42
 70
     1
102
RTVSPropertyOp43
 70
     1
102
RTVSPropertyOp44
 70
     1
102
RTVSPropertyOp45
 70
     1
102
RTVSPropertyOp46
 70
     1
102
RTVSPropertyOp47
 70
     1
102
RTVSPropertyOp48
 70
     1
102
RTVSPropertyOp49
 70
     1
102
RTVSPropertyOp50
 70
     1
102
RTVSPropertyOp51
 70
     0
102
RTVSPropertyOp52
 70
     0
102
RTVSPropertyOp53
 70
     1
102
RTVSPropertyOp54
 70
     1
102
RTVSPropertyOp55
 70
     1
102
RTVSPropertyOp56
 70
     1
102
RTVSPropertyOp57
 70
     1
102
RTVSPost2010Prop28
280
     0
102
RTVSPost2010PropOp28
 70
     1
102
RTVSPost2010Prop29
280
     1
102
RTVSPost2010PropOp29
 70
     1
102
RTVSPost2010Prop30
280
     1
102
RTVSPost2010PropOp30
 70
     1
102
RTVSPost2010Prop31
280
     0
102
RTVSPost2010PropOp31
 70
     1
102
RTVSPost2010Prop32
280
     0
102
RTVSPost2010PropOp32
 70
     1
102
RTVSPost2010Prop33
280
     0
102
RTVSPost2010PropOp33
 70
     1
102
RTVSPost2010Prop34
280
     0
102
RTVSPost2010PropOp34
 70
     1
102
RTVSPost2010Prop35
280
     0
102
RTVSPost2010PropOp35
 70
     1
102
RTVSPost2010Prop36
280
     0
102
RTVSPost2010PropOp36
 70
     1
102
RTVSPost2010Prop37
 90
       50
102
RTVSPost2010PropOp37
 70
     1
102
RTVSPost2010Prop38
140
0.0
102
RTVSPost2010PropOp38
 70
     1
102
RTVSPost2010Prop39
140
1.0
102
RTVSPost2010PropOp39
 70
     1
102
RTVSPost2010Prop40
 90
        0
102
RTVSPost2010PropOp40
 70
     1
102
RTVSPost2010Prop41ColorIndex
 90
       18
102
RTVSPost2010Prop41ColorRGB
 90
        0
102
RTVSPost2010PropOp41
 70
     1
102
RTVSPost2010Prop42
 90
       50
102
RTVSPost2010PropOp42
 70
     1
102
RTVSPost2010Prop43
 90
        3
102
RTVSPost2010PropOp43
 70
     1
102
RTVSPost2010Prop44ColorIndex
 90
        5
102
RTVSPost2010Prop44ColorRGB
 90
      255
102
RTVSPost2010PropOp44
 70
     1
102
RTVSPost2010Prop45
280
     0
102
RTVSPost2010PropOp45
 70
     1
102
RTVSPost2010Prop46
 90
       50
102
RTVSPost2010PropOp46
 70
     1
102
RTVSPost2010Prop47
 90
       50
102
RTVSPost2010PropOp47
 70
     1
102
RTVSPost2010Prop48
 90
       50
102
RTVSPost2010PropOp48
 70
     1
102
RTVSPost2010Prop49
280
     0
102
RTVSPost2010PropOp49
 70
     1
102
RTVSPost2010Prop50
 90
       50
102
RTVSPost2010PropOp50
 70
     1
102
RTVSPost2010Prop51ColorIndex
 90
      256
102
RTVSPost2010Prop51ColorRGB
 90
-16777216
102
RTVSPost2010PropOp51
 70
     0
102
RTVSPost2010Prop52
140
1.0
102
RTVSPost2010PropOp52
 70
     0
102
RTVSPost2010Prop53
 90
        2
102
RTVSPost2010PropOp53
 70
     1
102
RTVSPost2010Prop54
  1
strokes_ogs.tif
102
RTVSPost2010PropOp54
 70
     1
102
RTVSPost2010Prop55
280
     0
102
RTVSPost2010PropOp55
 70
     1
102
RTVSPost2010Prop56
140
1.0
102
RTVSPost2010PropOp56
 70
     1
102
RTVSPost2010Prop57
140
1.0
102
RTVSPost2010PropOp57
 70
     1
  0
XRECORD
  5
214
102
{ACAD_REACTORS
330
213
102
}
330
213
100
AcDbXrecord
280
     1
102
RTVSPropertyOp0
 70
     1
102
RTVSPropertyOp1
 70
     1
102
RTVSPropertyOp2
 70
     1
102
RTVSPropertyOp3
 70
     1
102
RTVSPropertyOp4
 70
     1
102
RTVSPropertyOp5
 70
     1
102
RTVSPropertyOp6
 70
     1
102
RTVSPropertyOp7
 70
     1
102
RTVSPropertyOp8
 70
     1
102
RTVSPropertyOp9
 70
     1
102
RTVSPropertyOp10
 70
     1
102
RTVSPropertyOp11
 70
     1
102
RTVSPropertyOp12
 70
     1
102
RTVSPropertyOp13
 70
     1
102
RTVSPropertyOp14
 70
     1
102
RTVSPropertyOp15
 70
     1
102
RTVSPropertyOp16
 70
     1
102
RTVSPropertyOp17
 70
     1
102
RTVSPropertyOp18
 70
     1
102
RTVSPropertyOp19
 70
     1
102
RTVSPropertyOp20
 70
     1
102
RTVSPropertyOp21
 70
     1
102
RTVSPropertyOp22
 70
     1
102
RTVSPropertyOp23
 70
     1
102
RTVSPropertyOp24
 70
     1
102
RTVSPropertyOp25
 70
     1
102
RTVSPropertyOp26
 70
     1
102
RTVSPropertyOp27
 70
     1
102
RTVSPropertyOp28
 70
     1
102
RTVSPropertyOp29
 70
     1
102
RTVSPropertyOp30
 70
     1
102
RTVSPropertyOp31
 70
     1
102
RTVSPropertyOp32
 70
     1
102
RTVSPropertyOp33
 70
     1
102
RTVSPropertyOp34
 70
     1
102
RTVSPropertyOp35
 70
     1
102
RTVSPropertyOp36
 70
     1
102
RTVSPropertyOp37
 70
     1
102
RTVSPropertyOp38
 70
     1
102
RTVSPropertyOp39
 70
     1
102
RTVSPropertyOp40
 70
     1
102
RTVSPropertyOp41
 70
     1
102
RTVSPropertyOp42
 70
     1
102
RTVSPropertyOp43
 70
     1
102
RTVSPropertyOp44
 70
     1
102
RTVSPropertyOp45
 70
     1
102
RTVSPropertyOp46
 70
     1
102
RTVSPropertyOp47
 70
     1
102
RTVSPropertyOp48
 70
     1
102
RTVSPropertyOp49
 70
     1
102
RTVSPropertyOp50
 70
     1
102
RTVSPropertyOp51
 70
     0
102
RTVSPropertyOp52
 70
     0
102
RTVSPropertyOp53
 70
     1
102
RTVSPropertyOp54
 70
     1
102
RTVSPropertyOp55
 70
     1
102
RTVSPropertyOp56
 70
     1
102
RTVSPropertyOp57
 70
     1
102
RTVSPost2010Prop28
280
     0
102
RTVSPost2010PropOp28
 70
     1
102
RTVSPost2010Prop29
280
     1
102
RTVSPost2010PropOp29
 70
     1
102
RTVSPost2010Prop30
280
     1
102
RTVSPost2010PropOp30
 70
     1
102
RTVSPost2010Prop31
280
     0
102
RTVSPost2010PropOp31
 70
     1
102
RTVSPost2010Prop32
280
     0
102
RTVSPost2010PropOp32
 70
     1
102
RTVSPost2010Prop33
280
     0
102
RTVSPost2010PropOp33
 70
     1
102
RTVSPost2010Prop34
280
     0
102
RTVSPost2010PropOp34
 70
     1
102
RTVSPost2010Prop35
280
     0
102
RTVSPost2010PropOp35
 70
     1
102
RTVSPost2010Prop36
280
     0
102
RTVSPost2010PropOp36
 70
     1
102
RTVSPost2010Prop37
 90
       50
102
RTVSPost2010PropOp37
 70
     1
102
RTVSPost2010Prop38
140
0.0
102
RTVSPost2010PropOp38
 70
     1
102
RTVSPost2010Prop39
140
1.0
102
RTVSPost2010PropOp39
 70
     1
102
RTVSPost2010Prop40
 90
        0
102
RTVSPost2010PropOp40
 70
     1
102
RTVSPost2010Prop41ColorIndex
 90
       18
102
RTVSPost2010Prop41ColorRGB
 90
        0
102
RTVSPost2010PropOp41
 70
     1
102
RTVSPost2010Prop42
 90
       50
102
RTVSPost2010PropOp42
 70
     1
102
RTVSPost2010Prop43
 90
        3
102
RTVSPost2010PropOp43
 70
     1
102
RTVSPost2010Prop44ColorIndex
 90
        5
102
RTVSPost2010Prop44ColorRGB
 90
      255
102
RTVSPost2010PropOp44
 70
     1
102
RTVSPost2010Prop45
280
     0
102
RTVSPost2010PropOp45
 70
     1
102
RTVSPost2010Prop46
 90
       50
102
RTVSPost2010PropOp46
 70
     1
102
RTVSPost2010Prop47
 90
       50
102
RTVSPost2010PropOp47
 70
     1
102
RTVSPost2010Prop48
 90
       50
102
RTVSPost2010PropOp48
 70
     1
102
RTVSPost2010Prop49
280
     0
102
RTVSPost2010PropOp49
 70
     1
102
RTVSPost2010Prop50
 90
       50
102
RTVSPost2010PropOp50
 70
     1
102
RTVSPost2010Prop51ColorIndex
 90
      256
102
RTVSPost2010Prop51ColorRGB
 90
-16777216
102
RTVSPost2010PropOp51
 70
     0
102
RTVSPost2010Prop52
140
1.0
102
RTVSPost2010PropOp52
 70
     0
102
RTVSPost2010Prop53
 90
        2
102
RTVSPost2010PropOp53
 70
     1
102
RTVSPost2010Prop54
  1
strokes_ogs.tif
102
RTVSPost2010PropOp54
 70
     1
102
RTVSPost2010Prop55
280
     0
102
RTVSPost2010PropOp55
 70
     1
102
RTVSPost2010Prop56
140
1.0
102
RTVSPost2010PropOp56
 70
     1
102
RTVSPost2010Prop57
140
1.0
102
RTVSPost2010PropOp57
 70
     1
  0
XRECORD
  5
21C
102
{ACAD_REACTORS
330
21B
102
}
330
21B
100
AcDbXrecord
280
     1
102
RTVSPropertyOp0
 70
     1
102
RTVSPropertyOp1
 70
     1
102
RTVSPropertyOp2
 70
     1
102
RTVSPropertyOp3
 70
     1
102
RTVSPropertyOp4
 70
     1
102
RTVSPropertyOp5
 70
     1
102
RTVSPropertyOp6
 70
     1
102
RTVSPropertyOp7
 70
     1
102
RTVSPropertyOp8
 70
     1
102
RTVSPropertyOp9
 70
     1
102
RTVSPropertyOp10
 70
     1
102
RTVSPropertyOp11
 70
     1
102
RTVSPropertyOp12
 70
     1
102
RTVSPropertyOp13
 70
     1
102
RTVSPropertyOp14
 70
     1
102
RTVSPropertyOp15
 70
     1
102
RTVSPropertyOp16
 70
     1
102
RTVSPropertyOp17
 70
     1
102
RTVSPropertyOp18
 70
     1
102
RTVSPropertyOp19
 70
     1
102
RTVSPropertyOp20
 70
     1
102
RTVSPropertyOp21
 70
     1
102
RTVSPropertyOp22
 70
     1
102
RTVSPropertyOp23
 70
     1
102
RTVSPropertyOp24
 70
     1
102
RTVSPropertyOp25
 70
     1
102
RTVSPropertyOp26
 70
     1
102
RTVSPropertyOp27
 70
     1
102
RTVSPropertyOp28
 70
     1
102
RTVSPropertyOp29
 70
     1
102
RTVSPropertyOp30
 70
     1
102
RTVSPropertyOp31
 70
     1
102
RTVSPropertyOp32
 70
     1
102
RTVSPropertyOp33
 70
     1
102
RTVSPropertyOp34
 70
     1
102
RTVSPropertyOp35
 70
     1
102
RTVSPropertyOp36
 70
     1
102
RTVSPropertyOp37
 70
     1
102
RTVSPropertyOp38
 70
     1
102
RTVSPropertyOp39
 70
     1
102
RTVSPropertyOp40
 70
     1
102
RTVSPropertyOp41
 70
     1
102
RTVSPropertyOp42
 70
     1
102
RTVSPropertyOp43
 70
     1
102
RTVSPropertyOp44
 70
     1
102
RTVSPropertyOp45
 70
     1
102
RTVSPropertyOp46
 70
     1
102
RTVSPropertyOp47
 70
     1
102
RTVSPropertyOp48
 70
     1
102
RTVSPropertyOp49
 70
     1
102
RTVSPropertyOp50
 70
     1
102
RTVSPropertyOp51
 70
     0
102
RTVSPropertyOp52
 70
     0
102
RTVSPropertyOp53
 70
     1
102
RTVSPropertyOp54
 70
     1
102
RTVSPropertyOp55
 70
     1
102
RTVSPropertyOp56
 70
     1
102
RTVSPropertyOp57
 70
     1
102
RTVSPost2010Prop28
280
     0
102
RTVSPost2010PropOp28
 70
     1
102
RTVSPost2010Prop29
280
     1
102
RTVSPost2010PropOp29
 70
     1
102
RTVSPost2010Prop30
280
     1
102
RTVSPost2010PropOp30
 70
     1
102
RTVSPost2010Prop31
280
     0
102
RTVSPost2010PropOp31
 70
     1
102
RTVSPost2010Prop32
280
     0
102
RTVSPost2010PropOp32
 70
     1
102
RTVSPost2010Prop33
280
     0
102
RTVSPost2010PropOp33
 70
     1
102
RTVSPost2010Prop34
280
     0
102
RTVSPost2010PropOp34
 70
     1
102
RTVSPost2010Prop35
280
     0
102
RTVSPost2010PropOp35
 70
     1
102
RTVSPost2010Prop36
280
     0
102
RTVSPost2010PropOp36
 70
     1
102
RTVSPost2010Prop37
 90
       50
102
RTVSPost2010PropOp37
 70
     1
102
RTVSPost2010Prop38
140
0.0
102
RTVSPost2010PropOp38
 70
     1
102
RTVSPost2010Prop39
140
1.0
102
RTVSPost2010PropOp39
 70
     1
102
RTVSPost2010Prop40
 90
        0
102
RTVSPost2010PropOp40
 70
     1
102
RTVSPost2010Prop41ColorIndex
 90
       18
102
RTVSPost2010Prop41ColorRGB
 90
        0
102
RTVSPost2010PropOp41
 70
     1
102
RTVSPost2010Prop42
 90
       50
102
RTVSPost2010PropOp42
 70
     1
102
RTVSPost2010Prop43
 90
        3
102
RTVSPost2010PropOp43
 70
     1
102
RTVSPost2010Prop44ColorIndex
 90
        5
102
RTVSPost2010Prop44ColorRGB
 90
      255
102
RTVSPost2010PropOp44
 70
     1
102
RTVSPost2010Prop45
280
     0
102
RTVSPost2010PropOp45
 70
     1
102
RTVSPost2010Prop46
 90
       50
102
RTVSPost2010PropOp46
 70
     1
102
RTVSPost2010Prop47
 90
       50
102
RTVSPost2010PropOp47
 70
     1
102
RTVSPost2010Prop48
 90
       50
102
RTVSPost2010PropOp48
 70
     1
102
RTVSPost2010Prop49
280
     0
102
RTVSPost2010PropOp49
 70
     1
102
RTVSPost2010Prop50
 90
       50
102
RTVSPost2010PropOp50
 70
     1
102
RTVSPost2010Prop51ColorIndex
 90
      256
102
RTVSPost2010Prop51ColorRGB
 90
-16777216
102
RTVSPost2010PropOp51
 70
     0
102
RTVSPost2010Prop52
140
1.0
102
RTVSPost2010PropOp52
 70
     0
102
RTVSPost2010Prop53
 90
        2
102
RTVSPost2010PropOp53
 70
     1
102
RTVSPost2010Prop54
  1
strokes_ogs.tif
102
RTVSPost2010PropOp54
 70
     1
102
RTVSPost2010Prop55
280
     0
102
RTVSPost2010PropOp55
 70
     1
102
RTVSPost2010Prop56
140
1.0
102
RTVSPost2010PropOp56
 70
     1
102
RTVSPost2010Prop57
140
1.0
102
RTVSPost2010PropOp57
 70
     1
  0
XRECORD
  5
210
102
{ACAD_REACTORS
330
20F
102
}
330
20F
100
AcDbXrecord
280
     1
102
RTVSPropertyOp0
 70
     1
102
RTVSPropertyOp1
 70
     1
102
RTVSPropertyOp2
 70
     1
102
RTVSPropertyOp3
 70
     1
102
RTVSPropertyOp4
 70
     1
102
RTVSPropertyOp5
 70
     1
102
RTVSPropertyOp6
 70
     1
102
RTVSPropertyOp7
 70
     1
102
RTVSPropertyOp8
 70
     1
102
RTVSPropertyOp9
 70
     1
102
RTVSPropertyOp10
 70
     1
102
RTVSPropertyOp11
 70
     1
102
RTVSPropertyOp12
 70
     1
102
RTVSPropertyOp13
 70
     1
102
RTVSPropertyOp14
 70
     1
102
RTVSPropertyOp15
 70
     1
102
RTVSPropertyOp16
 70
     1
102
RTVSPropertyOp17
 70
     1
102
RTVSPropertyOp18
 70
     1
102
RTVSPropertyOp19
 70
     1
102
RTVSPropertyOp20
 70
     1
102
RTVSPropertyOp21
 70
     1
102
RTVSPropertyOp22
 70
     1
102
RTVSPropertyOp23
 70
     1
102
RTVSPropertyOp24
 70
     1
102
RTVSPropertyOp25
 70
     1
102
RTVSPropertyOp26
 70
     1
102
RTVSPropertyOp27
 70
     1
102
RTVSPropertyOp28
 70
     1
102
RTVSPropertyOp29
 70
     1
102
RTVSPropertyOp30
 70
     1
102
RTVSPropertyOp31
 70
     1
102
RTVSPropertyOp32
 70
     1
102
RTVSPropertyOp33
 70
     1
102
RTVSPropertyOp34
 70
     1
102
RTVSPropertyOp35
 70
     1
102
RTVSPropertyOp36
 70
     1
102
RTVSPropertyOp37
 70
     1
102
RTVSPropertyOp38
 70
     1
102
RTVSPropertyOp39
 70
     1
102
RTVSPropertyOp40
 70
     1
102
RTVSPropertyOp41
 70
     1
102
RTVSPropertyOp42
 70
     1
102
RTVSPropertyOp43
 70
     1
102
RTVSPropertyOp44
 70
     1
102
RTVSPropertyOp45
 70
     1
102
RTVSPropertyOp46
 70
     1
102
RTVSPropertyOp47
 70
     1
102
RTVSPropertyOp48
 70
     1
102
RTVSPropertyOp49
 70
     1
102
RTVSPropertyOp50
 70
     1
102
RTVSPropertyOp51
 70
     0
102
RTVSPropertyOp52
 70
     0
102
RTVSPropertyOp53
 70
     1
102
RTVSPropertyOp54
 70
     1
102
RTVSPropertyOp55
 70
     1
102
RTVSPropertyOp56
 70
     1
102
RTVSPropertyOp57
 70
     1
102
RTVSPost2010Prop28
280
     0
102
RTVSPost2010PropOp28
 70
     1
102
RTVSPost2010Prop29
280
     1
102
RTVSPost2010PropOp29
 70
     1
102
RTVSPost2010Prop30
280
     1
102
RTVSPost2010PropOp30
 70
     1
102
RTVSPost2010Prop31
280
     0
102
RTVSPost2010PropOp31
 70
     1
102
RTVSPost2010Prop32
280
     0
102
RTVSPost2010PropOp32
 70
     1
102
RTVSPost2010Prop33
280
     0
102
RTVSPost2010PropOp33
 70
     1
102
RTVSPost2010Prop34
280
     0
102
RTVSPost2010PropOp34
 70
     1
102
RTVSPost2010Prop35
280
     0
102
RTVSPost2010PropOp35
 70
     1
102
RTVSPost2010Prop36
280
     0
102
RTVSPost2010PropOp36
 70
     1
102
RTVSPost2010Prop37
 90
       50
102
RTVSPost2010PropOp37
 70
     1
102
RTVSPost2010Prop38
140
0.0
102
RTVSPost2010PropOp38
 70
     1
102
RTVSPost2010Prop39
140
1.0
102
RTVSPost2010PropOp39
 70
     1
102
RTVSPost2010Prop40
 90
        0
102
RTVSPost2010PropOp40
 70
     1
102
RTVSPost2010Prop41ColorIndex
 90
       18
102
RTVSPost2010Prop41ColorRGB
 90
        0
102
RTVSPost2010PropOp41
 70
     1
102
RTVSPost2010Prop42
 90
       50
102
RTVSPost2010PropOp42
 70
     1
102
RTVSPost2010Prop43
 90
        3
102
RTVSPost2010PropOp43
 70
     1
102
RTVSPost2010Prop44ColorIndex
 90
        5
102
RTVSPost2010Prop44ColorRGB
 90
      255
102
RTVSPost2010PropOp44
 70
     1
102
RTVSPost2010Prop45
280
     0
102
RTVSPost2010PropOp45
 70
     1
102
RTVSPost2010Prop46
 90
       50
102
RTVSPost2010PropOp46
 70
     1
102
RTVSPost2010Prop47
 90
       50
102
RTVSPost2010PropOp47
 70
     1
102
RTVSPost2010Prop48
 90
       50
102
RTVSPost2010PropOp48
 70
     1
102
RTVSPost2010Prop49
280
     0
102
RTVSPost2010PropOp49
 70
     1
102
RTVSPost2010Prop50
 90
       50
102
RTVSPost2010PropOp50
 70
     1
102
RTVSPost2010Prop51ColorIndex
 90
      256
102
RTVSPost2010Prop51ColorRGB
 90
-16777216
102
RTVSPost2010PropOp51
 70
     0
102
RTVSPost2010Prop52
140
1.0
102
RTVSPost2010PropOp52
 70
     0
102
RTVSPost2010Prop53
 90
        2
102
RTVSPost2010PropOp53
 70
     1
102
RTVSPost2010Prop54
  1
strokes_ogs.tif
102
RTVSPost2010PropOp54
 70
     1
102
RTVSPost2010Prop55
280
     0
102
RTVSPost2010PropOp55
 70
     1
102
RTVSPost2010Prop56
140
1.0
102
RTVSPost2010PropOp56
 70
     1
102
RTVSPost2010Prop57
140
1.0
102
RTVSPost2010PropOp57
 70
     1
  0
XRECORD
  5
212
102
{ACAD_REACTORS
330
211
102
}
330
211
100
AcDbXrecord
280
     1
102
RTVSPropertyOp0
 70
     1
102
RTVSPropertyOp1
 70
     1
102
RTVSPropertyOp2
 70
     1
102
RTVSPropertyOp3
 70
     1
102
RTVSPropertyOp4
 70
     1
102
RTVSPropertyOp5
 70
     1
102
RTVSPropertyOp6
 70
     1
102
RTVSPropertyOp7
 70
     1
102
RTVSPropertyOp8
 70
     1
102
RTVSPropertyOp9
 70
     1
102
RTVSPropertyOp10
 70
     1
102
RTVSPropertyOp11
 70
     1
102
RTVSPropertyOp12
 70
     1
102
RTVSPropertyOp13
 70
     1
102
RTVSPropertyOp14
 70
     1
102
RTVSPropertyOp15
 70
     1
102
RTVSPropertyOp16
 70
     1
102
RTVSPropertyOp17
 70
     1
102
RTVSPropertyOp18
 70
     1
102
RTVSPropertyOp19
 70
     1
102
RTVSPropertyOp20
 70
     1
102
RTVSPropertyOp21
 70
     1
102
RTVSPropertyOp22
 70
     1
102
RTVSPropertyOp23
 70
     1
102
RTVSPropertyOp24
 70
     1
102
RTVSPropertyOp25
 70
     1
102
RTVSPropertyOp26
 70
     1
102
RTVSPropertyOp27
 70
     1
102
RTVSPropertyOp28
 70
     1
102
RTVSPropertyOp29
 70
     1
102
RTVSPropertyOp30
 70
     1
102
RTVSPropertyOp31
 70
     1
102
RTVSPropertyOp32
 70
     1
102
RTVSPropertyOp33
 70
     1
102
RTVSPropertyOp34
 70
     1
102
RTVSPropertyOp35
 70
     1
102
RTVSPropertyOp36
 70
     1
102
RTVSPropertyOp37
 70
     1
102
RTVSPropertyOp38
 70
     1
102
RTVSPropertyOp39
 70
     1
102
RTVSPropertyOp40
 70
     1
102
RTVSPropertyOp41
 70
     1
102
RTVSPropertyOp42
 70
     1
102
RTVSPropertyOp43
 70
     1
102
RTVSPropertyOp44
 70
     1
102
RTVSPropertyOp45
 70
     1
102
RTVSPropertyOp46
 70
     1
102
RTVSPropertyOp47
 70
     1
102
RTVSPropertyOp48
 70
     1
102
RTVSPropertyOp49
 70
     1
102
RTVSPropertyOp50
 70
     1
102
RTVSPropertyOp51
 70
     0
102
RTVSPropertyOp52
 70
     0
102
RTVSPropertyOp53
 70
     1
102
RTVSPropertyOp54
 70
     1
102
RTVSPropertyOp55
 70
     1
102
RTVSPropertyOp56
 70
     1
102
RTVSPropertyOp57
 70
     1
102
RTVSPost2010Prop28
280
     0
102
RTVSPost2010PropOp28
 70
     1
102
RTVSPost2010Prop29
280
     1
102
RTVSPost2010PropOp29
 70
     1
102
RTVSPost2010Prop30
280
     1
102
RTVSPost2010PropOp30
 70
     1
102
RTVSPost2010Prop31
280
     0
102
RTVSPost2010PropOp31
 70
     1
102
RTVSPost2010Prop32
280
     0
102
RTVSPost2010PropOp32
 70
     1
102
RTVSPost2010Prop33
280
     0
102
RTVSPost2010PropOp33
 70
     1
102
RTVSPost2010Prop34
280
     0
102
RTVSPost2010PropOp34
 70
     1
102
RTVSPost2010Prop35
280
     0
102
RTVSPost2010PropOp35
 70
     1
102
RTVSPost2010Prop36
280
     0
102
RTVSPost2010PropOp36
 70
     1
102
RTVSPost2010Prop37
 90
       50
102
RTVSPost2010PropOp37
 70
     1
102
RTVSPost2010Prop38
140
0.0
102
RTVSPost2010PropOp38
 70
     1
102
RTVSPost2010Prop39
140
1.0
102
RTVSPost2010PropOp39
 70
     1
102
RTVSPost2010Prop40
 90
        0
102
RTVSPost2010PropOp40
 70
     1
102
RTVSPost2010Prop41ColorIndex
 90
       18
102
RTVSPost2010Prop41ColorRGB
 90
        0
102
RTVSPost2010PropOp41
 70
     1
102
RTVSPost2010Prop42
 90
       50
102
RTVSPost2010PropOp42
 70
     1
102
RTVSPost2010Prop43
 90
        3
102
RTVSPost2010PropOp43
 70
     1
102
RTVSPost2010Prop44ColorIndex
 90
        5
102
RTVSPost2010Prop44ColorRGB
 90
      255
102
RTVSPost2010PropOp44
 70
     1
102
RTVSPost2010Prop45
280
     0
102
RTVSPost2010PropOp45
 70
     1
102
RTVSPost2010Prop46
 90
       50
102
RTVSPost2010PropOp46
 70
     1
102
RTVSPost2010Prop47
 90
       50
102
RTVSPost2010PropOp47
 70
     1
102
RTVSPost2010Prop48
 90
       50
102
RTVSPost2010PropOp48
 70
     1
102
RTVSPost2010Prop49
280
     0
102
RTVSPost2010PropOp49
 70
     1
102
RTVSPost2010Prop50
 90
       50
102
RTVSPost2010PropOp50
 70
     1
102
RTVSPost2010Prop51ColorIndex
 90
      256
102
RTVSPost2010Prop51ColorRGB
 90
-16777216
102
RTVSPost2010PropOp51
 70
     0
102
RTVSPost2010Prop52
140
1.0
102
RTVSPost2010PropOp52
 70
     0
102
RTVSPost2010Prop53
 90
        2
102
RTVSPost2010PropOp53
 70
     1
102
RTVSPost2010Prop54
  1
strokes_ogs.tif
102
RTVSPost2010PropOp54
 70
     1
102
RTVSPost2010Prop55
280
     0
102
RTVSPost2010PropOp55
 70
     1
102
RTVSPost2010Prop56
140
1.0
102
RTVSPost2010PropOp56
 70
     1
102
RTVSPost2010Prop57
140
1.0
102
RTVSPost2010PropOp57
 70
     1
  0
XRECORD
  5
222
102
{ACAD_REACTORS
330
221
102
}
330
221
100
AcDbXrecord
280
     1
102
RTVSPropertyOp0
 70
     0
102
RTVSPropertyOp1
 70
     0
102
RTVSPropertyOp2
 70
     0
102
RTVSPropertyOp3
 70
     0
102
RTVSPropertyOp4
 70
     0
102
RTVSPropertyOp5
 70
     0
102
RTVSPropertyOp6
 70
     0
102
RTVSPropertyOp7
 70
     0
102
RTVSPropertyOp8
 70
     0
102
RTVSPropertyOp9
 70
     0
102
RTVSPropertyOp10
 70
     0
102
RTVSPropertyOp11
 70
     0
102
RTVSPropertyOp12
 70
     0
102
RTVSPropertyOp13
 70
     0
102
RTVSPropertyOp14
 70
     2
102
RTVSPropertyOp15
 70
     0
102
RTVSPropertyOp16
 70
     0
102
RTVSPropertyOp17
 70
     0
102
RTVSPropertyOp18
 70
     0
102
RTVSPropertyOp19
 70
     0
102
RTVSPropertyOp20
 70
     0
102
RTVSPropertyOp21
 70
     0
102
RTVSPropertyOp22
 70
     0
102
RTVSPropertyOp23
 70
     0
102
RTVSPropertyOp24
 70
     0
102
RTVSPropertyOp25
 70
     0
102
RTVSPropertyOp26
 70
     0
102
RTVSPropertyOp27
 70
     0
102
RTVSPropertyOp28
 70
     0
102
RTVSPropertyOp29
 70
     0
102
RTVSPropertyOp30
 70
     0
102
RTVSPropertyOp31
 70
     0
102
RTVSPropertyOp32
 70
     0
102
RTVSPropertyOp33
 70
     0
102
RTVSPropertyOp34
 70
     0
102
RTVSPropertyOp35
 70
     0
102
RTVSPropertyOp36
 70
     0
102
RTVSPropertyOp37
 70
     0
102
RTVSPropertyOp38
 70
     0
102
RTVSPropertyOp39
 70
     0
102
RTVSPropertyOp40
 70
     0
102
RTVSPropertyOp41
 70
     0
102
RTVSPropertyOp42
 70
     0
102
RTVSPropertyOp43
 70
     0
102
RTVSPropertyOp44
 70
     0
102
RTVSPropertyOp45
 70
     0
102
RTVSPropertyOp46
 70
     0
102
RTVSPropertyOp47
 70
     0
102
RTVSPropertyOp48
 70
     0
102
RTVSPropertyOp49
 70
     0
102
RTVSPropertyOp50
 70
     0
102
RTVSPropertyOp51
 70
     0
102
RTVSPropertyOp52
 70
     0
102
RTVSPropertyOp53
 70
     0
102
RTVSPropertyOp54
 70
     0
102
RTVSPropertyOp55
 70
     0
102
RTVSPropertyOp56
 70
     0
102
RTVSPropertyOp57
 70
     0
102
RTVSPost2010Prop28
280
     0
102
RTVSPost2010PropOp28
 70
     0
102
RTVSPost2010Prop29
280
     1
102
RTVSPost2010PropOp29
 70
     0
102
RTVSPost2010Prop30
280
     1
102
RTVSPost2010PropOp30
 70
     0
102
RTVSPost2010Prop31
280
     0
102
RTVSPost2010PropOp31
 70
     0
102
RTVSPost2010Prop32
280
     0
102
RTVSPost2010PropOp32
 70
     0
102
RTVSPost2010Prop33
280
     0
102
RTVSPost2010PropOp33
 70
     0
102
RTVSPost2010Prop34
280
     0
102
RTVSPost2010PropOp34
 70
     0
102
RTVSPost2010Prop35
280
     0
102
RTVSPost2010PropOp35
 70
     0
102
RTVSPost2010Prop36
280
     0
102
RTVSPost2010PropOp36
 70
     0
102
RTVSPost2010Prop37
 90
       50
102
RTVSPost2010PropOp37
 70
     0
102
RTVSPost2010Prop38
140
0.0
102
RTVSPost2010PropOp38
 70
     0
102
RTVSPost2010Prop39
140
1.0
102
RTVSPost2010PropOp39
 70
     0
102
RTVSPost2010Prop40
 90
        0
102
RTVSPost2010PropOp40
 70
     0
102
RTVSPost2010Prop41ColorIndex
 90
       18
102
RTVSPost2010Prop41ColorRGB
 90
        0
102
RTVSPost2010PropOp41
 70
     0
102
RTVSPost2010Prop42
 90
       50
102
RTVSPost2010PropOp42
 70
     0
102
RTVSPost2010Prop43
 90
        3
102
RTVSPost2010PropOp43
 70
     0
102
RTVSPost2010Prop44ColorIndex
 90
        5
102
RTVSPost2010Prop44ColorRGB
 90
      255
102
RTVSPost2010PropOp44
 70
     0
102
RTVSPost2010Prop45
280
     0
102
RTVSPost2010PropOp45
 70
     0
102
RTVSPost2010Prop46
 90
       50
102
RTVSPost2010PropOp46
 70
     0
102
RTVSPost2010Prop47
 90
       50
102
RTVSPost2010PropOp47
 70
     0
102
RTVSPost2010Prop48
 90
       50
102
RTVSPost2010PropOp48
 70
     0
102
RTVSPost2010Prop49
280
     0
102
RTVSPost2010PropOp49
 70
     0
102
RTVSPost2010Prop50
 90
       50
102
RTVSPost2010PropOp50
 70
     0
102
RTVSPost2010Prop51ColorIndex
 90
      256
102
RTVSPost2010Prop51ColorRGB
 90
-16777216
102
RTVSPost2010PropOp51
 70
     0
102
RTVSPost2010Prop52
140
1.0
102
RTVSPost2010PropOp52
 70
     0
102
RTVSPost2010Prop53
 90
        2
102
RTVSPost2010PropOp53
 70
     0
102
RTVSPost2010Prop54
  1
strokes_ogs.tif
102
RTVSPost2010PropOp54
 70
     0
102
RTVSPost2010Prop55
280
     0
102
RTVSPost2010PropOp55
 70
     0
102
RTVSPost2010Prop56
140
1.0
102
RTVSPost2010PropOp56
 70
     0
102
RTVSPost2010Prop57
140
1.0
102
RTVSPost2010PropOp57
 70
     0
  0
XRECORD
  5
21A
102
{ACAD_REACTORS
330
219
102
}
330
219
100
AcDbXrecord
280
     1
102
RTVSPropertyOp0
 70
     1
102
RTVSPropertyOp1
 70
     1
102
RTVSPropertyOp2
 70
     1
102
RTVSPropertyOp3
 70
     1
102
RTVSPropertyOp4
 70
     1
102
RTVSPropertyOp5
 70
     1
102
RTVSPropertyOp6
 70
     1
102
RTVSPropertyOp7
 70
     1
102
RTVSPropertyOp8
 70
     1
102
RTVSPropertyOp9
 70
     1
102
RTVSPropertyOp10
 70
     1
102
RTVSPropertyOp11
 70
     1
102
RTVSPropertyOp12
 70
     1
102
RTVSPropertyOp13
 70
     1
102
RTVSPropertyOp14
 70
     1
102
RTVSPropertyOp15
 70
     1
102
RTVSPropertyOp16
 70
     1
102
RTVSPropertyOp17
 70
     1
102
RTVSPropertyOp18
 70
     1
102
RTVSPropertyOp19
 70
     1
102
RTVSPropertyOp20
 70
     1
102
RTVSPropertyOp21
 70
     1
102
RTVSPropertyOp22
 70
     1
102
RTVSPropertyOp23
 70
     1
102
RTVSPropertyOp24
 70
     1
102
RTVSPropertyOp25
 70
     1
102
RTVSPropertyOp26
 70
     1
102
RTVSPropertyOp27
 70
     1
102
RTVSPropertyOp28
 70
     1
102
RTVSPropertyOp29
 70
     1
102
RTVSPropertyOp30
 70
     1
102
RTVSPropertyOp31
 70
     1
102
RTVSPropertyOp32
 70
     1
102
RTVSPropertyOp33
 70
     1
102
RTVSPropertyOp34
 70
     1
102
RTVSPropertyOp35
 70
     1
102
RTVSPropertyOp36
 70
     1
102
RTVSPropertyOp37
 70
     1
102
RTVSPropertyOp38
 70
     1
102
RTVSPropertyOp39
 70
     1
102
RTVSPropertyOp40
 70
     1
102
RTVSPropertyOp41
 70
     1
102
RTVSPropertyOp42
 70
     1
102
RTVSPropertyOp43
 70
     1
102
RTVSPropertyOp44
 70
     1
102
RTVSPropertyOp45
 70
     1
102
RTVSPropertyOp46
 70
     1
102
RTVSPropertyOp47
 70
     1
102
RTVSPropertyOp48
 70
     1
102
RTVSPropertyOp49
 70
     1
102
RTVSPropertyOp50
 70
     1
102
RTVSPropertyOp51
 70
     0
102
RTVSPropertyOp52
 70
     0
102
RTVSPropertyOp53
 70
     1
102
RTVSPropertyOp54
 70
     1
102
RTVSPropertyOp55
 70
     1
102
RTVSPropertyOp56
 70
     1
102
RTVSPropertyOp57
 70
     1
102
RTVSPost2010Prop28
280
     0
102
RTVSPost2010PropOp28
 70
     1
102
RTVSPost2010Prop29
280
     1
102
RTVSPost2010PropOp29
 70
     1
102
RTVSPost2010Prop30
280
     1
102
RTVSPost2010PropOp30
 70
     1
102
RTVSPost2010Prop31
280
     0
102
RTVSPost2010PropOp31
 70
     1
102
RTVSPost2010Prop32
280
     0
102
RTVSPost2010PropOp32
 70
     1
102
RTVSPost2010Prop33
280
     0
102
RTVSPost2010PropOp33
 70
     1
102
RTVSPost2010Prop34
280
     0
102
RTVSPost2010PropOp34
 70
     1
102
RTVSPost2010Prop35
280
     0
102
RTVSPost2010PropOp35
 70
     1
102
RTVSPost2010Prop36
280
     0
102
RTVSPost2010PropOp36
 70
     1
102
RTVSPost2010Prop37
 90
       50
102
RTVSPost2010PropOp37
 70
     1
102
RTVSPost2010Prop38
140
0.0
102
RTVSPost2010PropOp38
 70
     1
102
RTVSPost2010Prop39
140
1.0
102
RTVSPost2010PropOp39
 70
     1
102
RTVSPost2010Prop40
 90
        0
102
RTVSPost2010PropOp40
 70
     1
102
RTVSPost2010Prop41ColorIndex
 90
       18
102
RTVSPost2010Prop41ColorRGB
 90
        0
102
RTVSPost2010PropOp41
 70
     1
102
RTVSPost2010Prop42
 90
       50
102
RTVSPost2010PropOp42
 70
     1
102
RTVSPost2010Prop43
 90
        3
102
RTVSPost2010PropOp43
 70
     1
102
RTVSPost2010Prop44ColorIndex
 90
        5
102
RTVSPost2010Prop44ColorRGB
 90
      255
102
RTVSPost2010PropOp44
 70
     1
102
RTVSPost2010Prop45
280
     0
102
RTVSPost2010PropOp45
 70
     1
102
RTVSPost2010Prop46
 90
       50
102
RTVSPost2010PropOp46
 70
     1
102
RTVSPost2010Prop47
 90
       50
102
RTVSPost2010PropOp47
 70
     1
102
RTVSPost2010Prop48
 90
       50
102
RTVSPost2010PropOp48
 70
     1
102
RTVSPost2010Prop49
280
     0
102
RTVSPost2010PropOp49
 70
     1
102
RTVSPost2010Prop50
 90
       50
102
RTVSPost2010PropOp50
 70
     1
102
RTVSPost2010Prop51ColorIndex
 90
      256
102
RTVSPost2010Prop51ColorRGB
 90
-16777216
102
RTVSPost2010PropOp51
 70
     0
102
RTVSPost2010Prop52
140
1.0
102
RTVSPost2010PropOp52
 70
     0
102
RTVSPost2010Prop53
 90
        2
102
RTVSPost2010PropOp53
 70
     1
102
RTVSPost2010Prop54
  1
strokes_ogs.tif
102
RTVSPost2010PropOp54
 70
     1
102
RTVSPost2010Prop55
280
     0
102
RTVSPost2010PropOp55
 70
     1
102
RTVSPost2010Prop56
140
1.0
102
RTVSPost2010PropOp56
 70
     1
102
RTVSPost2010Prop57
140
1.0
102
RTVSPost2010PropOp57
 70
     1
  0
XRECORD
  5
1FE
102
{ACAD_REACTORS
330
1FD
102
}
330
1FD
100
AcDbXrecord
280
     1
102
RTVSPropertyOp0
 70
     1
102
RTVSPropertyOp1
 70
     1
102
RTVSPropertyOp2
 70
     1
102
RTVSPropertyOp3
 70
     1
102
RTVSPropertyOp4
 70
     1
102
RTVSPropertyOp5
 70
     1
102
RTVSPropertyOp6
 70
     1
102
RTVSPropertyOp7
 70
     1
102
RTVSPropertyOp8
 70
     1
102
RTVSPropertyOp9
 70
     1
102
RTVSPropertyOp10
 70
     1
102
RTVSPropertyOp11
 70
     1
102
RTVSPropertyOp12
 70
     1
102
RTVSPropertyOp13
 70
     1
102
RTVSPropertyOp14
 70
     1
102
RTVSPropertyOp15
 70
     1
102
RTVSPropertyOp16
 70
     1
102
RTVSPropertyOp17
 70
     1
102
RTVSPropertyOp18
 70
     1
102
RTVSPropertyOp19
 70
     1
102
RTVSPropertyOp20
 70
     1
102
RTVSPropertyOp21
 70
     1
102
RTVSPropertyOp22
 70
     1
102
RTVSPropertyOp23
 70
     1
102
RTVSPropertyOp24
 70
     1
102
RTVSPropertyOp25
 70
     1
102
RTVSPropertyOp26
 70
     1
102
RTVSPropertyOp27
 70
     1
102
RTVSPropertyOp28
 70
     1
102
RTVSPropertyOp29
 70
     1
102
RTVSPropertyOp30
 70
     1
102
RTVSPropertyOp31
 70
     1
102
RTVSPropertyOp32
 70
     1
102
RTVSPropertyOp33
 70
     1
102
RTVSPropertyOp34
 70
     1
102
RTVSPropertyOp35
 70
     1
102
RTVSPropertyOp36
 70
     1
102
RTVSPropertyOp37
 70
     1
102
RTVSPropertyOp38
 70
     1
102
RTVSPropertyOp39
 70
     1
102
RTVSPropertyOp40
 70
     1
102
RTVSPropertyOp41
 70
     1
102
RTVSPropertyOp42
 70
     1
102
RTVSPropertyOp43
 70
     1
102
RTVSPropertyOp44
 70
     1
102
RTVSPropertyOp45
 70
     1
102
RTVSPropertyOp46
 70
     1
102
RTVSPropertyOp47
 70
     1
102
RTVSPropertyOp48
 70
     1
102
RTVSPropertyOp49
 70
     1
102
RTVSPropertyOp50
 70
     1
102
RTVSPropertyOp51
 70
     0
102
RTVSPropertyOp52
 70
     0
102
RTVSPropertyOp53
 70
     1
102
RTVSPropertyOp54
 70
     1
102
RTVSPropertyOp55
 70
     1
102
RTVSPropertyOp56
 70
     1
102
RTVSPropertyOp57
 70
     1
102
RTVSPost2010Prop28
280
     0
102
RTVSPost2010PropOp28
 70
     1
102
RTVSPost2010Prop29
280
     1
102
RTVSPost2010PropOp29
 70
     1
102
RTVSPost2010Prop30
280
     1
102
RTVSPost2010PropOp30
 70
     1
102
RTVSPost2010Prop31
280
     0
102
RTVSPost2010PropOp31
 70
     1
102
RTVSPost2010Prop32
280
     0
102
RTVSPost2010PropOp32
 70
     1
102
RTVSPost2010Prop33
280
     0
102
RTVSPost2010PropOp33
 70
     1
102
RTVSPost2010Prop34
280
     0
102
RTVSPost2010PropOp34
 70
     1
102
RTVSPost2010Prop35
280
     0
102
RTVSPost2010PropOp35
 70
     1
102
RTVSPost2010Prop36
280
     0
102
RTVSPost2010PropOp36
 70
     1
102
RTVSPost2010Prop37
 90
       50
102
RTVSPost2010PropOp37
 70
     1
102
RTVSPost2010Prop38
140
0.0
102
RTVSPost2010PropOp38
 70
     1
102
RTVSPost2010Prop39
140
1.0
102
RTVSPost2010PropOp39
 70
     1
102
RTVSPost2010Prop40
 90
        0
102
RTVSPost2010PropOp40
 70
     1
102
RTVSPost2010Prop41ColorIndex
 90
       18
102
RTVSPost2010Prop41ColorRGB
 90
        0
102
RTVSPost2010PropOp41
 70
     1
102
RTVSPost2010Prop42
 90
       50
102
RTVSPost2010PropOp42
 70
     1
102
RTVSPost2010Prop43
 90
        3
102
RTVSPost2010PropOp43
 70
     1
102
RTVSPost2010Prop44ColorIndex
 90
        5
102
RTVSPost2010Prop44ColorRGB
 90
      255
102
RTVSPost2010PropOp44
 70
     1
102
RTVSPost2010Prop45
280
     0
102
RTVSPost2010PropOp45
 70
     1
102
RTVSPost2010Prop46
 90
       50
102
RTVSPost2010PropOp46
 70
     1
102
RTVSPost2010Prop47
 90
       50
102
RTVSPost2010PropOp47
 70
     1
102
RTVSPost2010Prop48
 90
       50
102
RTVSPost2010PropOp48
 70
     1
102
RTVSPost2010Prop49
280
     0
102
RTVSPost2010PropOp49
 70
     1
102
RTVSPost2010Prop50
 90
       50
102
RTVSPost2010PropOp50
 70
     1
102
RTVSPost2010Prop51ColorIndex
 90
      256
102
RTVSPost2010Prop51ColorRGB
 90
-16777216
102
RTVSPost2010PropOp51
 70
     0
102
RTVSPost2010Prop52
140
1.0
102
RTVSPost2010PropOp52
 70
     0
102
RTVSPost2010Prop53
 90
        2
102
RTVSPost2010PropOp53
 70
     1
102
RTVSPost2010Prop54
  1
strokes_ogs.tif
102
RTVSPost2010PropOp54
 70
     1
102
RTVSPost2010Prop55
280
     0
102
RTVSPost2010PropOp55
 70
     1
102
RTVSPost2010Prop56
140
1.0
102
RTVSPost2010PropOp56
 70
     1
102
RTVSPost2010Prop57
140
1.0
102
RTVSPost2010PropOp57
 70
     1
  0
XRECORD
  5
200
102
{ACAD_REACTORS
330
1FF
102
}
330
1FF
100
AcDbXrecord
280
     1
102
RTVSPropertyOp0
 70
     1
102
RTVSPropertyOp1
 70
     1
102
RTVSPropertyOp2
 70
     1
102
RTVSPropertyOp3
 70
     1
102
RTVSPropertyOp4
 70
     1
102
RTVSPropertyOp5
 70
     1
102
RTVSPropertyOp6
 70
     1
102
RTVSPropertyOp7
 70
     1
102
RTVSPropertyOp8
 70
     1
102
RTVSPropertyOp9
 70
     1
102
RTVSPropertyOp10
 70
     1
102
RTVSPropertyOp11
 70
     1
102
RTVSPropertyOp12
 70
     1
102
RTVSPropertyOp13
 70
     1
102
RTVSPropertyOp14
 70
     1
102
RTVSPropertyOp15
 70
     1
102
RTVSPropertyOp16
 70
     1
102
RTVSPropertyOp17
 70
     1
102
RTVSPropertyOp18
 70
     1
102
RTVSPropertyOp19
 70
     1
102
RTVSPropertyOp20
 70
     1
102
RTVSPropertyOp21
 70
     1
102
RTVSPropertyOp22
 70
     1
102
RTVSPropertyOp23
 70
     1
102
RTVSPropertyOp24
 70
     1
102
RTVSPropertyOp25
 70
     1
102
RTVSPropertyOp26
 70
     1
102
RTVSPropertyOp27
 70
     1
102
RTVSPropertyOp28
 70
     1
102
RTVSPropertyOp29
 70
     1
102
RTVSPropertyOp30
 70
     1
102
RTVSPropertyOp31
 70
     1
102
RTVSPropertyOp32
 70
     1
102
RTVSPropertyOp33
 70
     1
102
RTVSPropertyOp34
 70
     1
102
RTVSPropertyOp35
 70
     1
102
RTVSPropertyOp36
 70
     1
102
RTVSPropertyOp37
 70
     1
102
RTVSPropertyOp38
 70
     1
102
RTVSPropertyOp39
 70
     1
102
RTVSPropertyOp40
 70
     1
102
RTVSPropertyOp41
 70
     1
102
RTVSPropertyOp42
 70
     1
102
RTVSPropertyOp43
 70
     1
102
RTVSPropertyOp44
 70
     1
102
RTVSPropertyOp45
 70
     1
102
RTVSPropertyOp46
 70
     1
102
RTVSPropertyOp47
 70
     1
102
RTVSPropertyOp48
 70
     1
102
RTVSPropertyOp49
 70
     1
102
RTVSPropertyOp50
 70
     1
102
RTVSPropertyOp51
 70
     0
102
RTVSPropertyOp52
 70
     0
102
RTVSPropertyOp53
 70
     1
102
RTVSPropertyOp54
 70
     1
102
RTVSPropertyOp55
 70
     1
102
RTVSPropertyOp56
 70
     1
102
RTVSPropertyOp57
 70
     1
102
RTVSPost2010Prop28
280
     0
102
RTVSPost2010PropOp28
 70
     1
102
RTVSPost2010Prop29
280
     1
102
RTVSPost2010PropOp29
 70
     1
102
RTVSPost2010Prop30
280
     1
102
RTVSPost2010PropOp30
 70
     1
102
RTVSPost2010Prop31
280
     0
102
RTVSPost2010PropOp31
 70
     1
102
RTVSPost2010Prop32
280
     0
102
RTVSPost2010PropOp32
 70
     1
102
RTVSPost2010Prop33
280
     0
102
RTVSPost2010PropOp33
 70
     1
102
RTVSPost2010Prop34
280
     0
102
RTVSPost2010PropOp34
 70
     1
102
RTVSPost2010Prop35
280
     0
102
RTVSPost2010PropOp35
 70
     1
102
RTVSPost2010Prop36
280
     0
102
RTVSPost2010PropOp36
 70
     1
102
RTVSPost2010Prop37
 90
       50
102
RTVSPost2010PropOp37
 70
     1
102
RTVSPost2010Prop38
140
0.0
102
RTVSPost2010PropOp38
 70
     1
102
RTVSPost2010Prop39
140
1.0
102
RTVSPost2010PropOp39
 70
     1
102
RTVSPost2010Prop40
 90
        0
102
RTVSPost2010PropOp40
 70
     1
102
RTVSPost2010Prop41ColorIndex
 90
       18
102
RTVSPost2010Prop41ColorRGB
 90
        0
102
RTVSPost2010PropOp41
 70
     1
102
RTVSPost2010Prop42
 90
       50
102
RTVSPost2010PropOp42
 70
     1
102
RTVSPost2010Prop43
 90
        3
102
RTVSPost2010PropOp43
 70
     1
102
RTVSPost2010Prop44ColorIndex
 90
        5
102
RTVSPost2010Prop44ColorRGB
 90
      255
102
RTVSPost2010PropOp44
 70
     1
102
RTVSPost2010Prop45
280
     0
102
RTVSPost2010PropOp45
 70
     1
102
RTVSPost2010Prop46
 90
       50
102
RTVSPost2010PropOp46
 70
     1
102
RTVSPost2010Prop47
 90
       50
102
RTVSPost2010PropOp47
 70
     1
102
RTVSPost2010Prop48
 90
       50
102
RTVSPost2010PropOp48
 70
     1
102
RTVSPost2010Prop49
280
     0
102
RTVSPost2010PropOp49
 70
     1
102
RTVSPost2010Prop50
 90
       50
102
RTVSPost2010PropOp50
 70
     1
102
RTVSPost2010Prop51ColorIndex
 90
      256
102
RTVSPost2010Prop51ColorRGB
 90
-16777216
102
RTVSPost2010PropOp51
 70
     0
102
RTVSPost2010Prop52
140
1.0
102
RTVSPost2010PropOp52
 70
     0
102
RTVSPost2010Prop53
 90
        2
102
RTVSPost2010PropOp53
 70
     1
102
RTVSPost2010Prop54
  1
strokes_ogs.tif
102
RTVSPost2010PropOp54
 70
     1
102
RTVSPost2010Prop55
280
     0
102
RTVSPost2010PropOp55
 70
     1
102
RTVSPost2010Prop56
140
1.0
102
RTVSPost2010PropOp56
 70
     1
102
RTVSPost2010Prop57
140
1.0
102
RTVSPost2010PropOp57
 70
     1
  0
XRECORD
  5
202
102
{ACAD_REACTORS
330
201
102
}
330
201
100
AcDbXrecord
280
     1
102
RTVSPropertyOp0
 70
     1
102
RTVSPropertyOp1
 70
     1
102
RTVSPropertyOp2
 70
     1
102
RTVSPropertyOp3
 70
     1
102
RTVSPropertyOp4
 70
     1
102
RTVSPropertyOp5
 70
     1
102
RTVSPropertyOp6
 70
     1
102
RTVSPropertyOp7
 70
     1
102
RTVSPropertyOp8
 70
     1
102
RTVSPropertyOp9
 70
     1
102
RTVSPropertyOp10
 70
     1
102
RTVSPropertyOp11
 70
     1
102
RTVSPropertyOp12
 70
     1
102
RTVSPropertyOp13
 70
     1
102
RTVSPropertyOp14
 70
     1
102
RTVSPropertyOp15
 70
     1
102
RTVSPropertyOp16
 70
     1
102
RTVSPropertyOp17
 70
     1
102
RTVSPropertyOp18
 70
     1
102
RTVSPropertyOp19
 70
     1
102
RTVSPropertyOp20
 70
     1
102
RTVSPropertyOp21
 70
     1
102
RTVSPropertyOp22
 70
     1
102
RTVSPropertyOp23
 70
     1
102
RTVSPropertyOp24
 70
     1
102
RTVSPropertyOp25
 70
     1
102
RTVSPropertyOp26
 70
     1
102
RTVSPropertyOp27
 70
     1
102
RTVSPropertyOp28
 70
     1
102
RTVSPropertyOp29
 70
     1
102
RTVSPropertyOp30
 70
     1
102
RTVSPropertyOp31
 70
     1
102
RTVSPropertyOp32
 70
     1
102
RTVSPropertyOp33
 70
     1
102
RTVSPropertyOp34
 70
     1
102
RTVSPropertyOp35
 70
     1
102
RTVSPropertyOp36
 70
     1
102
RTVSPropertyOp37
 70
     1
102
RTVSPropertyOp38
 70
     1
102
RTVSPropertyOp39
 70
     1
102
RTVSPropertyOp40
 70
     1
102
RTVSPropertyOp41
 70
     1
102
RTVSPropertyOp42
 70
     1
102
RTVSPropertyOp43
 70
     1
102
RTVSPropertyOp44
 70
     1
102
RTVSPropertyOp45
 70
     1
102
RTVSPropertyOp46
 70
     1
102
RTVSPropertyOp47
 70
     1
102
RTVSPropertyOp48
 70
     1
102
RTVSPropertyOp49
 70
     1
102
RTVSPropertyOp50
 70
     1
102
RTVSPropertyOp51
 70
     0
102
RTVSPropertyOp52
 70
     0
102
RTVSPropertyOp53
 70
     1
102
RTVSPropertyOp54
 70
     1
102
RTVSPropertyOp55
 70
     1
102
RTVSPropertyOp56
 70
     1
102
RTVSPropertyOp57
 70
     1
102
RTVSPost2010Prop28
280
     0
102
RTVSPost2010PropOp28
 70
     1
102
RTVSPost2010Prop29
280
     1
102
RTVSPost2010PropOp29
 70
     1
102
RTVSPost2010Prop30
280
     1
102
RTVSPost2010PropOp30
 70
     1
102
RTVSPost2010Prop31
280
     0
102
RTVSPost2010PropOp31
 70
     1
102
RTVSPost2010Prop32
280
     0
102
RTVSPost2010PropOp32
 70
     1
102
RTVSPost2010Prop33
280
     0
102
RTVSPost2010PropOp33
 70
     1
102
RTVSPost2010Prop34
280
     0
102
RTVSPost2010PropOp34
 70
     1
102
RTVSPost2010Prop35
280
     0
102
RTVSPost2010PropOp35
 70
     1
102
RTVSPost2010Prop36
280
     0
102
RTVSPost2010PropOp36
 70
     1
102
RTVSPost2010Prop37
 90
       50
102
RTVSPost2010PropOp37
 70
     1
102
RTVSPost2010Prop38
140
0.0
102
RTVSPost2010PropOp38
 70
     1
102
RTVSPost2010Prop39
140
1.0
102
RTVSPost2010PropOp39
 70
     1
102
RTVSPost2010Prop40
 90
        0
102
RTVSPost2010PropOp40
 70
     1
102
RTVSPost2010Prop41ColorIndex
 90
       18
102
RTVSPost2010Prop41ColorRGB
 90
        0
102
RTVSPost2010PropOp41
 70
     1
102
RTVSPost2010Prop42
 90
       50
102
RTVSPost2010PropOp42
 70
     1
102
RTVSPost2010Prop43
 90
        3
102
RTVSPost2010PropOp43
 70
     1
102
RTVSPost2010Prop44ColorIndex
 90
        5
102
RTVSPost2010Prop44ColorRGB
 90
      255
102
RTVSPost2010PropOp44
 70
     1
102
RTVSPost2010Prop45
280
     0
102
RTVSPost2010PropOp45
 70
     1
102
RTVSPost2010Prop46
 90
       50
102
RTVSPost2010PropOp46
 70
     1
102
RTVSPost2010Prop47
 90
       50
102
RTVSPost2010PropOp47
 70
     1
102
RTVSPost2010Prop48
 90
       50
102
RTVSPost2010PropOp48
 70
     1
102
RTVSPost2010Prop49
280
     0
102
RTVSPost2010PropOp49
 70
     1
102
RTVSPost2010Prop50
 90
       50
102
RTVSPost2010PropOp50
 70
     1
102
RTVSPost2010Prop51ColorIndex
 90
      256
102
RTVSPost2010Prop51ColorRGB
 90
-16777216
102
RTVSPost2010PropOp51
 70
     0
102
RTVSPost2010Prop52
140
1.0
102
RTVSPost2010PropOp52
 70
     0
102
RTVSPost2010Prop53
 90
        2
102
RTVSPost2010PropOp53
 70
     1
102
RTVSPost2010Prop54
  1
strokes_ogs.tif
102
RTVSPost2010PropOp54
 70
     1
102
RTVSPost2010Prop55
280
     0
102
RTVSPost2010PropOp55
 70
     1
102
RTVSPost2010Prop56
140
1.0
102
RTVSPost2010PropOp56
 70
     1
102
RTVSPost2010Prop57
140
1.0
102
RTVSPost2010PropOp57
 70
     1
  0
XRECORD
  5
204
102
{ACAD_REACTORS
330
203
102
}
330
203
100
AcDbXrecord
280
     1
102
RTVSPropertyOp0
 70
     1
102
RTVSPropertyOp1
 70
     1
102
RTVSPropertyOp2
 70
     1
102
RTVSPropertyOp3
 70
     1
102
RTVSPropertyOp4
 70
     1
102
RTVSPropertyOp5
 70
     1
102
RTVSPropertyOp6
 70
     1
102
RTVSPropertyOp7
 70
     1
102
RTVSPropertyOp8
 70
     1
102
RTVSPropertyOp9
 70
     1
102
RTVSPropertyOp10
 70
     1
102
RTVSPropertyOp11
 70
     1
102
RTVSPropertyOp12
 70
     1
102
RTVSPropertyOp13
 70
     1
102
RTVSPropertyOp14
 70
     1
102
RTVSPropertyOp15
 70
     1
102
RTVSPropertyOp16
 70
     1
102
RTVSPropertyOp17
 70
     1
102
RTVSPropertyOp18
 70
     1
102
RTVSPropertyOp19
 70
     1
102
RTVSPropertyOp20
 70
     1
102
RTVSPropertyOp21
 70
     1
102
RTVSPropertyOp22
 70
     1
102
RTVSPropertyOp23
 70
     1
102
RTVSPropertyOp24
 70
     1
102
RTVSPropertyOp25
 70
     1
102
RTVSPropertyOp26
 70
     1
102
RTVSPropertyOp27
 70
     1
102
RTVSPropertyOp28
 70
     1
102
RTVSPropertyOp29
 70
     1
102
RTVSPropertyOp30
 70
     1
102
RTVSPropertyOp31
 70
     1
102
RTVSPropertyOp32
 70
     1
102
RTVSPropertyOp33
 70
     1
102
RTVSPropertyOp34
 70
     1
102
RTVSPropertyOp35
 70
     1
102
RTVSPropertyOp36
 70
     1
102
RTVSPropertyOp37
 70
     1
102
RTVSPropertyOp38
 70
     1
102
RTVSPropertyOp39
 70
     1
102
RTVSPropertyOp40
 70
     1
102
RTVSPropertyOp41
 70
     1
102
RTVSPropertyOp42
 70
     1
102
RTVSPropertyOp43
 70
     1
102
RTVSPropertyOp44
 70
     1
102
RTVSPropertyOp45
 70
     1
102
RTVSPropertyOp46
 70
     1
102
RTVSPropertyOp47
 70
     1
102
RTVSPropertyOp48
 70
     1
102
RTVSPropertyOp49
 70
     1
102
RTVSPropertyOp50
 70
     1
102
RTVSPropertyOp51
 70
     0
102
RTVSPropertyOp52
 70
     0
102
RTVSPropertyOp53
 70
     1
102
RTVSPropertyOp54
 70
     1
102
RTVSPropertyOp55
 70
     1
102
RTVSPropertyOp56
 70
     1
102
RTVSPropertyOp57
 70
     1
102
RTVSPost2010Prop28
280
     0
102
RTVSPost2010PropOp28
 70
     1
102
RTVSPost2010Prop29
280
     1
102
RTVSPost2010PropOp29
 70
     1
102
RTVSPost2010Prop30
280
     1
102
RTVSPost2010PropOp30
 70
     1
102
RTVSPost2010Prop31
280
     0
102
RTVSPost2010PropOp31
 70
     1
102
RTVSPost2010Prop32
280
     0
102
RTVSPost2010PropOp32
 70
     1
102
RTVSPost2010Prop33
280
     0
102
RTVSPost2010PropOp33
 70
     1
102
RTVSPost2010Prop34
280
     0
102
RTVSPost2010PropOp34
 70
     1
102
RTVSPost2010Prop35
280
     0
102
RTVSPost2010PropOp35
 70
     1
102
RTVSPost2010Prop36
280
     0
102
RTVSPost2010PropOp36
 70
     1
102
RTVSPost2010Prop37
 90
       50
102
RTVSPost2010PropOp37
 70
     1
102
RTVSPost2010Prop38
140
0.0
102
RTVSPost2010PropOp38
 70
     1
102
RTVSPost2010Prop39
140
1.0
102
RTVSPost2010PropOp39
 70
     1
102
RTVSPost2010Prop40
 90
        0
102
RTVSPost2010PropOp40
 70
     1
102
RTVSPost2010Prop41ColorIndex
 90
       18
102
RTVSPost2010Prop41ColorRGB
 90
        0
102
RTVSPost2010PropOp41
 70
     1
102
RTVSPost2010Prop42
 90
       50
102
RTVSPost2010PropOp42
 70
     1
102
RTVSPost2010Prop43
 90
        3
102
RTVSPost2010PropOp43
 70
     1
102
RTVSPost2010Prop44ColorIndex
 90
        5
102
RTVSPost2010Prop44ColorRGB
 90
      255
102
RTVSPost2010PropOp44
 70
     1
102
RTVSPost2010Prop45
280
     0
102
RTVSPost2010PropOp45
 70
     1
102
RTVSPost2010Prop46
 90
       50
102
RTVSPost2010PropOp46
 70
     1
102
RTVSPost2010Prop47
 90
       50
102
RTVSPost2010PropOp47
 70
     1
102
RTVSPost2010Prop48
 90
       50
102
RTVSPost2010PropOp48
 70
     1
102
RTVSPost2010Prop49
280
     0
102
RTVSPost2010PropOp49
 70
     1
102
RTVSPost2010Prop50
 90
       50
102
RTVSPost2010PropOp50
 70
     1
102
RTVSPost2010Prop51ColorIndex
 90
      256
102
RTVSPost2010Prop51ColorRGB
 90
-16777216
102
RTVSPost2010PropOp51
 70
     0
102
RTVSPost2010Prop52
140
1.0
102
RTVSPost2010PropOp52
 70
     0
102
RTVSPost2010Prop53
 90
        2
102
RTVSPost2010PropOp53
 70
     1
102
RTVSPost2010Prop54
  1
strokes_ogs.tif
102
RTVSPost2010PropOp54
 70
     1
102
RTVSPost2010Prop55
280
     0
102
RTVSPost2010PropOp55
 70
     1
102
RTVSPost2010Prop56
140
1.0
102
RTVSPost2010PropOp56
 70
     1
102
RTVSPost2010Prop57
140
1.0
102
RTVSPost2010PropOp57
 70
     1
  0
XRECORD
  5
20A
102
{ACAD_REACTORS
330
209
102
}
330
209
100
AcDbXrecord
280
     1
102
RTVSPropertyOp0
 70
     1
102
RTVSPropertyOp1
 70
     1
102
RTVSPropertyOp2
 70
     1
102
RTVSPropertyOp3
 70
     1
102
RTVSPropertyOp4
 70
     1
102
RTVSPropertyOp5
 70
     1
102
RTVSPropertyOp6
 70
     1
102
RTVSPropertyOp7
 70
     1
102
RTVSPropertyOp8
 70
     1
102
RTVSPropertyOp9
 70
     1
102
RTVSPropertyOp10
 70
     1
102
RTVSPropertyOp11
 70
     1
102
RTVSPropertyOp12
 70
     1
102
RTVSPropertyOp13
 70
     1
102
RTVSPropertyOp14
 70
     1
102
RTVSPropertyOp15
 70
     1
102
RTVSPropertyOp16
 70
     1
102
RTVSPropertyOp17
 70
     1
102
RTVSPropertyOp18
 70
     1
102
RTVSPropertyOp19
 70
     1
102
RTVSPropertyOp20
 70
     1
102
RTVSPropertyOp21
 70
     1
102
RTVSPropertyOp22
 70
     1
102
RTVSPropertyOp23
 70
     1
102
RTVSPropertyOp24
 70
     1
102
RTVSPropertyOp25
 70
     1
102
RTVSPropertyOp26
 70
     1
102
RTVSPropertyOp27
 70
     1
102
RTVSPropertyOp28
 70
     1
102
RTVSPropertyOp29
 70
     1
102
RTVSPropertyOp30
 70
     1
102
RTVSPropertyOp31
 70
     1
102
RTVSPropertyOp32
 70
     1
102
RTVSPropertyOp33
 70
     1
102
RTVSPropertyOp34
 70
     1
102
RTVSPropertyOp35
 70
     1
102
RTVSPropertyOp36
 70
     1
102
RTVSPropertyOp37
 70
     1
102
RTVSPropertyOp38
 70
     1
102
RTVSPropertyOp39
 70
     1
102
RTVSPropertyOp40
 70
     1
102
RTVSPropertyOp41
 70
     1
102
RTVSPropertyOp42
 70
     1
102
RTVSPropertyOp43
 70
     1
102
RTVSPropertyOp44
 70
     1
102
RTVSPropertyOp45
 70
     1
102
RTVSPropertyOp46
 70
     1
102
RTVSPropertyOp47
 70
     1
102
RTVSPropertyOp48
 70
     1
102
RTVSPropertyOp49
 70
     1
102
RTVSPropertyOp50
 70
     1
102
RTVSPropertyOp51
 70
     0
102
RTVSPropertyOp52
 70
     0
102
RTVSPropertyOp53
 70
     1
102
RTVSPropertyOp54
 70
     1
102
RTVSPropertyOp55
 70
     1
102
RTVSPropertyOp56
 70
     1
102
RTVSPropertyOp57
 70
     1
102
RTVSPost2010Prop28
280
     0
102
RTVSPost2010PropOp28
 70
     1
102
RTVSPost2010Prop29
280
     1
102
RTVSPost2010PropOp29
 70
     1
102
RTVSPost2010Prop30
280
     1
102
RTVSPost2010PropOp30
 70
     1
102
RTVSPost2010Prop31
280
     0
102
RTVSPost2010PropOp31
 70
     1
102
RTVSPost2010Prop32
280
     0
102
RTVSPost2010PropOp32
 70
     1
102
RTVSPost2010Prop33
280
     0
102
RTVSPost2010PropOp33
 70
     1
102
RTVSPost2010Prop34
280
     0
102
RTVSPost2010PropOp34
 70
     1
102
RTVSPost2010Prop35
280
     0
102
RTVSPost2010PropOp35
 70
     1
102
RTVSPost2010Prop36
280
     0
102
RTVSPost2010PropOp36
 70
     1
102
RTVSPost2010Prop37
 90
       50
102
RTVSPost2010PropOp37
 70
     1
102
RTVSPost2010Prop38
140
0.0
102
RTVSPost2010PropOp38
 70
     1
102
RTVSPost2010Prop39
140
1.0
102
RTVSPost2010PropOp39
 70
     1
102
RTVSPost2010Prop40
 90
        0
102
RTVSPost2010PropOp40
 70
     1
102
RTVSPost2010Prop41ColorIndex
 90
       18
102
RTVSPost2010Prop41ColorRGB
 90
        0
102
RTVSPost2010PropOp41
 70
     1
102
RTVSPost2010Prop42
 90
       50
102
RTVSPost2010PropOp42
 70
     1
102
RTVSPost2010Prop43
 90
        3
102
RTVSPost2010PropOp43
 70
     1
102
RTVSPost2010Prop44ColorIndex
 90
        5
102
RTVSPost2010Prop44ColorRGB
 90
      255
102
RTVSPost2010PropOp44
 70
     1
102
RTVSPost2010Prop45
280
     0
102
RTVSPost2010PropOp45
 70
     1
102
RTVSPost2010Prop46
 90
       50
102
RTVSPost2010PropOp46
 70
     1
102
RTVSPost2010Prop47
 90
       50
102
RTVSPost2010PropOp47
 70
     1
102
RTVSPost2010Prop48
 90
       50
102
RTVSPost2010PropOp48
 70
     1
102
RTVSPost2010Prop49
280
     0
102
RTVSPost2010PropOp49
 70
     1
102
RTVSPost2010Prop50
 90
       50
102
RTVSPost2010PropOp50
 70
     1
102
RTVSPost2010Prop51ColorIndex
 90
      256
102
RTVSPost2010Prop51ColorRGB
 90
-16777216
102
RTVSPost2010PropOp51
 70
     0
102
RTVSPost2010Prop52
140
1.0
102
RTVSPost2010PropOp52
 70
     0
102
RTVSPost2010Prop53
 90
        2
102
RTVSPost2010PropOp53
 70
     1
102
RTVSPost2010Prop54
  1
strokes_ogs.tif
102
RTVSPost2010PropOp54
 70
     1
102
RTVSPost2010Prop55
280
     0
102
RTVSPost2010PropOp55
 70
     1
102
RTVSPost2010Prop56
140
1.0
102
RTVSPost2010PropOp56
 70
     1
102
RTVSPost2010Prop57
140
1.0
102
RTVSPost2010PropOp57
 70
     1
  0
XRECORD
  5
21E
102
{ACAD_REACTORS
330
21D
102
}
330
21D
100
AcDbXrecord
280
     1
102
RTVSPropertyOp0
 70
     0
102
RTVSPropertyOp1
 70
     0
102
RTVSPropertyOp2
 70
     0
102
RTVSPropertyOp3
 70
     0
102
RTVSPropertyOp4
 70
     0
102
RTVSPropertyOp5
 70
     0
102
RTVSPropertyOp6
 70
     0
102
RTVSPropertyOp7
 70
     0
102
RTVSPropertyOp8
 70
     0
102
RTVSPropertyOp9
 70
     0
102
RTVSPropertyOp10
 70
     0
102
RTVSPropertyOp11
 70
     0
102
RTVSPropertyOp12
 70
     0
102
RTVSPropertyOp13
 70
     0
102
RTVSPropertyOp14
 70
     2
102
RTVSPropertyOp15
 70
     0
102
RTVSPropertyOp16
 70
     0
102
RTVSPropertyOp17
 70
     0
102
RTVSPropertyOp18
 70
     0
102
RTVSPropertyOp19
 70
     0
102
RTVSPropertyOp20
 70
     0
102
RTVSPropertyOp21
 70
     0
102
RTVSPropertyOp22
 70
     0
102
RTVSPropertyOp23
 70
     0
102
RTVSPropertyOp24
 70
     0
102
RTVSPropertyOp25
 70
     0
102
RTVSPropertyOp26
 70
     0
102
RTVSPropertyOp27
 70
     0
102
RTVSPropertyOp28
 70
     0
102
RTVSPropertyOp29
 70
     0
102
RTVSPropertyOp30
 70
     0
102
RTVSPropertyOp31
 70
     0
102
RTVSPropertyOp32
 70
     0
102
RTVSPropertyOp33
 70
     0
102
RTVSPropertyOp34
 70
     0
102
RTVSPropertyOp35
 70
     0
102
RTVSPropertyOp36
 70
     0
102
RTVSPropertyOp37
 70
     0
102
RTVSPropertyOp38
 70
     0
102
RTVSPropertyOp39
 70
     0
102
RTVSPropertyOp40
 70
     0
102
RTVSPropertyOp41
 70
     0
102
RTVSPropertyOp42
 70
     0
102
RTVSPropertyOp43
 70
     0
102
RTVSPropertyOp44
 70
     0
102
RTVSPropertyOp45
 70
     0
102
RTVSPropertyOp46
 70
     0
102
RTVSPropertyOp47
 70
     0
102
RTVSPropertyOp48
 70
     0
102
RTVSPropertyOp49
 70
     0
102
RTVSPropertyOp50
 70
     0
102
RTVSPropertyOp51
 70
     0
102
RTVSPropertyOp52
 70
     0
102
RTVSPropertyOp53
 70
     0
102
RTVSPropertyOp54
 70
     0
102
RTVSPropertyOp55
 70
     0
102
RTVSPropertyOp56
 70
     0
102
RTVSPropertyOp57
 70
     0
102
RTVSPost2010Prop28
280
     0
102
RTVSPost2010PropOp28
 70
     0
102
RTVSPost2010Prop29
280
     1
102
RTVSPost2010PropOp29
 70
     0
102
RTVSPost2010Prop30
280
     1
102
RTVSPost2010PropOp30
 70
     0
102
RTVSPost2010Prop31
280
     0
102
RTVSPost2010PropOp31
 70
     0
102
RTVSPost2010Prop32
280
     0
102
RTVSPost2010PropOp32
 70
     0
102
RTVSPost2010Prop33
280
     0
102
RTVSPost2010PropOp33
 70
     0
102
RTVSPost2010Prop34
280
     0
102
RTVSPost2010PropOp34
 70
     0
102
RTVSPost2010Prop35
280
     0
102
RTVSPost2010PropOp35
 70
     0
102
RTVSPost2010Prop36
280
     0
102
RTVSPost2010PropOp36
 70
     0
102
RTVSPost2010Prop37
 90
       50
102
RTVSPost2010PropOp37
 70
     0
102
RTVSPost2010Prop38
140
0.0
102
RTVSPost2010PropOp38
 70
     0
102
RTVSPost2010Prop39
140
1.0
102
RTVSPost2010PropOp39
 70
     0
102
RTVSPost2010Prop40
 90
        0
102
RTVSPost2010PropOp40
 70
     0
102
RTVSPost2010Prop41ColorIndex
 90
       18
102
RTVSPost2010Prop41ColorRGB
 90
        0
102
RTVSPost2010PropOp41
 70
     0
102
RTVSPost2010Prop42
 90
       50
102
RTVSPost2010PropOp42
 70
     0
102
RTVSPost2010Prop43
 90
        3
102
RTVSPost2010PropOp43
 70
     0
102
RTVSPost2010Prop44ColorIndex
 90
        5
102
RTVSPost2010Prop44ColorRGB
 90
      255
102
RTVSPost2010PropOp44
 70
     0
102
RTVSPost2010Prop45
280
     0
102
RTVSPost2010PropOp45
 70
     0
102
RTVSPost2010Prop46
 90
       50
102
RTVSPost2010PropOp46
 70
     0
102
RTVSPost2010Prop47
 90
       50
102
RTVSPost2010PropOp47
 70
     0
102
RTVSPost2010Prop48
 90
       50
102
RTVSPost2010PropOp48
 70
     0
102
RTVSPost2010Prop49
280
     0
102
RTVSPost2010PropOp49
 70
     0
102
RTVSPost2010Prop50
 90
       50
102
RTVSPost2010PropOp50
 70
     0
102
RTVSPost2010Prop51ColorIndex
 90
      256
102
RTVSPost2010Prop51ColorRGB
 90
-16777216
102
RTVSPost2010PropOp51
 70
     0
102
RTVSPost2010Prop52
140
1.0
102
RTVSPost2010PropOp52
 70
     0
102
RTVSPost2010Prop53
 90
        2
102
RTVSPost2010PropOp53
 70
     0
102
RTVSPost2010Prop54
  1
strokes_ogs.tif
102
RTVSPost2010PropOp54
 70
     0
102
RTVSPost2010Prop55
280
     0
102
RTVSPost2010PropOp55
 70
     0
102
RTVSPost2010Prop56
140
1.0
102
RTVSPost2010PropOp56
 70
     0
102
RTVSPost2010Prop57
140
1.0
102
RTVSPost2010PropOp57
 70
     0
  0
XRECORD
  5
218
102
{ACAD_REACTORS
330
217
102
}
330
217
100
AcDbXrecord
280
     1
102
RTVSPropertyOp0
 70
     1
102
RTVSPropertyOp1
 70
     1
102
RTVSPropertyOp2
 70
     1
102
RTVSPropertyOp3
 70
     1
102
RTVSPropertyOp4
 70
     1
102
RTVSPropertyOp5
 70
     1
102
RTVSPropertyOp6
 70
     1
102
RTVSPropertyOp7
 70
     1
102
RTVSPropertyOp8
 70
     1
102
RTVSPropertyOp9
 70
     1
102
RTVSPropertyOp10
 70
     1
102
RTVSPropertyOp11
 70
     1
102
RTVSPropertyOp12
 70
     1
102
RTVSPropertyOp13
 70
     1
102
RTVSPropertyOp14
 70
     1
102
RTVSPropertyOp15
 70
     1
102
RTVSPropertyOp16
 70
     1
102
RTVSPropertyOp17
 70
     1
102
RTVSPropertyOp18
 70
     1
102
RTVSPropertyOp19
 70
     1
102
RTVSPropertyOp20
 70
     1
102
RTVSPropertyOp21
 70
     1
102
RTVSPropertyOp22
 70
     1
102
RTVSPropertyOp23
 70
     1
102
RTVSPropertyOp24
 70
     1
102
RTVSPropertyOp25
 70
     1
102
RTVSPropertyOp26
 70
     1
102
RTVSPropertyOp27
 70
     1
102
RTVSPropertyOp28
 70
     1
102
RTVSPropertyOp29
 70
     1
102
RTVSPropertyOp30
 70
     1
102
RTVSPropertyOp31
 70
     1
102
RTVSPropertyOp32
 70
     1
102
RTVSPropertyOp33
 70
     1
102
RTVSPropertyOp34
 70
     1
102
RTVSPropertyOp35
 70
     1
102
RTVSPropertyOp36
 70
     1
102
RTVSPropertyOp37
 70
     1
102
RTVSPropertyOp38
 70
     1
102
RTVSPropertyOp39
 70
     1
102
RTVSPropertyOp40
 70
     1
102
RTVSPropertyOp41
 70
     1
102
RTVSPropertyOp42
 70
     1
102
RTVSPropertyOp43
 70
     1
102
RTVSPropertyOp44
 70
     1
102
RTVSPropertyOp45
 70
     1
102
RTVSPropertyOp46
 70
     1
102
RTVSPropertyOp47
 70
     1
102
RTVSPropertyOp48
 70
     1
102
RTVSPropertyOp49
 70
     1
102
RTVSPropertyOp50
 70
     1
102
RTVSPropertyOp51
 70
     0
102
RTVSPropertyOp52
 70
     0
102
RTVSPropertyOp53
 70
     1
102
RTVSPropertyOp54
 70
     1
102
RTVSPropertyOp55
 70
     1
102
RTVSPropertyOp56
 70
     1
102
RTVSPropertyOp57
 70
     1
102
RTVSPost2010Prop28
280
     0
102
RTVSPost2010PropOp28
 70
     1
102
RTVSPost2010Prop29
280
     1
102
RTVSPost2010PropOp29
 70
     1
102
RTVSPost2010Prop30
280
     1
102
RTVSPost2010PropOp30
 70
     1
102
RTVSPost2010Prop31
280
     0
102
RTVSPost2010PropOp31
 70
     1
102
RTVSPost2010Prop32
280
     0
102
RTVSPost2010PropOp32
 70
     1
102
RTVSPost2010Prop33
280
     0
102
RTVSPost2010PropOp33
 70
     1
102
RTVSPost2010Prop34
280
     0
102
RTVSPost2010PropOp34
 70
     1
102
RTVSPost2010Prop35
280
     0
102
RTVSPost2010PropOp35
 70
     1
102
RTVSPost2010Prop36
280
     0
102
RTVSPost2010PropOp36
 70
     1
102
RTVSPost2010Prop37
 90
       50
102
RTVSPost2010PropOp37
 70
     1
102
RTVSPost2010Prop38
140
0.0
102
RTVSPost2010PropOp38
 70
     1
102
RTVSPost2010Prop39
140
1.0
102
RTVSPost2010PropOp39
 70
     1
102
RTVSPost2010Prop40
 90
        0
102
RTVSPost2010PropOp40
 70
     1
102
RTVSPost2010Prop41ColorIndex
 90
       18
102
RTVSPost2010Prop41ColorRGB
 90
        0
102
RTVSPost2010PropOp41
 70
     1
102
RTVSPost2010Prop42
 90
       50
102
RTVSPost2010PropOp42
 70
     1
102
RTVSPost2010Prop43
 90
        3
102
RTVSPost2010PropOp43
 70
     1
102
RTVSPost2010Prop44ColorIndex
 90
        5
102
RTVSPost2010Prop44ColorRGB
 90
      255
102
RTVSPost2010PropOp44
 70
     1
102
RTVSPost2010Prop45
280
     0
102
RTVSPost2010PropOp45
 70
     1
102
RTVSPost2010Prop46
 90
       50
102
RTVSPost2010PropOp46
 70
     1
102
RTVSPost2010Prop47
 90
       50
102
RTVSPost2010PropOp47
 70
     1
102
RTVSPost2010Prop48
 90
       50
102
RTVSPost2010PropOp48
 70
     1
102
RTVSPost2010Prop49
280
     0
102
RTVSPost2010PropOp49
 70
     1
102
RTVSPost2010Prop50
 90
       50
102
RTVSPost2010PropOp50
 70
     1
102
RTVSPost2010Prop51ColorIndex
 90
      256
102
RTVSPost2010Prop51ColorRGB
 90
-16777216
102
RTVSPost2010PropOp51
 70
     0
102
RTVSPost2010Prop52
140
1.0
102
RTVSPost2010PropOp52
 70
     0
102
RTVSPost2010Prop53
 90
        2
102
RTVSPost2010PropOp53
 70
     1
102
RTVSPost2010Prop54
  1
strokes_ogs.tif
102
RTVSPost2010PropOp54
 70
     1
102
RTVSPost2010Prop55
280
     0
102
RTVSPost2010PropOp55
 70
     1
102
RTVSPost2010Prop56
140
1.0
102
RTVSPost2010PropOp56
 70
     1
102
RTVSPost2010Prop57
140
1.0
102
RTVSPost2010PropOp57
 70
     1
  0
XRECORD
  5
220
102
{ACAD_REACTORS
330
21F
102
}
330
21F
100
AcDbXrecord
280
     1
102
RTVSPropertyOp0
 70
     0
102
RTVSPropertyOp1
 70
     0
102
RTVSPropertyOp2
 70
     0
102
RTVSPropertyOp3
 70
     0
102
RTVSPropertyOp4
 70
     0
102
RTVSPropertyOp5
 70
     0
102
RTVSPropertyOp6
 70
     0
102
RTVSPropertyOp7
 70
     0
102
RTVSPropertyOp8
 70
     0
102
RTVSPropertyOp9
 70
     0
102
RTVSPropertyOp10
 70
     0
102
RTVSPropertyOp11
 70
     0
102
RTVSPropertyOp12
 70
     0
102
RTVSPropertyOp13
 70
     0
102
RTVSPropertyOp14
 70
     2
102
RTVSPropertyOp15
 70
     0
102
RTVSPropertyOp16
 70
     0
102
RTVSPropertyOp17
 70
     0
102
RTVSPropertyOp18
 70
     0
102
RTVSPropertyOp19
 70
     0
102
RTVSPropertyOp20
 70
     0
102
RTVSPropertyOp21
 70
     0
102
RTVSPropertyOp22
 70
     0
102
RTVSPropertyOp23
 70
     0
102
RTVSPropertyOp24
 70
     0
102
RTVSPropertyOp25
 70
     0
102
RTVSPropertyOp26
 70
     0
102
RTVSPropertyOp27
 70
     0
102
RTVSPropertyOp28
 70
     0
102
RTVSPropertyOp29
 70
     0
102
RTVSPropertyOp30
 70
     0
102
RTVSPropertyOp31
 70
     0
102
RTVSPropertyOp32
 70
     0
102
RTVSPropertyOp33
 70
     0
102
RTVSPropertyOp34
 70
     0
102
RTVSPropertyOp35
 70
     0
102
RTVSPropertyOp36
 70
     0
102
RTVSPropertyOp37
 70
     0
102
RTVSPropertyOp38
 70
     0
102
RTVSPropertyOp39
 70
     0
102
RTVSPropertyOp40
 70
     0
102
RTVSPropertyOp41
 70
     0
102
RTVSPropertyOp42
 70
     0
102
RTVSPropertyOp43
 70
     0
102
RTVSPropertyOp44
 70
     0
102
RTVSPropertyOp45
 70
     0
102
RTVSPropertyOp46
 70
     0
102
RTVSPropertyOp47
 70
     0
102
RTVSPropertyOp48
 70
     0
102
RTVSPropertyOp49
 70
     0
102
RTVSPropertyOp50
 70
     0
102
RTVSPropertyOp51
 70
     0
102
RTVSPropertyOp52
 70
     0
102
RTVSPropertyOp53
 70
     0
102
RTVSPropertyOp54
 70
     0
102
RTVSPropertyOp55
 70
     0
102
RTVSPropertyOp56
 70
     0
102
RTVSPropertyOp57
 70
     0
102
RTVSPost2010Prop28
280
     0
102
RTVSPost2010PropOp28
 70
     0
102
RTVSPost2010Prop29
280
     1
102
RTVSPost2010PropOp29
 70
     0
102
RTVSPost2010Prop30
280
     1
102
RTVSPost2010PropOp30
 70
     0
102
RTVSPost2010Prop31
280
     0
102
RTVSPost2010PropOp31
 70
     0
102
RTVSPost2010Prop32
280
     0
102
RTVSPost2010PropOp32
 70
     0
102
RTVSPost2010Prop33
280
     0
102
RTVSPost2010PropOp33
 70
     0
102
RTVSPost2010Prop34
280
     0
102
RTVSPost2010PropOp34
 70
     0
102
RTVSPost2010Prop35
280
     0
102
RTVSPost2010PropOp35
 70
     0
102
RTVSPost2010Prop36
280
     0
102
RTVSPost2010PropOp36
 70
     0
102
RTVSPost2010Prop37
 90
       50
102
RTVSPost2010PropOp37
 70
     0
102
RTVSPost2010Prop38
140
0.0
102
RTVSPost2010PropOp38
 70
     0
102
RTVSPost2010Prop39
140
1.0
102
RTVSPost2010PropOp39
 70
     0
102
RTVSPost2010Prop40
 90
        0
102
RTVSPost2010PropOp40
 70
     0
102
RTVSPost2010Prop41ColorIndex
 90
       18
102
RTVSPost2010Prop41ColorRGB
 90
        0
102
RTVSPost2010PropOp41
 70
     0
102
RTVSPost2010Prop42
 90
       50
102
RTVSPost2010PropOp42
 70
     0
102
RTVSPost2010Prop43
 90
        3
102
RTVSPost2010PropOp43
 70
     0
102
RTVSPost2010Prop44ColorIndex
 90
        5
102
RTVSPost2010Prop44ColorRGB
 90
      255
102
RTVSPost2010PropOp44
 70
     0
102
RTVSPost2010Prop45
280
     0
102
RTVSPost2010PropOp45
 70
     0
102
RTVSPost2010Prop46
 90
       50
102
RTVSPost2010PropOp46
 70
     0
102
RTVSPost2010Prop47
 90
       50
102
RTVSPost2010PropOp47
 70
     0
102
RTVSPost2010Prop48
 90
       50
102
RTVSPost2010PropOp48
 70
     0
102
RTVSPost2010Prop49
280
     0
102
RTVSPost2010PropOp49
 70
     0
102
RTVSPost2010Prop50
 90
       50
102
RTVSPost2010PropOp50
 70
     0
102
RTVSPost2010Prop51ColorIndex
 90
      256
102
RTVSPost2010Prop51ColorRGB
 90
-16777216
102
RTVSPost2010PropOp51
 70
     0
102
RTVSPost2010Prop52
140
1.0
102
RTVSPost2010PropOp52
 70
     0
102
RTVSPost2010Prop53
 90
        2
102
RTVSPost2010PropOp53
 70
     0
102
RTVSPost2010Prop54
  1
strokes_ogs.tif
102
RTVSPost2010PropOp54
 70
     0
102
RTVSPost2010Prop55
280
     0
102
RTVSPost2010PropOp55
 70
     0
102
RTVSPost2010Prop56
140
1.0
102
RTVSPost2010PropOp56
 70
     0
102
RTVSPost2010Prop57
140
1.0
102
RTVSPost2010PropOp57
 70
     0
  0
XRECORD
  5
20E
102
{ACAD_REACTORS
330
20D
102
}
330
20D
100
AcDbXrecord
280
     1
102
RTVSPropertyOp0
 70
     1
102
RTVSPropertyOp1
 70
     1
102
RTVSPropertyOp2
 70
     1
102
RTVSPropertyOp3
 70
     1
102
RTVSPropertyOp4
 70
     1
102
RTVSPropertyOp5
 70
     1
102
RTVSPropertyOp6
 70
     1
102
RTVSPropertyOp7
 70
     1
102
RTVSPropertyOp8
 70
     1
102
RTVSPropertyOp9
 70
     1
102
RTVSPropertyOp10
 70
     1
102
RTVSPropertyOp11
 70
     1
102
RTVSPropertyOp12
 70
     1
102
RTVSPropertyOp13
 70
     1
102
RTVSPropertyOp14
 70
     1
102
RTVSPropertyOp15
 70
     1
102
RTVSPropertyOp16
 70
     1
102
RTVSPropertyOp17
 70
     1
102
RTVSPropertyOp18
 70
     1
102
RTVSPropertyOp19
 70
     1
102
RTVSPropertyOp20
 70
     1
102
RTVSPropertyOp21
 70
     1
102
RTVSPropertyOp22
 70
     1
102
RTVSPropertyOp23
 70
     1
102
RTVSPropertyOp24
 70
     1
102
RTVSPropertyOp25
 70
     1
102
RTVSPropertyOp26
 70
     1
102
RTVSPropertyOp27
 70
     1
102
RTVSPropertyOp28
 70
     1
102
RTVSPropertyOp29
 70
     1
102
RTVSPropertyOp30
 70
     1
102
RTVSPropertyOp31
 70
     1
102
RTVSPropertyOp32
 70
     1
102
RTVSPropertyOp33
 70
     1
102
RTVSPropertyOp34
 70
     1
102
RTVSPropertyOp35
 70
     1
102
RTVSPropertyOp36
 70
     1
102
RTVSPropertyOp37
 70
     1
102
RTVSPropertyOp38
 70
     1
102
RTVSPropertyOp39
 70
     1
102
RTVSPropertyOp40
 70
     1
102
RTVSPropertyOp41
 70
     1
102
RTVSPropertyOp42
 70
     1
102
RTVSPropertyOp43
 70
     1
102
RTVSPropertyOp44
 70
     1
102
RTVSPropertyOp45
 70
     1
102
RTVSPropertyOp46
 70
     1
102
RTVSPropertyOp47
 70
     1
102
RTVSPropertyOp48
 70
     1
102
RTVSPropertyOp49
 70
     1
102
RTVSPropertyOp50
 70
     1
102
RTVSPropertyOp51
 70
     0
102
RTVSPropertyOp52
 70
     0
102
RTVSPropertyOp53
 70
     1
102
RTVSPropertyOp54
 70
     1
102
RTVSPropertyOp55
 70
     1
102
RTVSPropertyOp56
 70
     1
102
RTVSPropertyOp57
 70
     1
102
RTVSPost2010Prop28
280
     0
102
RTVSPost2010PropOp28
 70
     1
102
RTVSPost2010Prop29
280
     1
102
RTVSPost2010PropOp29
 70
     1
102
RTVSPost2010Prop30
280
     1
102
RTVSPost2010PropOp30
 70
     1
102
RTVSPost2010Prop31
280
     0
102
RTVSPost2010PropOp31
 70
     1
102
RTVSPost2010Prop32
280
     0
102
RTVSPost2010PropOp32
 70
     1
102
RTVSPost2010Prop33
280
     0
102
RTVSPost2010PropOp33
 70
     1
102
RTVSPost2010Prop34
280
     0
102
RTVSPost2010PropOp34
 70
     1
102
RTVSPost2010Prop35
280
     0
102
RTVSPost2010PropOp35
 70
     1
102
RTVSPost2010Prop36
280
     0
102
RTVSPost2010PropOp36
 70
     1
102
RTVSPost2010Prop37
 90
       50
102
RTVSPost2010PropOp37
 70
     1
102
RTVSPost2010Prop38
140
0.0
102
RTVSPost2010PropOp38
 70
     1
102
RTVSPost2010Prop39
140
1.0
102
RTVSPost2010PropOp39
 70
     1
102
RTVSPost2010Prop40
 90
        0
102
RTVSPost2010PropOp40
 70
     1
102
RTVSPost2010Prop41ColorIndex
 90
       18
102
RTVSPost2010Prop41ColorRGB
 90
        0
102
RTVSPost2010PropOp41
 70
     1
102
RTVSPost2010Prop42
 90
       50
102
RTVSPost2010PropOp42
 70
     1
102
RTVSPost2010Prop43
 90
        3
102
RTVSPost2010PropOp43
 70
     1
102
RTVSPost2010Prop44ColorIndex
 90
        5
102
RTVSPost2010Prop44ColorRGB
 90
      255
102
RTVSPost2010PropOp44
 70
     1
102
RTVSPost2010Prop45
280
     0
102
RTVSPost2010PropOp45
 70
     1
102
RTVSPost2010Prop46
 90
       50
102
RTVSPost2010PropOp46
 70
     1
102
RTVSPost2010Prop47
 90
       50
102
RTVSPost2010PropOp47
 70
     1
102
RTVSPost2010Prop48
 90
       50
102
RTVSPost2010PropOp48
 70
     1
102
RTVSPost2010Prop49
280
     0
102
RTVSPost2010PropOp49
 70
     1
102
RTVSPost2010Prop50
 90
       50
102
RTVSPost2010PropOp50
 70
     1
102
RTVSPost2010Prop51ColorIndex
 90
      256
102
RTVSPost2010Prop51ColorRGB
 90
-16777216
102
RTVSPost2010PropOp51
 70
     0
102
RTVSPost2010Prop52
140
1.0
102
RTVSPost2010PropOp52
 70
     0
102
RTVSPost2010Prop53
 90
        2
102
RTVSPost2010PropOp53
 70
     1
102
RTVSPost2010Prop54
  1
strokes_ogs.tif
102
RTVSPost2010PropOp54
 70
     1
102
RTVSPost2010Prop55
280
     0
102
RTVSPost2010PropOp55
 70
     1
102
RTVSPost2010Prop56
140
1.0
102
RTVSPost2010PropOp56
 70
     1
102
RTVSPost2010Prop57
140
1.0
102
RTVSPost2010PropOp57
 70
     1
  0
XRECORD
  5
22C
102
{ACAD_REACTORS
330
22B
102
}
330
22B
100
AcDbXrecord
280
     1
102
RTVSPropertyOp0
 70
     1
102
RTVSPropertyOp1
 70
     1
102
RTVSPropertyOp2
 70
     1
102
RTVSPropertyOp3
 70
     1
102
RTVSPropertyOp4
 70
     1
102
RTVSPropertyOp5
 70
     1
102
RTVSPropertyOp6
 70
     1
102
RTVSPropertyOp7
 70
     1
102
RTVSPropertyOp8
 70
     1
102
RTVSPropertyOp9
 70
     1
102
RTVSPropertyOp10
 70
     1
102
RTVSPropertyOp11
 70
     1
102
RTVSPropertyOp12
 70
     1
102
RTVSPropertyOp13
 70
     1
102
RTVSPropertyOp14
 70
     1
102
RTVSPropertyOp15
 70
     1
102
RTVSPropertyOp16
 70
     1
102
RTVSPropertyOp17
 70
     1
102
RTVSPropertyOp18
 70
     1
102
RTVSPropertyOp19
 70
     1
102
RTVSPropertyOp20
 70
     1
102
RTVSPropertyOp21
 70
     1
102
RTVSPropertyOp22
 70
     1
102
RTVSPropertyOp23
 70
     1
102
RTVSPropertyOp24
 70
     1
102
RTVSPropertyOp25
 70
     1
102
RTVSPropertyOp26
 70
     1
102
RTVSPropertyOp27
 70
     1
102
RTVSPropertyOp28
 70
     1
102
RTVSPropertyOp29
 70
     1
102
RTVSPropertyOp30
 70
     1
102
RTVSPropertyOp31
 70
     1
102
RTVSPropertyOp32
 70
     1
102
RTVSPropertyOp33
 70
     1
102
RTVSPropertyOp34
 70
     1
102
RTVSPropertyOp35
 70
     1
102
RTVSPropertyOp36
 70
     1
102
RTVSPropertyOp37
 70
     1
102
RTVSPropertyOp38
 70
     1
102
RTVSPropertyOp39
 70
     1
102
RTVSPropertyOp40
 70
     1
102
RTVSPropertyOp41
 70
     1
102
RTVSPropertyOp42
 70
     1
102
RTVSPropertyOp43
 70
     1
102
RTVSPropertyOp44
 70
     1
102
RTVSPropertyOp45
 70
     1
102
RTVSPropertyOp46
 70
     1
102
RTVSPropertyOp47
 70
     1
102
RTVSPropertyOp48
 70
     1
102
RTVSPropertyOp49
 70
     1
102
RTVSPropertyOp50
 70
     1
102
RTVSPropertyOp51
 70
     0
102
RTVSPropertyOp52
 70
     0
102
RTVSPropertyOp53
 70
     1
102
RTVSPropertyOp54
 70
     1
102
RTVSPropertyOp55
 70
     1
102
RTVSPropertyOp56
 70
     1
102
RTVSPropertyOp57
 70
     1
102
RTVSPost2010Prop28
280
     0
102
RTVSPost2010PropOp28
 70
     1
102
RTVSPost2010Prop29
280
     1
102
RTVSPost2010PropOp29
 70
     1
102
RTVSPost2010Prop30
280
     1
102
RTVSPost2010PropOp30
 70
     1
102
RTVSPost2010Prop31
280
     0
102
RTVSPost2010PropOp31
 70
     1
102
RTVSPost2010Prop32
280
     0
102
RTVSPost2010PropOp32
 70
     1
102
RTVSPost2010Prop33
280
     0
102
RTVSPost2010PropOp33
 70
     1
102
RTVSPost2010Prop34
280
     0
102
RTVSPost2010PropOp34
 70
     1
102
RTVSPost2010Prop35
280
     0
102
RTVSPost2010PropOp35
 70
     1
102
RTVSPost2010Prop36
280
     0
102
RTVSPost2010PropOp36
 70
     1
102
RTVSPost2010Prop37
 90
       50
102
RTVSPost2010PropOp37
 70
     1
102
RTVSPost2010Prop38
140
0.0
102
RTVSPost2010PropOp38
 70
     1
102
RTVSPost2010Prop39
140
1.0
102
RTVSPost2010PropOp39
 70
     1
102
RTVSPost2010Prop40
 90
        0
102
RTVSPost2010PropOp40
 70
     1
102
RTVSPost2010Prop41ColorIndex
 90
       18
102
RTVSPost2010Prop41ColorRGB
 90
        0
102
RTVSPost2010PropOp41
 70
     1
102
RTVSPost2010Prop42
 90
       50
102
RTVSPost2010PropOp42
 70
     1
102
RTVSPost2010Prop43
 90
        3
102
RTVSPost2010PropOp43
 70
     1
102
RTVSPost2010Prop44ColorIndex
 90
        5
102
RTVSPost2010Prop44ColorRGB
 90
      255
102
RTVSPost2010PropOp44
 70
     1
102
RTVSPost2010Prop45
280
     0
102
RTVSPost2010PropOp45
 70
     1
102
RTVSPost2010Prop46
 90
       50
102
RTVSPost2010PropOp46
 70
     1
102
RTVSPost2010Prop47
 90
       50
102
RTVSPost2010PropOp47
 70
     1
102
RTVSPost2010Prop48
 90
       50
102
RTVSPost2010PropOp48
 70
     1
102
RTVSPost2010Prop49
280
     0
102
RTVSPost2010PropOp49
 70
     1
102
RTVSPost2010Prop50
 90
       50
102
RTVSPost2010PropOp50
 70
     1
102
RTVSPost2010Prop51ColorIndex
 90
      256
102
RTVSPost2010Prop51ColorRGB
 90
-16777216
102
RTVSPost2010PropOp51
 70
     0
102
RTVSPost2010Prop52
140
1.0
102
RTVSPost2010PropOp52
 70
     0
102
RTVSPost2010Prop53
 90
        2
102
RTVSPost2010PropOp53
 70
     1
102
RTVSPost2010Prop54
  1
strokes_ogs.tif
102
RTVSPost2010PropOp54
 70
     1
102
RTVSPost2010Prop55
280
     0
102
RTVSPost2010PropOp55
 70
     1
102
RTVSPost2010Prop56
140
1.0
102
RTVSPost2010PropOp56
 70
     1
102
RTVSPost2010Prop57
140
1.0
102
RTVSPost2010PropOp57
 70
     1
  0
XRECORD
  5
22A
102
{ACAD_REACTORS
330
229
102
}
330
229
100
AcDbXrecord
280
     1
102
RTVSPropertyOp0
 70
     1
102
RTVSPropertyOp1
 70
     1
102
RTVSPropertyOp2
 70
     1
102
RTVSPropertyOp3
 70
     1
102
RTVSPropertyOp4
 70
     1
102
RTVSPropertyOp5
 70
     1
102
RTVSPropertyOp6
 70
     1
102
RTVSPropertyOp7
 70
     1
102
RTVSPropertyOp8
 70
     1
102
RTVSPropertyOp9
 70
     1
102
RTVSPropertyOp10
 70
     1
102
RTVSPropertyOp11
 70
     1
102
RTVSPropertyOp12
 70
     1
102
RTVSPropertyOp13
 70
     1
102
RTVSPropertyOp14
 70
     1
102
RTVSPropertyOp15
 70
     1
102
RTVSPropertyOp16
 70
     1
102
RTVSPropertyOp17
 70
     1
102
RTVSPropertyOp18
 70
     1
102
RTVSPropertyOp19
 70
     1
102
RTVSPropertyOp20
 70
     1
102
RTVSPropertyOp21
 70
     1
102
RTVSPropertyOp22
 70
     1
102
RTVSPropertyOp23
 70
     1
102
RTVSPropertyOp24
 70
     1
102
RTVSPropertyOp25
 70
     1
102
RTVSPropertyOp26
 70
     1
102
RTVSPropertyOp27
 70
     1
102
RTVSPropertyOp28
 70
     1
102
RTVSPropertyOp29
 70
     1
102
RTVSPropertyOp30
 70
     1
102
RTVSPropertyOp31
 70
     1
102
RTVSPropertyOp32
 70
     1
102
RTVSPropertyOp33
 70
     1
102
RTVSPropertyOp34
 70
     1
102
RTVSPropertyOp35
 70
     1
102
RTVSPropertyOp36
 70
     1
102
RTVSPropertyOp37
 70
     1
102
RTVSPropertyOp38
 70
     1
102
RTVSPropertyOp39
 70
     1
102
RTVSPropertyOp40
 70
     1
102
RTVSPropertyOp41
 70
     1
102
RTVSPropertyOp42
 70
     1
102
RTVSPropertyOp43
 70
     1
102
RTVSPropertyOp44
 70
     1
102
RTVSPropertyOp45
 70
     1
102
RTVSPropertyOp46
 70
     1
102
RTVSPropertyOp47
 70
     1
102
RTVSPropertyOp48
 70
     1
102
RTVSPropertyOp49
 70
     1
102
RTVSPropertyOp50
 70
     1
102
RTVSPropertyOp51
 70
     0
102
RTVSPropertyOp52
 70
     0
102
RTVSPropertyOp53
 70
     1
102
RTVSPropertyOp54
 70
     1
102
RTVSPropertyOp55
 70
     1
102
RTVSPropertyOp56
 70
     1
102
RTVSPropertyOp57
 70
     1
102
RTVSPost2010Prop28
280
     0
102
RTVSPost2010PropOp28
 70
     1
102
RTVSPost2010Prop29
280
     1
102
RTVSPost2010PropOp29
 70
     1
102
RTVSPost2010Prop30
280
     1
102
RTVSPost2010PropOp30
 70
     1
102
RTVSPost2010Prop31
280
     0
102
RTVSPost2010PropOp31
 70
     1
102
RTVSPost2010Prop32
280
     0
102
RTVSPost2010PropOp32
 70
     1
102
RTVSPost2010Prop33
280
     0
102
RTVSPost2010PropOp33
 70
     1
102
RTVSPost2010Prop34
280
     0
102
RTVSPost2010PropOp34
 70
     1
102
RTVSPost2010Prop35
280
     0
102
RTVSPost2010PropOp35
 70
     1
102
RTVSPost2010Prop36
280
     0
102
RTVSPost2010PropOp36
 70
     1
102
RTVSPost2010Prop37
 90
       50
102
RTVSPost2010PropOp37
 70
     1
102
RTVSPost2010Prop38
140
0.0
102
RTVSPost2010PropOp38
 70
     1
102
RTVSPost2010Prop39
140
1.0
102
RTVSPost2010PropOp39
 70
     1
102
RTVSPost2010Prop40
 90
        0
102
RTVSPost2010PropOp40
 70
     1
102
RTVSPost2010Prop41ColorIndex
 90
       18
102
RTVSPost2010Prop41ColorRGB
 90
        0
102
RTVSPost2010PropOp41
 70
     1
102
RTVSPost2010Prop42
 90
       50
102
RTVSPost2010PropOp42
 70
     1
102
RTVSPost2010Prop43
 90
        3
102
RTVSPost2010PropOp43
 70
     1
102
RTVSPost2010Prop44ColorIndex
 90
        5
102
RTVSPost2010Prop44ColorRGB
 90
      255
102
RTVSPost2010PropOp44
 70
     1
102
RTVSPost2010Prop45
280
     0
102
RTVSPost2010PropOp45
 70
     1
102
RTVSPost2010Prop46
 90
       50
102
RTVSPost2010PropOp46
 70
     1
102
RTVSPost2010Prop47
 90
       50
102
RTVSPost2010PropOp47
 70
     1
102
RTVSPost2010Prop48
 90
       50
102
RTVSPost2010PropOp48
 70
     1
102
RTVSPost2010Prop49
280
     0
102
RTVSPost2010PropOp49
 70
     1
102
RTVSPost2010Prop50
 90
       50
102
RTVSPost2010PropOp50
 70
     1
102
RTVSPost2010Prop51ColorIndex
 90
      256
102
RTVSPost2010Prop51ColorRGB
 90
-16777216
102
RTVSPost2010PropOp51
 70
     0
102
RTVSPost2010Prop52
140
1.0
102
RTVSPost2010PropOp52
 70
     0
102
RTVSPost2010Prop53
 90
        2
102
RTVSPost2010PropOp53
 70
     1
102
RTVSPost2010Prop54
  1
strokes_ogs.tif
102
RTVSPost2010PropOp54
 70
     1
102
RTVSPost2010Prop55
280
     0
102
RTVSPost2010PropOp55
 70
     1
102
RTVSPost2010Prop56
140
1.0
102
RTVSPost2010PropOp56
 70
     1
102
RTVSPost2010Prop57
140
1.0
102
RTVSPost2010PropOp57
 70
     1
  0
XRECORD
  5
224
102
{ACAD_REACTORS
330
223
102
}
330
223
100
AcDbXrecord
280
     1
102
RTVSPropertyOp0
 70
     1
102
RTVSPropertyOp1
 70
     1
102
RTVSPropertyOp2
 70
     1
102
RTVSPropertyOp3
 70
     1
102
RTVSPropertyOp4
 70
     1
102
RTVSPropertyOp5
 70
     1
102
RTVSPropertyOp6
 70
     1
102
RTVSPropertyOp7
 70
     1
102
RTVSPropertyOp8
 70
     1
102
RTVSPropertyOp9
 70
     1
102
RTVSPropertyOp10
 70
     1
102
RTVSPropertyOp11
 70
     1
102
RTVSPropertyOp12
 70
     1
102
RTVSPropertyOp13
 70
     1
102
RTVSPropertyOp14
 70
     1
102
RTVSPropertyOp15
 70
     1
102
RTVSPropertyOp16
 70
     1
102
RTVSPropertyOp17
 70
     1
102
RTVSPropertyOp18
 70
     1
102
RTVSPropertyOp19
 70
     1
102
RTVSPropertyOp20
 70
     1
102
RTVSPropertyOp21
 70
     1
102
RTVSPropertyOp22
 70
     1
102
RTVSPropertyOp23
 70
     1
102
RTVSPropertyOp24
 70
     1
102
RTVSPropertyOp25
 70
     1
102
RTVSPropertyOp26
 70
     1
102
RTVSPropertyOp27
 70
     1
102
RTVSPropertyOp28
 70
     1
102
RTVSPropertyOp29
 70
     1
102
RTVSPropertyOp30
 70
     1
102
RTVSPropertyOp31
 70
     1
102
RTVSPropertyOp32
 70
     1
102
RTVSPropertyOp33
 70
     1
102
RTVSPropertyOp34
 70
     1
102
RTVSPropertyOp35
 70
     1
102
RTVSPropertyOp36
 70
     1
102
RTVSPropertyOp37
 70
     1
102
RTVSPropertyOp38
 70
     1
102
RTVSPropertyOp39
 70
     1
102
RTVSPropertyOp40
 70
     1
102
RTVSPropertyOp41
 70
     1
102
RTVSPropertyOp42
 70
     1
102
RTVSPropertyOp43
 70
     1
102
RTVSPropertyOp44
 70
     1
102
RTVSPropertyOp45
 70
     1
102
RTVSPropertyOp46
 70
     1
102
RTVSPropertyOp47
 70
     1
102
RTVSPropertyOp48
 70
     1
102
RTVSPropertyOp49
 70
     1
102
RTVSPropertyOp50
 70
     1
102
RTVSPropertyOp51
 70
     0
102
RTVSPropertyOp52
 70
     0
102
RTVSPropertyOp53
 70
     1
102
RTVSPropertyOp54
 70
     1
102
RTVSPropertyOp55
 70
     1
102
RTVSPropertyOp56
 70
     1
102
RTVSPropertyOp57
 70
     1
102
RTVSPost2010Prop28
280
     0
102
RTVSPost2010PropOp28
 70
     1
102
RTVSPost2010Prop29
280
     1
102
RTVSPost2010PropOp29
 70
     1
102
RTVSPost2010Prop30
280
     1
102
RTVSPost2010PropOp30
 70
     1
102
RTVSPost2010Prop31
280
     0
102
RTVSPost2010PropOp31
 70
     1
102
RTVSPost2010Prop32
280
     0
102
RTVSPost2010PropOp32
 70
     1
102
RTVSPost2010Prop33
280
     0
102
RTVSPost2010PropOp33
 70
     1
102
RTVSPost2010Prop34
280
     0
102
RTVSPost2010PropOp34
 70
     1
102
RTVSPost2010Prop35
280
     0
102
RTVSPost2010PropOp35
 70
     1
102
RTVSPost2010Prop36
280
     0
102
RTVSPost2010PropOp36
 70
     1
102
RTVSPost2010Prop37
 90
       50
102
RTVSPost2010PropOp37
 70
     1
102
RTVSPost2010Prop38
140
0.0
102
RTVSPost2010PropOp38
 70
     1
102
RTVSPost2010Prop39
140
1.0
102
RTVSPost2010PropOp39
 70
     1
102
RTVSPost2010Prop40
 90
        0
102
RTVSPost2010PropOp40
 70
     1
102
RTVSPost2010Prop41ColorIndex
 90
       18
102
RTVSPost2010Prop41ColorRGB
 90
        0
102
RTVSPost2010PropOp41
 70
     1
102
RTVSPost2010Prop42
 90
       50
102
RTVSPost2010PropOp42
 70
     1
102
RTVSPost2010Prop43
 90
        3
102
RTVSPost2010PropOp43
 70
     1
102
RTVSPost2010Prop44ColorIndex
 90
        5
102
RTVSPost2010Prop44ColorRGB
 90
      255
102
RTVSPost2010PropOp44
 70
     1
102
RTVSPost2010Prop45
280
     0
102
RTVSPost2010PropOp45
 70
     1
102
RTVSPost2010Prop46
 90
       50
102
RTVSPost2010PropOp46
 70
     1
102
RTVSPost2010Prop47
 90
       50
102
RTVSPost2010PropOp47
 70
     1
102
RTVSPost2010Prop48
 90
       50
102
RTVSPost2010PropOp48
 70
     1
102
RTVSPost2010Prop49
280
     0
102
RTVSPost2010PropOp49
 70
     1
102
RTVSPost2010Prop50
 90
       50
102
RTVSPost2010PropOp50
 70
     1
102
RTVSPost2010Prop51ColorIndex
 90
      256
102
RTVSPost2010Prop51ColorRGB
 90
-16777216
102
RTVSPost2010PropOp51
 70
     0
102
RTVSPost2010Prop52
140
1.0
102
RTVSPost2010PropOp52
 70
     0
102
RTVSPost2010Prop53
 90
        2
102
RTVSPost2010PropOp53
 70
     1
102
RTVSPost2010Prop54
  1
strokes_ogs.tif
102
RTVSPost2010PropOp54
 70
     1
102
RTVSPost2010Prop55
280
     0
102
RTVSPost2010PropOp55
 70
     1
102
RTVSPost2010Prop56
140
1.0
102
RTVSPost2010PropOp56
 70
     1
102
RTVSPost2010Prop57
140
1.0
102
RTVSPost2010PropOp57
 70
     1
  0
XRECORD
  5
226
102
{ACAD_REACTORS
330
225
102
}
330
225
100
AcDbXrecord
280
     1
102
RTVSPropertyOp0
 70
     1
102
RTVSPropertyOp1
 70
     1
102
RTVSPropertyOp2
 70
     1
102
RTVSPropertyOp3
 70
     1
102
RTVSPropertyOp4
 70
     1
102
RTVSPropertyOp5
 70
     1
102
RTVSPropertyOp6
 70
     1
102
RTVSPropertyOp7
 70
     1
102
RTVSPropertyOp8
 70
     1
102
RTVSPropertyOp9
 70
     1
102
RTVSPropertyOp10
 70
     1
102
RTVSPropertyOp11
 70
     1
102
RTVSPropertyOp12
 70
     1
102
RTVSPropertyOp13
 70
     1
102
RTVSPropertyOp14
 70
     1
102
RTVSPropertyOp15
 70
     1
102
RTVSPropertyOp16
 70
     1
102
RTVSPropertyOp17
 70
     1
102
RTVSPropertyOp18
 70
     1
102
RTVSPropertyOp19
 70
     1
102
RTVSPropertyOp20
 70
     1
102
RTVSPropertyOp21
 70
     1
102
RTVSPropertyOp22
 70
     1
102
RTVSPropertyOp23
 70
     1
102
RTVSPropertyOp24
 70
     1
102
RTVSPropertyOp25
 70
     1
102
RTVSPropertyOp26
 70
     1
102
RTVSPropertyOp27
 70
     1
102
RTVSPropertyOp28
 70
     1
102
RTVSPropertyOp29
 70
     1
102
RTVSPropertyOp30
 70
     1
102
RTVSPropertyOp31
 70
     1
102
RTVSPropertyOp32
 70
     1
102
RTVSPropertyOp33
 70
     1
102
RTVSPropertyOp34
 70
     1
102
RTVSPropertyOp35
 70
     1
102
RTVSPropertyOp36
 70
     1
102
RTVSPropertyOp37
 70
     1
102
RTVSPropertyOp38
 70
     1
102
RTVSPropertyOp39
 70
     1
102
RTVSPropertyOp40
 70
     1
102
RTVSPropertyOp41
 70
     1
102
RTVSPropertyOp42
 70
     1
102
RTVSPropertyOp43
 70
     1
102
RTVSPropertyOp44
 70
     1
102
RTVSPropertyOp45
 70
     1
102
RTVSPropertyOp46
 70
     1
102
RTVSPropertyOp47
 70
     1
102
RTVSPropertyOp48
 70
     1
102
RTVSPropertyOp49
 70
     1
102
RTVSPropertyOp50
 70
     1
102
RTVSPropertyOp51
 70
     0
102
RTVSPropertyOp52
 70
     0
102
RTVSPropertyOp53
 70
     1
102
RTVSPropertyOp54
 70
     1
102
RTVSPropertyOp55
 70
     1
102
RTVSPropertyOp56
 70
     1
102
RTVSPropertyOp57
 70
     1
102
RTVSPost2010Prop28
280
     0
102
RTVSPost2010PropOp28
 70
     1
102
RTVSPost2010Prop29
280
     1
102
RTVSPost2010PropOp29
 70
     1
102
RTVSPost2010Prop30
280
     1
102
RTVSPost2010PropOp30
 70
     1
102
RTVSPost2010Prop31
280
     0
102
RTVSPost2010PropOp31
 70
     1
102
RTVSPost2010Prop32
280
     0
102
RTVSPost2010PropOp32
 70
     1
102
RTVSPost2010Prop33
280
     0
102
RTVSPost2010PropOp33
 70
     1
102
RTVSPost2010Prop34
280
     0
102
RTVSPost2010PropOp34
 70
     1
102
RTVSPost2010Prop35
280
     0
102
RTVSPost2010PropOp35
 70
     1
102
RTVSPost2010Prop36
280
     0
102
RTVSPost2010PropOp36
 70
     1
102
RTVSPost2010Prop37
 90
       50
102
RTVSPost2010PropOp37
 70
     1
102
RTVSPost2010Prop38
140
0.0
102
RTVSPost2010PropOp38
 70
     1
102
RTVSPost2010Prop39
140
1.0
102
RTVSPost2010PropOp39
 70
     1
102
RTVSPost2010Prop40
 90
        0
102
RTVSPost2010PropOp40
 70
     1
102
RTVSPost2010Prop41ColorIndex
 90
       18
102
RTVSPost2010Prop41ColorRGB
 90
        0
102
RTVSPost2010PropOp41
 70
     1
102
RTVSPost2010Prop42
 90
       50
102
RTVSPost2010PropOp42
 70
     1
102
RTVSPost2010Prop43
 90
        3
102
RTVSPost2010PropOp43
 70
     1
102
RTVSPost2010Prop44ColorIndex
 90
        5
102
RTVSPost2010Prop44ColorRGB
 90
      255
102
RTVSPost2010PropOp44
 70
     1
102
RTVSPost2010Prop45
280
     0
102
RTVSPost2010PropOp45
 70
     1
102
RTVSPost2010Prop46
 90
       50
102
RTVSPost2010PropOp46
 70
     1
102
RTVSPost2010Prop47
 90
       50
102
RTVSPost2010PropOp47
 70
     1
102
RTVSPost2010Prop48
 90
       50
102
RTVSPost2010PropOp48
 70
     1
102
RTVSPost2010Prop49
280
     0
102
RTVSPost2010PropOp49
 70
     1
102
RTVSPost2010Prop50
 90
       50
102
RTVSPost2010PropOp50
 70
     1
102
RTVSPost2010Prop51ColorIndex
 90
      256
102
RTVSPost2010Prop51ColorRGB
 90
-16777216
102
RTVSPost2010PropOp51
 70
     0
102
RTVSPost2010Prop52
140
1.0
102
RTVSPost2010PropOp52
 70
     0
102
RTVSPost2010Prop53
 90
        2
102
RTVSPost2010PropOp53
 70
     1
102
RTVSPost2010Prop54
  1
strokes_ogs.tif
102
RTVSPost2010PropOp54
 70
     1
102
RTVSPost2010Prop55
280
     0
102
RTVSPost2010PropOp55
 70
     1
102
RTVSPost2010Prop56
140
1.0
102
RTVSPost2010PropOp56
 70
     1
102
RTVSPost2010Prop57
140
1.0
102
RTVSPost2010PropOp57
 70
     1
  0
XRECORD
  5
216
102
{ACAD_REACTORS
330
215
102
}
330
215
100
AcDbXrecord
280
     1
102
RTVSPropertyOp0
 70
     1
102
RTVSPropertyOp1
 70
     1
102
RTVSPropertyOp2
 70
     1
102
RTVSPropertyOp3
 70
     1
102
RTVSPropertyOp4
 70
     1
102
RTVSPropertyOp5
 70
     1
102
RTVSPropertyOp6
 70
     1
102
RTVSPropertyOp7
 70
     1
102
RTVSPropertyOp8
 70
     1
102
RTVSPropertyOp9
 70
     1
102
RTVSPropertyOp10
 70
     1
102
RTVSPropertyOp11
 70
     1
102
RTVSPropertyOp12
 70
     1
102
RTVSPropertyOp13
 70
     1
102
RTVSPropertyOp14
 70
     1
102
RTVSPropertyOp15
 70
     1
102
RTVSPropertyOp16
 70
     1
102
RTVSPropertyOp17
 70
     1
102
RTVSPropertyOp18
 70
     1
102
RTVSPropertyOp19
 70
     1
102
RTVSPropertyOp20
 70
     1
102
RTVSPropertyOp21
 70
     1
102
RTVSPropertyOp22
 70
     1
102
RTVSPropertyOp23
 70
     1
102
RTVSPropertyOp24
 70
     1
102
RTVSPropertyOp25
 70
     1
102
RTVSPropertyOp26
 70
     1
102
RTVSPropertyOp27
 70
     1
102
RTVSPropertyOp28
 70
     1
102
RTVSPropertyOp29
 70
     1
102
RTVSPropertyOp30
 70
     1
102
RTVSPropertyOp31
 70
     1
102
RTVSPropertyOp32
 70
     1
102
RTVSPropertyOp33
 70
     1
102
RTVSPropertyOp34
 70
     1
102
RTVSPropertyOp35
 70
     1
102
RTVSPropertyOp36
 70
     1
102
RTVSPropertyOp37
 70
     1
102
RTVSPropertyOp38
 70
     1
102
RTVSPropertyOp39
 70
     1
102
RTVSPropertyOp40
 70
     1
102
RTVSPropertyOp41
 70
     1
102
RTVSPropertyOp42
 70
     1
102
RTVSPropertyOp43
 70
     1
102
RTVSPropertyOp44
 70
     1
102
RTVSPropertyOp45
 70
     1
102
RTVSPropertyOp46
 70
     1
102
RTVSPropertyOp47
 70
     1
102
RTVSPropertyOp48
 70
     1
102
RTVSPropertyOp49
 70
     1
102
RTVSPropertyOp50
 70
     1
102
RTVSPropertyOp51
 70
     0
102
RTVSPropertyOp52
 70
     0
102
RTVSPropertyOp53
 70
     1
102
RTVSPropertyOp54
 70
     1
102
RTVSPropertyOp55
 70
     1
102
RTVSPropertyOp56
 70
     1
102
RTVSPropertyOp57
 70
     1
102
RTVSPost2010Prop28
280
     0
102
RTVSPost2010PropOp28
 70
     1
102
RTVSPost2010Prop29
280
     1
102
RTVSPost2010PropOp29
 70
     1
102
RTVSPost2010Prop30
280
     1
102
RTVSPost2010PropOp30
 70
     1
102
RTVSPost2010Prop31
280
     0
102
RTVSPost2010PropOp31
 70
     1
102
RTVSPost2010Prop32
280
     0
102
RTVSPost2010PropOp32
 70
     1
102
RTVSPost2010Prop33
280
     0
102
RTVSPost2010PropOp33
 70
     1
102
RTVSPost2010Prop34
280
     0
102
RTVSPost2010PropOp34
 70
     1
102
RTVSPost2010Prop35
280
     0
102
RTVSPost2010PropOp35
 70
     1
102
RTVSPost2010Prop36
280
     0
102
RTVSPost2010PropOp36
 70
     1
102
RTVSPost2010Prop37
 90
       50
102
RTVSPost2010PropOp37
 70
     1
102
RTVSPost2010Prop38
140
0.0
102
RTVSPost2010PropOp38
 70
     1
102
RTVSPost2010Prop39
140
1.0
102
RTVSPost2010PropOp39
 70
     1
102
RTVSPost2010Prop40
 90
        0
102
RTVSPost2010PropOp40
 70
     1
102
RTVSPost2010Prop41ColorIndex
 90
       18
102
RTVSPost2010Prop41ColorRGB
 90
        0
102
RTVSPost2010PropOp41
 70
     1
102
RTVSPost2010Prop42
 90
       50
102
RTVSPost2010PropOp42
 70
     1
102
RTVSPost2010Prop43
 90
        3
102
RTVSPost2010PropOp43
 70
     1
102
RTVSPost2010Prop44ColorIndex
 90
        5
102
RTVSPost2010Prop44ColorRGB
 90
      255
102
RTVSPost2010PropOp44
 70
     1
102
RTVSPost2010Prop45
280
     0
102
RTVSPost2010PropOp45
 70
     1
102
RTVSPost2010Prop46
 90
       50
102
RTVSPost2010PropOp46
 70
     1
102
RTVSPost2010Prop47
 90
       50
102
RTVSPost2010PropOp47
 70
     1
102
RTVSPost2010Prop48
 90
       50
102
RTVSPost2010PropOp48
 70
     1
102
RTVSPost2010Prop49
280
     0
102
RTVSPost2010PropOp49
 70
     1
102
RTVSPost2010Prop50
 90
       50
102
RTVSPost2010PropOp50
 70
     1
102
RTVSPost2010Prop51ColorIndex
 90
      256
102
RTVSPost2010Prop51ColorRGB
 90
-16777216
102
RTVSPost2010PropOp51
 70
     0
102
RTVSPost2010Prop52
140
1.0
102
RTVSPost2010PropOp52
 70
     0
102
RTVSPost2010Prop53
 90
        2
102
RTVSPost2010PropOp53
 70
     1
102
RTVSPost2010Prop54
  1
strokes_ogs.tif
102
RTVSPost2010PropOp54
 70
     1
102
RTVSPost2010Prop55
280
     0
102
RTVSPost2010PropOp55
 70
     1
102
RTVSPost2010Prop56
140
1.0
102
RTVSPost2010PropOp56
 70
     1
102
RTVSPost2010Prop57
140
1.0
102
RTVSPost2010PropOp57
 70
     1
  0
XRECORD
  5
208
102
{ACAD_REACTORS
330
207
102
}
330
207
100
AcDbXrecord
280
     1
102
RTVSPropertyOp0
 70
     1
102
RTVSPropertyOp1
 70
     1
102
RTVSPropertyOp2
 70
     1
102
RTVSPropertyOp3
 70
     1
102
RTVSPropertyOp4
 70
     1
102
RTVSPropertyOp5
 70
     1
102
RTVSPropertyOp6
 70
     1
102
RTVSPropertyOp7
 70
     1
102
RTVSPropertyOp8
 70
     1
102
RTVSPropertyOp9
 70
     1
102
RTVSPropertyOp10
 70
     1
102
RTVSPropertyOp11
 70
     1
102
RTVSPropertyOp12
 70
     1
102
RTVSPropertyOp13
 70
     1
102
RTVSPropertyOp14
 70
     1
102
RTVSPropertyOp15
 70
     1
102
RTVSPropertyOp16
 70
     1
102
RTVSPropertyOp17
 70
     1
102
RTVSPropertyOp18
 70
     1
102
RTVSPropertyOp19
 70
     1
102
RTVSPropertyOp20
 70
     1
102
RTVSPropertyOp21
 70
     1
102
RTVSPropertyOp22
 70
     1
102
RTVSPropertyOp23
 70
     1
102
RTVSPropertyOp24
 70
     1
102
RTVSPropertyOp25
 70
     1
102
RTVSPropertyOp26
 70
     1
102
RTVSPropertyOp27
 70
     1
102
RTVSPropertyOp28
 70
     1
102
RTVSPropertyOp29
 70
     1
102
RTVSPropertyOp30
 70
     1
102
RTVSPropertyOp31
 70
     1
102
RTVSPropertyOp32
 70
     1
102
RTVSPropertyOp33
 70
     1
102
RTVSPropertyOp34
 70
     1
102
RTVSPropertyOp35
 70
     1
102
RTVSPropertyOp36
 70
     1
102
RTVSPropertyOp37
 70
     1
102
RTVSPropertyOp38
 70
     1
102
RTVSPropertyOp39
 70
     1
102
RTVSPropertyOp40
 70
     1
102
RTVSPropertyOp41
 70
     1
102
RTVSPropertyOp42
 70
     1
102
RTVSPropertyOp43
 70
     1
102
RTVSPropertyOp44
 70
     1
102
RTVSPropertyOp45
 70
     1
102
RTVSPropertyOp46
 70
     1
102
RTVSPropertyOp47
 70
     1
102
RTVSPropertyOp48
 70
     1
102
RTVSPropertyOp49
 70
     1
102
RTVSPropertyOp50
 70
     1
102
RTVSPropertyOp51
 70
     0
102
RTVSPropertyOp52
 70
     0
102
RTVSPropertyOp53
 70
     1
102
RTVSPropertyOp54
 70
     1
102
RTVSPropertyOp55
 70
     1
102
RTVSPropertyOp56
 70
     1
102
RTVSPropertyOp57
 70
     1
102
RTVSPost2010Prop28
280
     0
102
RTVSPost2010PropOp28
 70
     1
102
RTVSPost2010Prop29
280
     1
102
RTVSPost2010PropOp29
 70
     1
102
RTVSPost2010Prop30
280
     1
102
RTVSPost2010PropOp30
 70
     1
102
RTVSPost2010Prop31
280
     0
102
RTVSPost2010PropOp31
 70
     1
102
RTVSPost2010Prop32
280
     0
102
RTVSPost2010PropOp32
 70
     1
102
RTVSPost2010Prop33
280
     0
102
RTVSPost2010PropOp33
 70
     1
102
RTVSPost2010Prop34
280
     0
102
RTVSPost2010PropOp34
 70
     1
102
RTVSPost2010Prop35
280
     0
102
RTVSPost2010PropOp35
 70
     1
102
RTVSPost2010Prop36
280
     0
102
RTVSPost2010PropOp36
 70
     1
102
RTVSPost2010Prop37
 90
       50
102
RTVSPost2010PropOp37
 70
     1
102
RTVSPost2010Prop38
140
0.0
102
RTVSPost2010PropOp38
 70
     1
102
RTVSPost2010Prop39
140
1.0
102
RTVSPost2010PropOp39
 70
     1
102
RTVSPost2010Prop40
 90
        0
102
RTVSPost2010PropOp40
 70
     1
102
RTVSPost2010Prop41ColorIndex
 90
       18
102
RTVSPost2010Prop41ColorRGB
 90
        0
102
RTVSPost2010PropOp41
 70
     1
102
RTVSPost2010Prop42
 90
       50
102
RTVSPost2010PropOp42
 70
     1
102
RTVSPost2010Prop43
 90
        3
102
RTVSPost2010PropOp43
 70
     1
102
RTVSPost2010Prop44ColorIndex
 90
        5
102
RTVSPost2010Prop44ColorRGB
 90
      255
102
RTVSPost2010PropOp44
 70
     1
102
RTVSPost2010Prop45
280
     0
102
RTVSPost2010PropOp45
 70
     1
102
RTVSPost2010Prop46
 90
       50
102
RTVSPost2010PropOp46
 70
     1
102
RTVSPost2010Prop47
 90
       50
102
RTVSPost2010PropOp47
 70
     1
102
RTVSPost2010Prop48
 90
       50
102
RTVSPost2010PropOp48
 70
     1
102
RTVSPost2010Prop49
280
     0
102
RTVSPost2010PropOp49
 70
     1
102
RTVSPost2010Prop50
 90
       50
102
RTVSPost2010PropOp50
 70
     1
102
RTVSPost2010Prop51ColorIndex
 90
      256
102
RTVSPost2010Prop51ColorRGB
 90
-16777216
102
RTVSPost2010PropOp51
 70
     0
102
RTVSPost2010Prop52
140
1.0
102
RTVSPost2010PropOp52
 70
     0
102
RTVSPost2010Prop53
 90
        2
102
RTVSPost2010PropOp53
 70
     1
102
RTVSPost2010Prop54
  1
strokes_ogs.tif
102
RTVSPost2010PropOp54
 70
     1
102
RTVSPost2010Prop55
280
     0
102
RTVSPost2010PropOp55
 70
     1
102
RTVSPost2010Prop56
140
1.0
102
RTVSPost2010PropOp56
 70
     1
102
RTVSPost2010Prop57
140
1.0
102
RTVSPost2010PropOp57
 70
     1
  0
XRECORD
  5
228
102
{ACAD_REACTORS
330
227
102
}
330
227
100
AcDbXrecord
280
     1
102
RTVSPropertyOp0
 70
     1
102
RTVSPropertyOp1
 70
     1
102
RTVSPropertyOp2
 70
     1
102
RTVSPropertyOp3
 70
     1
102
RTVSPropertyOp4
 70
     1
102
RTVSPropertyOp5
 70
     1
102
RTVSPropertyOp6
 70
     1
102
RTVSPropertyOp7
 70
     1
102
RTVSPropertyOp8
 70
     1
102
RTVSPropertyOp9
 70
     1
102
RTVSPropertyOp10
 70
     1
102
RTVSPropertyOp11
 70
     1
102
RTVSPropertyOp12
 70
     1
102
RTVSPropertyOp13
 70
     1
102
RTVSPropertyOp14
 70
     1
102
RTVSPropertyOp15
 70
     1
102
RTVSPropertyOp16
 70
     1
102
RTVSPropertyOp17
 70
     1
102
RTVSPropertyOp18
 70
     1
102
RTVSPropertyOp19
 70
     1
102
RTVSPropertyOp20
 70
     1
102
RTVSPropertyOp21
 70
     1
102
RTVSPropertyOp22
 70
     1
102
RTVSPropertyOp23
 70
     1
102
RTVSPropertyOp24
 70
     1
102
RTVSPropertyOp25
 70
     1
102
RTVSPropertyOp26
 70
     1
102
RTVSPropertyOp27
 70
     1
102
RTVSPropertyOp28
 70
     1
102
RTVSPropertyOp29
 70
     1
102
RTVSPropertyOp30
 70
     1
102
RTVSPropertyOp31
 70
     1
102
RTVSPropertyOp32
 70
     1
102
RTVSPropertyOp33
 70
     1
102
RTVSPropertyOp34
 70
     1
102
RTVSPropertyOp35
 70
     1
102
RTVSPropertyOp36
 70
     1
102
RTVSPropertyOp37
 70
     1
102
RTVSPropertyOp38
 70
     1
102
RTVSPropertyOp39
 70
     1
102
RTVSPropertyOp40
 70
     1
102
RTVSPropertyOp41
 70
     1
102
RTVSPropertyOp42
 70
     1
102
RTVSPropertyOp43
 70
     1
102
RTVSPropertyOp44
 70
     1
102
RTVSPropertyOp45
 70
     1
102
RTVSPropertyOp46
 70
     1
102
RTVSPropertyOp47
 70
     1
102
RTVSPropertyOp48
 70
     1
102
RTVSPropertyOp49
 70
     1
102
RTVSPropertyOp50
 70
     1
102
RTVSPropertyOp51
 70
     0
102
RTVSPropertyOp52
 70
     0
102
RTVSPropertyOp53
 70
     1
102
RTVSPropertyOp54
 70
     1
102
RTVSPropertyOp55
 70
     1
102
RTVSPropertyOp56
 70
     1
102
RTVSPropertyOp57
 70
     1
102
RTVSPost2010Prop28
280
     0
102
RTVSPost2010PropOp28
 70
     1
102
RTVSPost2010Prop29
280
     1
102
RTVSPost2010PropOp29
 70
     1
102
RTVSPost2010Prop30
280
     1
102
RTVSPost2010PropOp30
 70
     1
102
RTVSPost2010Prop31
280
     0
102
RTVSPost2010PropOp31
 70
     1
102
RTVSPost2010Prop32
280
     0
102
RTVSPost2010PropOp32
 70
     1
102
RTVSPost2010Prop33
280
     0
102
RTVSPost2010PropOp33
 70
     1
102
RTVSPost2010Prop34
280
     0
102
RTVSPost2010PropOp34
 70
     1
102
RTVSPost2010Prop35
280
     0
102
RTVSPost2010PropOp35
 70
     1
102
RTVSPost2010Prop36
280
     0
102
RTVSPost2010PropOp36
 70
     1
102
RTVSPost2010Prop37
 90
       50
102
RTVSPost2010PropOp37
 70
     1
102
RTVSPost2010Prop38
140
0.0
102
RTVSPost2010PropOp38
 70
     1
102
RTVSPost2010Prop39
140
1.0
102
RTVSPost2010PropOp39
 70
     1
102
RTVSPost2010Prop40
 90
        0
102
RTVSPost2010PropOp40
 70
     1
102
RTVSPost2010Prop41ColorIndex
 90
       18
102
RTVSPost2010Prop41ColorRGB
 90
        0
102
RTVSPost2010PropOp41
 70
     1
102
RTVSPost2010Prop42
 90
       50
102
RTVSPost2010PropOp42
 70
     1
102
RTVSPost2010Prop43
 90
        3
102
RTVSPost2010PropOp43
 70
     1
102
RTVSPost2010Prop44ColorIndex
 90
        5
102
RTVSPost2010Prop44ColorRGB
 90
      255
102
RTVSPost2010PropOp44
 70
     1
102
RTVSPost2010Prop45
280
     0
102
RTVSPost2010PropOp45
 70
     1
102
RTVSPost2010Prop46
 90
       50
102
RTVSPost2010PropOp46
 70
     1
102
RTVSPost2010Prop47
 90
       50
102
RTVSPost2010PropOp47
 70
     1
102
RTVSPost2010Prop48
 90
       50
102
RTVSPost2010PropOp48
 70
     1
102
RTVSPost2010Prop49
280
     0
102
RTVSPost2010PropOp49
 70
     1
102
RTVSPost2010Prop50
 90
       50
102
RTVSPost2010PropOp50
 70
     1
102
RTVSPost2010Prop51ColorIndex
 90
      256
102
RTVSPost2010Prop51ColorRGB
 90
-16777216
102
RTVSPost2010PropOp51
 70
     0
102
RTVSPost2010Prop52
140
1.0
102
RTVSPost2010PropOp52
 70
     0
102
RTVSPost2010Prop53
 90
        2
102
RTVSPost2010PropOp53
 70
     1
102
RTVSPost2010Prop54
  1
strokes_ogs.tif
102
RTVSPost2010PropOp54
 70
     1
102
RTVSPost2010Prop55
280
     0
102
RTVSPost2010PropOp55
 70
     1
102
RTVSPost2010Prop56
140
1.0
102
RTVSPost2010PropOp56
 70
     1
102
RTVSPost2010Prop57
140
1.0
102
RTVSPost2010PropOp57
 70
     1
  0
ENDSEC
  0
EOF
