ISO-10303-21;
HEADER;
FILE_DESCRIPTION(('Creo Elements/Direct Modeling STEP Export'),'2;1');
FILE_NAME(
'C:/Temp/JobServerData/JobServer Files/4082c9db-5876-46c3-b53b-c1210faf4
8a5/work/output/model.stp','2021-03-22T14:17:07',(''),(''),
'Creo Elements/Direct Modeling STEP processor for AP214 (Solid Model)',
'Creo Elements/Direct Modeling 20.1D  10-Oct-2020 (C) Parametric Technol
ogy GmbH','');
FILE_SCHEMA(('AUTOMOTIVE_DESIGN { 1 0 10303 214 1 1 1 1 }'));
ENDSEC;
DATA;
#10=CARTESIAN_POINT('',(9.96112409249344,17.5839493178025,
-0.599999999999999));
#20=DIRECTION('',(0.,0.,1.));
#30=DIRECTION('',(1.,0.,0.));
#40=AXIS2_PLACEMENT_3D('',#10,#20,#30);
#50=PLANE('',#40);
#60=CARTESIAN_POINT('',(-12.45,14.235,-0.599999999999999));
#70=DIRECTION('',(0.,1.,0.));
#80=VECTOR('',#70,1.);
#90=LINE('',#60,#80);
#100=CARTESIAN_POINT('',(-12.45,14.235,-0.599999999999999));
#110=VERTEX_POINT('',#100);
#120=CARTESIAN_POINT('',(-12.45,28.235,-0.599999999999999));
#130=VERTEX_POINT('',#120);
#140=EDGE_CURVE('',#110,#130,#90,.T.);
#150=ORIENTED_EDGE('',*,*,#140,.T.);
#160=CARTESIAN_POINT('',(12.55,14.235,-0.599999999999999));
#170=DIRECTION('',(-1.,0.,0.));
#180=VECTOR('',#170,1.);
#190=LINE('',#160,#180);
#200=CARTESIAN_POINT('',(43.55,14.235,-0.599999999999999));
#210=VERTEX_POINT('',#200);
#220=EDGE_CURVE('',#210,#110,#190,.T.);
#230=ORIENTED_EDGE('',*,*,#220,.T.);
#240=CARTESIAN_POINT('',(43.55,20.61,-0.599999999999999));
#250=DIRECTION('',(0.,-1.,0.));
#260=VECTOR('',#250,1.);
#270=LINE('',#240,#260);
#280=CARTESIAN_POINT('',(43.55,28.235,-0.599999999999999));
#290=VERTEX_POINT('',#280);
#300=EDGE_CURVE('',#290,#210,#270,.T.);
#310=ORIENTED_EDGE('',*,*,#300,.T.);
#320=CARTESIAN_POINT('',(-12.45,28.235,-0.599999999999999));
#330=DIRECTION('',(1.,0.,0.));
#340=VECTOR('',#330,1.);
#350=LINE('',#320,#340);
#360=EDGE_CURVE('',#130,#290,#350,.T.);
#370=ORIENTED_EDGE('',*,*,#360,.T.);
#380=EDGE_LOOP('',(#370,#310,#230,#150));
#390=FACE_OUTER_BOUND('',#380,.T.);
#400=ADVANCED_FACE('',(#390),#50,.F.);
#410=COLOUR_RGB('',0.980392217636108,1.,1.);
#420=FILL_AREA_STYLE_COLOUR('',#410);
#430=FILL_AREA_STYLE('',(#420));
#440=SURFACE_STYLE_FILL_AREA(#430);
#450=SURFACE_SIDE_STYLE('',(#440));
#460=SURFACE_STYLE_USAGE(.BOTH.,#450);
#470=PRESENTATION_STYLE_ASSIGNMENT((#460));
#480=CARTESIAN_POINT('',(9.96112409249344,17.5839493178025,
-0.449999999999999));
#490=DIRECTION('',(0.,0.,1.));
#500=DIRECTION('',(1.,0.,0.));
#510=AXIS2_PLACEMENT_3D('',#480,#490,#500);
#520=PLANE('',#510);
#530=CARTESIAN_POINT('',(-12.45,28.235,-0.449999999999999));
#540=DIRECTION('',(1.,0.,0.));
#550=VECTOR('',#540,1.);
#560=LINE('',#530,#550);
#570=CARTESIAN_POINT('',(-12.45,28.235,-0.449999999999999));
#580=VERTEX_POINT('',#570);
#590=CARTESIAN_POINT('',(43.55,28.235,-0.449999999999999));
#600=VERTEX_POINT('',#590);
#610=EDGE_CURVE('',#580,#600,#560,.T.);
#620=ORIENTED_EDGE('',*,*,#610,.F.);
#630=CARTESIAN_POINT('',(43.55,20.61,-0.449999999999999));
#640=DIRECTION('',(0.,-1.,0.));
#650=VECTOR('',#640,1.);
#660=LINE('',#630,#650);
#670=CARTESIAN_POINT('',(43.55,14.235,-0.449999999999999));
#680=VERTEX_POINT('',#670);
#690=EDGE_CURVE('',#600,#680,#660,.T.);
#700=ORIENTED_EDGE('',*,*,#690,.F.);
#710=CARTESIAN_POINT('',(12.55,14.235,-0.449999999999999));
#720=DIRECTION('',(-1.,0.,0.));
#730=VECTOR('',#720,1.);
#740=LINE('',#710,#730);
#750=CARTESIAN_POINT('',(-12.45,14.235,-0.449999999999999));
#760=VERTEX_POINT('',#750);
#770=EDGE_CURVE('',#680,#760,#740,.T.);
#780=ORIENTED_EDGE('',*,*,#770,.F.);
#790=CARTESIAN_POINT('',(-12.45,14.235,-0.449999999999999));
#800=DIRECTION('',(0.,1.,0.));
#810=VECTOR('',#800,1.);
#820=LINE('',#790,#810);
#830=EDGE_CURVE('',#760,#580,#820,.T.);
#840=ORIENTED_EDGE('',*,*,#830,.F.);
#850=EDGE_LOOP('',(#840,#780,#700,#620));
#860=FACE_OUTER_BOUND('',#850,.T.);
#870=ADVANCED_FACE('',(#860),#520,.T.);
#880=COLOUR_RGB('',0.980392217636108,1.,1.);
#890=FILL_AREA_STYLE_COLOUR('',#880);
#900=FILL_AREA_STYLE('',(#890));
#910=SURFACE_STYLE_FILL_AREA(#900);
#920=SURFACE_SIDE_STYLE('',(#910));
#930=SURFACE_STYLE_USAGE(.BOTH.,#920);
#940=PRESENTATION_STYLE_ASSIGNMENT((#930));
#950=CARTESIAN_POINT('',(-12.45,14.235,-0.599999999999999));
#960=DIRECTION('',(-1.,0.,0.));
#970=DIRECTION('',(0.,1.,0.));
#980=AXIS2_PLACEMENT_3D('',#950,#960,#970);
#990=PLANE('',#980);
#1000=CARTESIAN_POINT('',(-12.45,28.235,-0.599999999999999));
#1010=DIRECTION('',(0.,0.,1.));
#1020=VECTOR('',#1010,1.);
#1030=LINE('',#1000,#1020);
#1040=EDGE_CURVE('',#130,#580,#1030,.T.);
#1050=ORIENTED_EDGE('',*,*,#1040,.F.);
#1060=ORIENTED_EDGE('',*,*,#830,.T.);
#1070=CARTESIAN_POINT('',(-12.45,14.235,-0.599999999999999));
#1080=DIRECTION('',(0.,0.,1.));
#1090=VECTOR('',#1080,1.);
#1100=LINE('',#1070,#1090);
#1110=EDGE_CURVE('',#110,#760,#1100,.T.);
#1120=ORIENTED_EDGE('',*,*,#1110,.T.);
#1130=ORIENTED_EDGE('',*,*,#140,.F.);
#1140=EDGE_LOOP('',(#1130,#1120,#1060,#1050));
#1150=FACE_OUTER_BOUND('',#1140,.T.);
#1160=ADVANCED_FACE('',(#1150),#990,.T.);
#1170=COLOUR_RGB('',0.980392217636108,1.,1.);
#1180=FILL_AREA_STYLE_COLOUR('',#1170);
#1190=FILL_AREA_STYLE('',(#1180));
#1200=SURFACE_STYLE_FILL_AREA(#1190);
#1210=SURFACE_SIDE_STYLE('',(#1200));
#1220=SURFACE_STYLE_USAGE(.BOTH.,#1210);
#1230=PRESENTATION_STYLE_ASSIGNMENT((#1220));
#1240=CARTESIAN_POINT('',(12.55,14.235,-0.599999999999999));
#1250=DIRECTION('',(-0.,-1.,-0.));
#1260=DIRECTION('',(-1.,0.,0.));
#1270=AXIS2_PLACEMENT_3D('',#1240,#1250,#1260);
#1280=PLANE('',#1270);
#1290=ORIENTED_EDGE('',*,*,#1110,.F.);
#1300=ORIENTED_EDGE('',*,*,#770,.T.);
#1310=CARTESIAN_POINT('',(43.55,14.235,-0.599999999999999));
#1320=DIRECTION('',(0.,0.,1.));
#1330=VECTOR('',#1320,1.);
#1340=LINE('',#1310,#1330);
#1350=EDGE_CURVE('',#210,#680,#1340,.T.);
#1360=ORIENTED_EDGE('',*,*,#1350,.T.);
#1370=ORIENTED_EDGE('',*,*,#220,.F.);
#1380=EDGE_LOOP('',(#1370,#1360,#1300,#1290));
#1390=FACE_OUTER_BOUND('',#1380,.T.);
#1400=ADVANCED_FACE('',(#1390),#1280,.T.);
#1410=COLOUR_RGB('',0.980392217636108,1.,1.);
#1420=FILL_AREA_STYLE_COLOUR('',#1410);
#1430=FILL_AREA_STYLE('',(#1420));
#1440=SURFACE_STYLE_FILL_AREA(#1430);
#1450=SURFACE_SIDE_STYLE('',(#1440));
#1460=SURFACE_STYLE_USAGE(.BOTH.,#1450);
#1470=PRESENTATION_STYLE_ASSIGNMENT((#1460));
#1480=CARTESIAN_POINT('',(43.55,20.61,-0.599999999999999));
#1490=DIRECTION('',(1.,0.,0.));
#1500=DIRECTION('',(0.,-1.,0.));
#1510=AXIS2_PLACEMENT_3D('',#1480,#1490,#1500);
#1520=PLANE('',#1510);
#1530=ORIENTED_EDGE('',*,*,#1350,.F.);
#1540=ORIENTED_EDGE('',*,*,#690,.T.);
#1550=CARTESIAN_POINT('',(43.55,28.235,-0.599999999999999));
#1560=DIRECTION('',(0.,0.,1.));
#1570=VECTOR('',#1560,1.);
#1580=LINE('',#1550,#1570);
#1590=EDGE_CURVE('',#290,#600,#1580,.T.);
#1600=ORIENTED_EDGE('',*,*,#1590,.T.);
#1610=ORIENTED_EDGE('',*,*,#300,.F.);
#1620=EDGE_LOOP('',(#1610,#1600,#1540,#1530));
#1630=FACE_OUTER_BOUND('',#1620,.T.);
#1640=ADVANCED_FACE('',(#1630),#1520,.T.);
#1650=COLOUR_RGB('',0.980392217636108,1.,1.);
#1660=FILL_AREA_STYLE_COLOUR('',#1650);
#1670=FILL_AREA_STYLE('',(#1660));
#1680=SURFACE_STYLE_FILL_AREA(#1670);
#1690=SURFACE_SIDE_STYLE('',(#1680));
#1700=SURFACE_STYLE_USAGE(.BOTH.,#1690);
#1710=PRESENTATION_STYLE_ASSIGNMENT((#1700));
#1720=CARTESIAN_POINT('',(-12.45,28.235,-0.599999999999999));
#1730=DIRECTION('',(-0.,1.,0.));
#1740=DIRECTION('',(1.,0.,0.));
#1750=AXIS2_PLACEMENT_3D('',#1720,#1730,#1740);
#1760=PLANE('',#1750);
#1770=ORIENTED_EDGE('',*,*,#1590,.F.);
#1780=ORIENTED_EDGE('',*,*,#610,.T.);
#1790=ORIENTED_EDGE('',*,*,#1040,.T.);
#1800=ORIENTED_EDGE('',*,*,#360,.F.);
#1810=EDGE_LOOP('',(#1800,#1790,#1780,#1770));
#1820=FACE_OUTER_BOUND('',#1810,.T.);
#1830=ADVANCED_FACE('',(#1820),#1760,.T.);
#1840=COLOUR_RGB('',0.980392217636108,1.,1.);
#1850=FILL_AREA_STYLE_COLOUR('',#1840);
#1860=FILL_AREA_STYLE('',(#1850));
#1870=SURFACE_STYLE_FILL_AREA(#1860);
#1880=SURFACE_SIDE_STYLE('',(#1870));
#1890=SURFACE_STYLE_USAGE(.BOTH.,#1880);
#1900=PRESENTATION_STYLE_ASSIGNMENT((#1890));
#1910=CLOSED_SHELL('',(#1160,#1400,#1640,#1830,#870,#400));
#1920=MANIFOLD_SOLID_BREP('',#1910);
#1930=CARTESIAN_POINT('',(0.,0.,0.));
#1940=DIRECTION('',(0.,0.,1.));
#1950=DIRECTION('',(1.,0.,0.));
#1960=AXIS2_PLACEMENT_3D('',#1930,#1940,#1950);
#1970=APPLICATION_CONTEXT(' ');
#1980=APPLICATION_PROTOCOL_DEFINITION(' ','automotive_design',1998,#1970
);
#1990=PRODUCT_CONTEXT('',#1970,'mechanical');
#2000=PRODUCT_DEFINITION_CONTEXT('part definition',#1970,'design');
#2010=PRODUCT('es-ssmk-gb_60x18-select','es-ssmk-gb_60x18-select','',(
#1990));
#2020=PRODUCT_RELATED_PRODUCT_CATEGORY('part',' ',(#2010));
#2030=PRODUCT_DEFINITION_FORMATION_WITH_SPECIFIED_SOURCE('','',#2010,
.BOUGHT.);
#2040=PRODUCT_DEFINITION('',' ',#2030,#2000);
#2050=PRODUCT_DEFINITION_SHAPE('','',#2040);
#2060=DIMENSIONAL_EXPONENTS(1.,0.,0.,0.,0.,0.,0.);
#2070=DIMENSIONAL_EXPONENTS(0.,0.,0.,0.,0.,0.,0.);
#2080=DIMENSIONAL_EXPONENTS(0.,0.,0.,0.,0.,0.,0.);
#2090=(LENGTH_UNIT() NAMED_UNIT(*) SI_UNIT(.MILLI.,.METRE.));
#2100=(NAMED_UNIT(*) PLANE_ANGLE_UNIT() SI_UNIT($,.RADIAN.));
#2110=(NAMED_UNIT(*) SI_UNIT($,.STERADIAN.) SOLID_ANGLE_UNIT());
#2120=(GEOMETRIC_REPRESENTATION_CONTEXT(3) 
GLOBAL_UNCERTAINTY_ASSIGNED_CONTEXT((#2130)) 
GLOBAL_UNIT_ASSIGNED_CONTEXT((#2090,#2100,#2110)) REPRESENTATION_CONTEXT
('',''));
#2130=UNCERTAINTY_MEASURE_WITH_UNIT(LENGTH_MEASURE(1.E-6),#2090,
'distance_accuracy_value','maximum gap value');
#2140=ADVANCED_BREP_SHAPE_REPRESENTATION('',(#1960,#1920),#2120);
#2150=SHAPE_DEFINITION_REPRESENTATION(#2050,#2140);
#2160=COLOUR_RGB('',0.980392217636108,1.,1.);
#2170=FILL_AREA_STYLE_COLOUR('',#2160);
#2180=FILL_AREA_STYLE('',(#2170));
#2190=SURFACE_STYLE_FILL_AREA(#2180);
#2200=SURFACE_SIDE_STYLE('',(#2190));
#2210=SURFACE_STYLE_USAGE(.BOTH.,#2200);
#2220=PRESENTATION_STYLE_ASSIGNMENT((#2210));
#2230=STYLED_ITEM('',(#2220),#1920);
#2240=OVER_RIDING_STYLED_ITEM('',(#470),#400,#2230);
#2250=OVER_RIDING_STYLED_ITEM('',(#940),#870,#2230);
#2260=OVER_RIDING_STYLED_ITEM('',(#1230),#1160,#2230);
#2270=OVER_RIDING_STYLED_ITEM('',(#1470),#1400,#2230);
#2280=OVER_RIDING_STYLED_ITEM('',(#1710),#1640,#2230);
#2290=OVER_RIDING_STYLED_ITEM('',(#1900),#1830,#2230);
#2300=DRAUGHTING_MODEL('',(#2230,#2240,#2250,#2260,#2270,#2280,#2290),
#2120);
#2310=CARTESIAN_POINT('',(12.45,-14.235,0.599999999999722));
#2320=DIRECTION('',(0.,0.,1.));
#2330=DIRECTION('',(1.,0.,0.));
#2340=AXIS2_PLACEMENT_3D('',#2310,#2320,#2330);
#2350=ITEM_DEFINED_TRANSFORMATION('es-ssmk-gb_60x18-select','',#1960,
#2340);
#2360=APPLICATION_CONTEXT(' ');
#2370=APPLICATION_PROTOCOL_DEFINITION(' ','automotive_design',1998,#2360
);
#2380=PRODUCT_CONTEXT('',#2360,'mechanical');
#2390=PRODUCT_DEFINITION_CONTEXT('part definition',#2360,'design');
#2400=PRODUCT('es-ssmk-gb_60x18-select','es-ssmk-gb_60x18-select','',(
#2380));
#2410=PRODUCT_RELATED_PRODUCT_CATEGORY('part',' ',(#2400));
#2420=PRODUCT_DEFINITION_FORMATION_WITH_SPECIFIED_SOURCE('','',#2400,
.BOUGHT.);
#2430=PRODUCT_DEFINITION('',' ',#2420,#2390);
#2440=PRODUCT_DEFINITION_SHAPE('','',#2430);
#2450=DIMENSIONAL_EXPONENTS(1.,0.,0.,0.,0.,0.,0.);
#2460=DIMENSIONAL_EXPONENTS(0.,0.,0.,0.,0.,0.,0.);
#2470=DIMENSIONAL_EXPONENTS(0.,0.,0.,0.,0.,0.,0.);
#2480=(LENGTH_UNIT() NAMED_UNIT(*) SI_UNIT(.MILLI.,.METRE.));
#2490=(NAMED_UNIT(*) PLANE_ANGLE_UNIT() SI_UNIT($,.RADIAN.));
#2500=(NAMED_UNIT(*) SI_UNIT($,.STERADIAN.) SOLID_ANGLE_UNIT());
#2510=(GEOMETRIC_REPRESENTATION_CONTEXT(3) 
GLOBAL_UNCERTAINTY_ASSIGNED_CONTEXT((#2520)) 
GLOBAL_UNIT_ASSIGNED_CONTEXT((#2480,#2490,#2500)) REPRESENTATION_CONTEXT
('',''));
#2520=UNCERTAINTY_MEASURE_WITH_UNIT(LENGTH_MEASURE(1.E-6),#2480,
'distance_accuracy_value','maximum gap value');
#2530=SHAPE_REPRESENTATION('',(#1960,#2340),#2510);
#2540=SHAPE_DEFINITION_REPRESENTATION(#2440,#2530);
#2550=(REPRESENTATION_RELATIONSHIP('','',#2140,#2530) 
REPRESENTATION_RELATIONSHIP_WITH_TRANSFORMATION(#2350) 
SHAPE_REPRESENTATION_RELATIONSHIP());
#2560=NEXT_ASSEMBLY_USAGE_OCCURRENCE('1','','es-ssmk-gb_60x18-select',
#2430,#2040,'');
#2570=PRODUCT_DEFINITION_SHAPE('','',#2560);
#2580=CONTEXT_DEPENDENT_SHAPE_REPRESENTATION(#2550,#2570);
ENDSEC;
END-ISO-10303-21;
