ISO-10303-21;
HEADER;
FILE_DESCRIPTION(('Creo Elements/Direct Modeling STEP Export'),'2;1');
FILE_NAME(
'D:/temp/JobSpoolerServerData/JobServer Files/5a9e8b1b-2353-4034-b874-37
2e36d85b34/work/output/model.stp','2018-04-04T 9:38:54',(''),(''),
'Creo Elements/Direct Modeling STEP processor for AP214 (Solid Model)',
'Creo Elements/Direct Modeling 18.1I  14-Aug-2016 (C) Parametric Technol
ogy GmbH','');
FILE_SCHEMA(('AUTOMOTIVE_DESIGN { 1 0 10303 214 1 1 1 1 }'));
ENDSEC;
DATA;
#10=CARTESIAN_POINT('',(0.,0.,0.));
#20=DIRECTION('',(0.,0.,1.));
#30=DIRECTION('',(1.,0.,0.));
#40=AXIS2_PLACEMENT_3D('',#10,#20,#30);
#50=PLANE('',#40);
#60=CARTESIAN_POINT('',(-1.5,73.55,0.));
#70=DIRECTION('',(1.,0.,0.));
#80=VECTOR('',#70,1.);
#90=LINE('',#60,#80);
#100=CARTESIAN_POINT('',(-1.5,73.55,0.));
#110=VERTEX_POINT('',#100);
#120=CARTESIAN_POINT('',(1.70025773880715,73.55,0.));
#130=VERTEX_POINT('',#120);
#140=EDGE_CURVE('',#110,#130,#90,.T.);
#150=ORIENTED_EDGE('',*,*,#140,.F.);
#160=CARTESIAN_POINT('',(1.07940952255126,71.2329629131445,0.));
#170=DIRECTION('',(0.258819045102522,0.965925826289068,0.));
#180=VECTOR('',#170,1.);
#190=LINE('',#160,#180);
#200=CARTESIAN_POINT('',(1.07940952255126,71.2329629131445,0.));
#210=VERTEX_POINT('',#200);
#220=EDGE_CURVE('',#210,#130,#190,.T.);
#230=ORIENTED_EDGE('',*,*,#220,.T.);
#240=CARTESIAN_POINT('',(0.95,70.75,0.));
#250=DIRECTION('',(0.,0.,1.));
#260=DIRECTION('',(1.,0.,0.));
#270=AXIS2_PLACEMENT_3D('',#240,#250,#260);
#280=CIRCLE('',#270,0.499999999999996);
#290=CARTESIAN_POINT('',(1.45,70.75,0.));
#300=VERTEX_POINT('',#290);
#310=EDGE_CURVE('',#210,#300,#280,.T.);
#320=ORIENTED_EDGE('',*,*,#310,.F.);
#330=CARTESIAN_POINT('',(2.46911665594536,73.55,0.));
#340=DIRECTION('',(-0.34202014332567,-0.939692620785908,0.));
#350=VECTOR('',#340,1.);
#360=LINE('',#330,#350);
#370=CARTESIAN_POINT('',(2.46911665594536,73.55,0.));
#380=VERTEX_POINT('',#370);
#390=EDGE_CURVE('',#380,#300,#360,.T.);
#400=ORIENTED_EDGE('',*,*,#390,.T.);
#410=CARTESIAN_POINT('',(-1.5,73.55,0.));
#420=DIRECTION('',(1.,0.,0.));
#430=VECTOR('',#420,1.);
#440=LINE('',#410,#430);
#450=CARTESIAN_POINT('',(5.03088334405464,73.55,0.));
#460=VERTEX_POINT('',#450);
#470=EDGE_CURVE('',#380,#460,#440,.T.);
#480=ORIENTED_EDGE('',*,*,#470,.F.);
#490=CARTESIAN_POINT('',(5.03088334405464,73.55,0.));
#500=DIRECTION('',(0.342020143325669,-0.939692620785908,0.));
#510=VECTOR('',#500,1.);
#520=LINE('',#490,#510);
#530=CARTESIAN_POINT('',(6.05000000000001,70.75,0.));
#540=VERTEX_POINT('',#530);
#550=EDGE_CURVE('',#460,#540,#520,.T.);
#560=ORIENTED_EDGE('',*,*,#550,.F.);
#570=CARTESIAN_POINT('',(6.55,70.75,0.));
#580=DIRECTION('',(0.,0.,1.));
#590=DIRECTION('',(1.,0.,0.));
#600=AXIS2_PLACEMENT_3D('',#570,#580,#590);
#610=CIRCLE('',#600,0.499999999999996);
#620=CARTESIAN_POINT('',(6.42059047744874,71.2329629131445,0.));
#630=VERTEX_POINT('',#620);
#640=EDGE_CURVE('',#540,#630,#610,.T.);
#650=ORIENTED_EDGE('',*,*,#640,.F.);
#660=CARTESIAN_POINT('',(6.42059047744874,71.2329629131445,0.));
#670=DIRECTION('',(-0.258819045102521,0.965925826289068,0.));
#680=VECTOR('',#670,1.);
#690=LINE('',#660,#680);
#700=CARTESIAN_POINT('',(5.79974226119286,73.55,0.));
#710=VERTEX_POINT('',#700);
#720=EDGE_CURVE('',#630,#710,#690,.T.);
#730=ORIENTED_EDGE('',*,*,#720,.F.);
#740=CARTESIAN_POINT('',(-1.5,73.55,0.));
#750=DIRECTION('',(1.,0.,0.));
#760=VECTOR('',#750,1.);
#770=LINE('',#740,#760);
#780=CARTESIAN_POINT('',(9.,73.55,0.));
#790=VERTEX_POINT('',#780);
#800=EDGE_CURVE('',#710,#790,#770,.T.);
#810=ORIENTED_EDGE('',*,*,#800,.F.);
#820=CARTESIAN_POINT('',(9.,73.55,0.));
#830=DIRECTION('',(0.,1.,0.));
#840=VECTOR('',#830,1.);
#850=LINE('',#820,#840);
#860=CARTESIAN_POINT('',(9.,74.55,0.));
#870=VERTEX_POINT('',#860);
#880=EDGE_CURVE('',#790,#870,#850,.T.);
#890=ORIENTED_EDGE('',*,*,#880,.F.);
#900=CARTESIAN_POINT('',(9.,74.55,0.));
#910=DIRECTION('',(-1.,0.,0.));
#920=VECTOR('',#910,1.);
#930=LINE('',#900,#920);
#940=CARTESIAN_POINT('',(-1.5,74.55,0.));
#950=VERTEX_POINT('',#940);
#960=EDGE_CURVE('',#870,#950,#930,.T.);
#970=ORIENTED_EDGE('',*,*,#960,.F.);
#980=CARTESIAN_POINT('',(-1.5,74.55,0.));
#990=DIRECTION('',(0.,-1.,0.));
#1000=VECTOR('',#990,1.);
#1010=LINE('',#980,#1000);
#1020=EDGE_CURVE('',#950,#110,#1010,.T.);
#1030=ORIENTED_EDGE('',*,*,#1020,.F.);
#1040=EDGE_LOOP('',(#1030,#970,#890,#810,#730,#650,#560,#480,#400,#320,
#230,#150));
#1050=FACE_OUTER_BOUND('',#1040,.T.);
#1060=ADVANCED_FACE('',(#1050),#50,.F.);
#1070=COLOUR_RGB('',0.313725501298904,0.313725501298904,
0.313725501298904);
#1080=FILL_AREA_STYLE_COLOUR('',#1070);
#1090=FILL_AREA_STYLE('',(#1080));
#1100=SURFACE_STYLE_FILL_AREA(#1090);
#1110=SURFACE_SIDE_STYLE('',(#1100));
#1120=SURFACE_STYLE_USAGE(.BOTH.,#1110);
#1130=PRESENTATION_STYLE_ASSIGNMENT((#1120));
#1140=CARTESIAN_POINT('',(0.,0.,4.6));
#1150=DIRECTION('',(0.,0.,1.));
#1160=DIRECTION('',(1.,0.,0.));
#1170=AXIS2_PLACEMENT_3D('',#1140,#1150,#1160);
#1180=PLANE('',#1170);
#1190=CARTESIAN_POINT('',(-1.5,74.55,4.6));
#1200=DIRECTION('',(0.,-1.,0.));
#1210=VECTOR('',#1200,1.);
#1220=LINE('',#1190,#1210);
#1230=CARTESIAN_POINT('',(-1.5,74.55,4.6));
#1240=VERTEX_POINT('',#1230);
#1250=CARTESIAN_POINT('',(-1.5,73.55,4.6));
#1260=VERTEX_POINT('',#1250);
#1270=EDGE_CURVE('',#1240,#1260,#1220,.T.);
#1280=ORIENTED_EDGE('',*,*,#1270,.T.);
#1290=CARTESIAN_POINT('',(9.,74.55,4.6));
#1300=DIRECTION('',(-1.,0.,0.));
#1310=VECTOR('',#1300,1.);
#1320=LINE('',#1290,#1310);
#1330=CARTESIAN_POINT('',(9.,74.55,4.6));
#1340=VERTEX_POINT('',#1330);
#1350=EDGE_CURVE('',#1340,#1240,#1320,.T.);
#1360=ORIENTED_EDGE('',*,*,#1350,.T.);
#1370=CARTESIAN_POINT('',(9.,73.55,4.6));
#1380=DIRECTION('',(0.,1.,0.));
#1390=VECTOR('',#1380,1.);
#1400=LINE('',#1370,#1390);
#1410=CARTESIAN_POINT('',(9.,73.55,4.6));
#1420=VERTEX_POINT('',#1410);
#1430=EDGE_CURVE('',#1420,#1340,#1400,.T.);
#1440=ORIENTED_EDGE('',*,*,#1430,.T.);
#1450=CARTESIAN_POINT('',(-1.5,73.55,4.6));
#1460=DIRECTION('',(1.,0.,0.));
#1470=VECTOR('',#1460,1.);
#1480=LINE('',#1450,#1470);
#1490=CARTESIAN_POINT('',(5.79974226119286,73.55,4.6));
#1500=VERTEX_POINT('',#1490);
#1510=EDGE_CURVE('',#1500,#1420,#1480,.T.);
#1520=ORIENTED_EDGE('',*,*,#1510,.T.);
#1530=CARTESIAN_POINT('',(6.42059047744874,71.2329629131445,4.6));
#1540=DIRECTION('',(-0.258819045102521,0.965925826289068,0.));
#1550=VECTOR('',#1540,1.);
#1560=LINE('',#1530,#1550);
#1570=CARTESIAN_POINT('',(6.42059047744874,71.2329629131445,4.6));
#1580=VERTEX_POINT('',#1570);
#1590=EDGE_CURVE('',#1580,#1500,#1560,.T.);
#1600=ORIENTED_EDGE('',*,*,#1590,.T.);
#1610=CARTESIAN_POINT('',(6.55,70.75,4.6));
#1620=DIRECTION('',(0.,0.,1.));
#1630=DIRECTION('',(1.,0.,0.));
#1640=AXIS2_PLACEMENT_3D('',#1610,#1620,#1630);
#1650=CIRCLE('',#1640,0.499999999999996);
#1660=CARTESIAN_POINT('',(6.05000000000001,70.75,4.6));
#1670=VERTEX_POINT('',#1660);
#1680=EDGE_CURVE('',#1670,#1580,#1650,.T.);
#1690=ORIENTED_EDGE('',*,*,#1680,.T.);
#1700=CARTESIAN_POINT('',(5.03088334405464,73.55,4.6));
#1710=DIRECTION('',(0.342020143325669,-0.939692620785908,0.));
#1720=VECTOR('',#1710,1.);
#1730=LINE('',#1700,#1720);
#1740=CARTESIAN_POINT('',(5.03088334405464,73.55,4.6));
#1750=VERTEX_POINT('',#1740);
#1760=EDGE_CURVE('',#1750,#1670,#1730,.T.);
#1770=ORIENTED_EDGE('',*,*,#1760,.T.);
#1780=CARTESIAN_POINT('',(-1.5,73.55,4.6));
#1790=DIRECTION('',(1.,0.,0.));
#1800=VECTOR('',#1790,1.);
#1810=LINE('',#1780,#1800);
#1820=CARTESIAN_POINT('',(2.46911665594536,73.55,4.6));
#1830=VERTEX_POINT('',#1820);
#1840=EDGE_CURVE('',#1830,#1750,#1810,.T.);
#1850=ORIENTED_EDGE('',*,*,#1840,.T.);
#1860=CARTESIAN_POINT('',(2.46911665594536,73.55,4.6));
#1870=DIRECTION('',(-0.34202014332567,-0.939692620785908,0.));
#1880=VECTOR('',#1870,1.);
#1890=LINE('',#1860,#1880);
#1900=CARTESIAN_POINT('',(1.45,70.75,4.6));
#1910=VERTEX_POINT('',#1900);
#1920=EDGE_CURVE('',#1830,#1910,#1890,.T.);
#1930=ORIENTED_EDGE('',*,*,#1920,.F.);
#1940=CARTESIAN_POINT('',(0.95,70.75,4.6));
#1950=DIRECTION('',(0.,0.,1.));
#1960=DIRECTION('',(1.,0.,0.));
#1970=AXIS2_PLACEMENT_3D('',#1940,#1950,#1960);
#1980=CIRCLE('',#1970,0.499999999999996);
#1990=CARTESIAN_POINT('',(1.07940952255126,71.2329629131445,4.6));
#2000=VERTEX_POINT('',#1990);
#2010=EDGE_CURVE('',#2000,#1910,#1980,.T.);
#2020=ORIENTED_EDGE('',*,*,#2010,.T.);
#2030=CARTESIAN_POINT('',(1.07940952255126,71.2329629131445,4.6));
#2040=DIRECTION('',(0.258819045102522,0.965925826289068,0.));
#2050=VECTOR('',#2040,1.);
#2060=LINE('',#2030,#2050);
#2070=CARTESIAN_POINT('',(1.70025773880715,73.55,4.6));
#2080=VERTEX_POINT('',#2070);
#2090=EDGE_CURVE('',#2000,#2080,#2060,.T.);
#2100=ORIENTED_EDGE('',*,*,#2090,.F.);
#2110=CARTESIAN_POINT('',(-1.5,73.55,4.6));
#2120=DIRECTION('',(1.,0.,0.));
#2130=VECTOR('',#2120,1.);
#2140=LINE('',#2110,#2130);
#2150=EDGE_CURVE('',#1260,#2080,#2140,.T.);
#2160=ORIENTED_EDGE('',*,*,#2150,.T.);
#2170=EDGE_LOOP('',(#2160,#2100,#2020,#1930,#1850,#1770,#1690,#1600,
#1520,#1440,#1360,#1280));
#2180=FACE_OUTER_BOUND('',#2170,.T.);
#2190=ADVANCED_FACE('',(#2180),#1180,.T.);
#2200=COLOUR_RGB('',0.313725501298904,0.313725501298904,
0.313725501298904);
#2210=FILL_AREA_STYLE_COLOUR('',#2200);
#2220=FILL_AREA_STYLE('',(#2210));
#2230=SURFACE_STYLE_FILL_AREA(#2220);
#2240=SURFACE_SIDE_STYLE('',(#2230));
#2250=SURFACE_STYLE_USAGE(.BOTH.,#2240);
#2260=PRESENTATION_STYLE_ASSIGNMENT((#2250));
#2270=CARTESIAN_POINT('',(1.70025773880715,73.55,0.));
#2280=DIRECTION('',(-0.,-1.,-0.));
#2290=DIRECTION('',(-1.,0.,0.));
#2300=AXIS2_PLACEMENT_3D('',#2270,#2280,#2290);
#2310=PLANE('',#2300);
#2320=CARTESIAN_POINT('',(-1.5,73.55,0.));
#2330=DIRECTION('',(0.,0.,1.));
#2340=VECTOR('',#2330,1.);
#2350=LINE('',#2320,#2340);
#2360=EDGE_CURVE('',#110,#1260,#2350,.T.);
#2370=ORIENTED_EDGE('',*,*,#2360,.F.);
#2380=ORIENTED_EDGE('',*,*,#2150,.F.);
#2390=CARTESIAN_POINT('',(1.70025773880715,73.55,0.));
#2400=DIRECTION('',(0.,0.,1.));
#2410=VECTOR('',#2400,1.);
#2420=LINE('',#2390,#2410);
#2430=EDGE_CURVE('',#130,#2080,#2420,.T.);
#2440=ORIENTED_EDGE('',*,*,#2430,.T.);
#2450=ORIENTED_EDGE('',*,*,#140,.T.);
#2460=EDGE_LOOP('',(#2450,#2440,#2380,#2370));
#2470=FACE_OUTER_BOUND('',#2460,.T.);
#2480=ADVANCED_FACE('',(#2470),#2310,.T.);
#2490=COLOUR_RGB('',0.313725501298904,0.313725501298904,
0.313725501298904);
#2500=FILL_AREA_STYLE_COLOUR('',#2490);
#2510=FILL_AREA_STYLE('',(#2500));
#2520=SURFACE_STYLE_FILL_AREA(#2510);
#2530=SURFACE_SIDE_STYLE('',(#2520));
#2540=SURFACE_STYLE_USAGE(.BOTH.,#2530);
#2550=PRESENTATION_STYLE_ASSIGNMENT((#2540));
#2560=CARTESIAN_POINT('',(1.07940952255126,71.2329629131445,0.));
#2570=DIRECTION('',(-0.965925826289068,0.258819045102522,0.));
#2580=DIRECTION('',(0.258819045102522,0.965925826289068,0.));
#2590=AXIS2_PLACEMENT_3D('',#2560,#2570,#2580);
#2600=PLANE('',#2590);
#2610=ORIENTED_EDGE('',*,*,#2430,.F.);
#2620=ORIENTED_EDGE('',*,*,#2090,.T.);
#2630=CARTESIAN_POINT('',(1.07940952255126,71.2329629131445,0.));
#2640=DIRECTION('',(0.,0.,1.));
#2650=VECTOR('',#2640,1.);
#2660=LINE('',#2630,#2650);
#2670=EDGE_CURVE('',#210,#2000,#2660,.T.);
#2680=ORIENTED_EDGE('',*,*,#2670,.T.);
#2690=ORIENTED_EDGE('',*,*,#220,.F.);
#2700=EDGE_LOOP('',(#2690,#2680,#2620,#2610));
#2710=FACE_OUTER_BOUND('',#2700,.T.);
#2720=ADVANCED_FACE('',(#2710),#2600,.T.);
#2730=COLOUR_RGB('',0.313725501298904,0.313725501298904,
0.313725501298904);
#2740=FILL_AREA_STYLE_COLOUR('',#2730);
#2750=FILL_AREA_STYLE('',(#2740));
#2760=SURFACE_STYLE_FILL_AREA(#2750);
#2770=SURFACE_SIDE_STYLE('',(#2760));
#2780=SURFACE_STYLE_USAGE(.BOTH.,#2770);
#2790=PRESENTATION_STYLE_ASSIGNMENT((#2780));
#2800=CARTESIAN_POINT('',(0.95,70.75,0.));
#2810=DIRECTION('',(0.,0.,1.));
#2820=DIRECTION('',(1.,0.,0.));
#2830=AXIS2_PLACEMENT_3D('',#2800,#2810,#2820);
#2840=CYLINDRICAL_SURFACE('',#2830,0.499999999999996);
#2850=ORIENTED_EDGE('',*,*,#2670,.F.);
#2860=ORIENTED_EDGE('',*,*,#2010,.F.);
#2870=CARTESIAN_POINT('',(1.45,70.75,0.));
#2880=DIRECTION('',(0.,0.,1.));
#2890=VECTOR('',#2880,1.);
#2900=LINE('',#2870,#2890);
#2910=EDGE_CURVE('',#300,#1910,#2900,.T.);
#2920=ORIENTED_EDGE('',*,*,#2910,.T.);
#2930=ORIENTED_EDGE('',*,*,#310,.T.);
#2940=EDGE_LOOP('',(#2930,#2920,#2860,#2850));
#2950=FACE_OUTER_BOUND('',#2940,.T.);
#2960=ADVANCED_FACE('',(#2950),#2840,.T.);
#2970=COLOUR_RGB('',0.313725501298904,0.313725501298904,
0.313725501298904);
#2980=FILL_AREA_STYLE_COLOUR('',#2970);
#2990=FILL_AREA_STYLE('',(#2980));
#3000=SURFACE_STYLE_FILL_AREA(#2990);
#3010=SURFACE_SIDE_STYLE('',(#3000));
#3020=SURFACE_STYLE_USAGE(.BOTH.,#3010);
#3030=PRESENTATION_STYLE_ASSIGNMENT((#3020));
#3040=CARTESIAN_POINT('',(2.46911665594536,73.55,0.));
#3050=DIRECTION('',(0.939692620785908,-0.34202014332567,0.));
#3060=DIRECTION('',(-0.34202014332567,-0.939692620785908,0.));
#3070=AXIS2_PLACEMENT_3D('',#3040,#3050,#3060);
#3080=PLANE('',#3070);
#3090=ORIENTED_EDGE('',*,*,#2910,.F.);
#3100=ORIENTED_EDGE('',*,*,#1920,.T.);
#3110=CARTESIAN_POINT('',(2.46911665594536,73.55,0.));
#3120=DIRECTION('',(0.,0.,1.));
#3130=VECTOR('',#3120,1.);
#3140=LINE('',#3110,#3130);
#3150=EDGE_CURVE('',#380,#1830,#3140,.T.);
#3160=ORIENTED_EDGE('',*,*,#3150,.T.);
#3170=ORIENTED_EDGE('',*,*,#390,.F.);
#3180=EDGE_LOOP('',(#3170,#3160,#3100,#3090));
#3190=FACE_OUTER_BOUND('',#3180,.T.);
#3200=ADVANCED_FACE('',(#3190),#3080,.T.);
#3210=COLOUR_RGB('',0.313725501298904,0.313725501298904,
0.313725501298904);
#3220=FILL_AREA_STYLE_COLOUR('',#3210);
#3230=FILL_AREA_STYLE('',(#3220));
#3240=SURFACE_STYLE_FILL_AREA(#3230);
#3250=SURFACE_SIDE_STYLE('',(#3240));
#3260=SURFACE_STYLE_USAGE(.BOTH.,#3250);
#3270=PRESENTATION_STYLE_ASSIGNMENT((#3260));
#3280=CARTESIAN_POINT('',(5.03088334405464,73.55,0.));
#3290=DIRECTION('',(-0.,-1.,-0.));
#3300=DIRECTION('',(-1.,0.,0.));
#3310=AXIS2_PLACEMENT_3D('',#3280,#3290,#3300);
#3320=PLANE('',#3310);
#3330=ORIENTED_EDGE('',*,*,#3150,.F.);
#3340=ORIENTED_EDGE('',*,*,#1840,.F.);
#3350=CARTESIAN_POINT('',(5.03088334405464,73.55,0.));
#3360=DIRECTION('',(0.,0.,1.));
#3370=VECTOR('',#3360,1.);
#3380=LINE('',#3350,#3370);
#3390=EDGE_CURVE('',#460,#1750,#3380,.T.);
#3400=ORIENTED_EDGE('',*,*,#3390,.T.);
#3410=ORIENTED_EDGE('',*,*,#470,.T.);
#3420=EDGE_LOOP('',(#3410,#3400,#3340,#3330));
#3430=FACE_OUTER_BOUND('',#3420,.T.);
#3440=ADVANCED_FACE('',(#3430),#3320,.T.);
#3450=COLOUR_RGB('',0.313725501298904,0.313725501298904,
0.313725501298904);
#3460=FILL_AREA_STYLE_COLOUR('',#3450);
#3470=FILL_AREA_STYLE('',(#3460));
#3480=SURFACE_STYLE_FILL_AREA(#3470);
#3490=SURFACE_SIDE_STYLE('',(#3480));
#3500=SURFACE_STYLE_USAGE(.BOTH.,#3490);
#3510=PRESENTATION_STYLE_ASSIGNMENT((#3500));
#3520=CARTESIAN_POINT('',(6.05000000000001,70.75,0.));
#3530=DIRECTION('',(-0.939692620785908,-0.342020143325669,-0.));
#3540=DIRECTION('',(-0.342020143325669,0.939692620785908,0.));
#3550=AXIS2_PLACEMENT_3D('',#3520,#3530,#3540);
#3560=PLANE('',#3550);
#3570=ORIENTED_EDGE('',*,*,#3390,.F.);
#3580=ORIENTED_EDGE('',*,*,#1760,.F.);
#3590=CARTESIAN_POINT('',(6.05000000000001,70.75,0.));
#3600=DIRECTION('',(0.,0.,1.));
#3610=VECTOR('',#3600,1.);
#3620=LINE('',#3590,#3610);
#3630=EDGE_CURVE('',#540,#1670,#3620,.T.);
#3640=ORIENTED_EDGE('',*,*,#3630,.T.);
#3650=ORIENTED_EDGE('',*,*,#550,.T.);
#3660=EDGE_LOOP('',(#3650,#3640,#3580,#3570));
#3670=FACE_OUTER_BOUND('',#3660,.T.);
#3680=ADVANCED_FACE('',(#3670),#3560,.T.);
#3690=COLOUR_RGB('',0.313725501298904,0.313725501298904,
0.313725501298904);
#3700=FILL_AREA_STYLE_COLOUR('',#3690);
#3710=FILL_AREA_STYLE('',(#3700));
#3720=SURFACE_STYLE_FILL_AREA(#3710);
#3730=SURFACE_SIDE_STYLE('',(#3720));
#3740=SURFACE_STYLE_USAGE(.BOTH.,#3730);
#3750=PRESENTATION_STYLE_ASSIGNMENT((#3740));
#3760=CARTESIAN_POINT('',(6.55,70.75,0.));
#3770=DIRECTION('',(0.,0.,1.));
#3780=DIRECTION('',(1.,0.,0.));
#3790=AXIS2_PLACEMENT_3D('',#3760,#3770,#3780);
#3800=CYLINDRICAL_SURFACE('',#3790,0.499999999999996);
#3810=ORIENTED_EDGE('',*,*,#3630,.F.);
#3820=ORIENTED_EDGE('',*,*,#1680,.F.);
#3830=CARTESIAN_POINT('',(6.42059047744874,71.2329629131445,0.));
#3840=DIRECTION('',(0.,0.,1.));
#3850=VECTOR('',#3840,1.);
#3860=LINE('',#3830,#3850);
#3870=EDGE_CURVE('',#630,#1580,#3860,.T.);
#3880=ORIENTED_EDGE('',*,*,#3870,.T.);
#3890=ORIENTED_EDGE('',*,*,#640,.T.);
#3900=EDGE_LOOP('',(#3890,#3880,#3820,#3810));
#3910=FACE_OUTER_BOUND('',#3900,.T.);
#3920=ADVANCED_FACE('',(#3910),#3800,.T.);
#3930=COLOUR_RGB('',0.313725501298904,0.313725501298904,
0.313725501298904);
#3940=FILL_AREA_STYLE_COLOUR('',#3930);
#3950=FILL_AREA_STYLE('',(#3940));
#3960=SURFACE_STYLE_FILL_AREA(#3950);
#3970=SURFACE_SIDE_STYLE('',(#3960));
#3980=SURFACE_STYLE_USAGE(.BOTH.,#3970);
#3990=PRESENTATION_STYLE_ASSIGNMENT((#3980));
#4000=CARTESIAN_POINT('',(5.79974226119286,73.55,0.));
#4010=DIRECTION('',(0.965925826289068,0.258819045102521,0.));
#4020=DIRECTION('',(0.258819045102521,-0.965925826289068,0.));
#4030=AXIS2_PLACEMENT_3D('',#4000,#4010,#4020);
#4040=PLANE('',#4030);
#4050=ORIENTED_EDGE('',*,*,#3870,.F.);
#4060=ORIENTED_EDGE('',*,*,#1590,.F.);
#4070=CARTESIAN_POINT('',(5.79974226119286,73.55,0.));
#4080=DIRECTION('',(0.,0.,1.));
#4090=VECTOR('',#4080,1.);
#4100=LINE('',#4070,#4090);
#4110=EDGE_CURVE('',#710,#1500,#4100,.T.);
#4120=ORIENTED_EDGE('',*,*,#4110,.T.);
#4130=ORIENTED_EDGE('',*,*,#720,.T.);
#4140=EDGE_LOOP('',(#4130,#4120,#4060,#4050));
#4150=FACE_OUTER_BOUND('',#4140,.T.);
#4160=ADVANCED_FACE('',(#4150),#4040,.T.);
#4170=COLOUR_RGB('',0.313725501298904,0.313725501298904,
0.313725501298904);
#4180=FILL_AREA_STYLE_COLOUR('',#4170);
#4190=FILL_AREA_STYLE('',(#4180));
#4200=SURFACE_STYLE_FILL_AREA(#4190);
#4210=SURFACE_SIDE_STYLE('',(#4200));
#4220=SURFACE_STYLE_USAGE(.BOTH.,#4210);
#4230=PRESENTATION_STYLE_ASSIGNMENT((#4220));
#4240=CARTESIAN_POINT('',(9.,73.55,0.));
#4250=DIRECTION('',(-0.,-1.,-0.));
#4260=DIRECTION('',(-1.,0.,0.));
#4270=AXIS2_PLACEMENT_3D('',#4240,#4250,#4260);
#4280=PLANE('',#4270);
#4290=ORIENTED_EDGE('',*,*,#4110,.F.);
#4300=ORIENTED_EDGE('',*,*,#1510,.F.);
#4310=CARTESIAN_POINT('',(9.,73.55,0.));
#4320=DIRECTION('',(0.,0.,1.));
#4330=VECTOR('',#4320,1.);
#4340=LINE('',#4310,#4330);
#4350=EDGE_CURVE('',#790,#1420,#4340,.T.);
#4360=ORIENTED_EDGE('',*,*,#4350,.T.);
#4370=ORIENTED_EDGE('',*,*,#800,.T.);
#4380=EDGE_LOOP('',(#4370,#4360,#4300,#4290));
#4390=FACE_OUTER_BOUND('',#4380,.T.);
#4400=ADVANCED_FACE('',(#4390),#4280,.T.);
#4410=COLOUR_RGB('',0.313725501298904,0.313725501298904,
0.313725501298904);
#4420=FILL_AREA_STYLE_COLOUR('',#4410);
#4430=FILL_AREA_STYLE('',(#4420));
#4440=SURFACE_STYLE_FILL_AREA(#4430);
#4450=SURFACE_SIDE_STYLE('',(#4440));
#4460=SURFACE_STYLE_USAGE(.BOTH.,#4450);
#4470=PRESENTATION_STYLE_ASSIGNMENT((#4460));
#4480=CARTESIAN_POINT('',(9.,74.55,0.));
#4490=DIRECTION('',(1.,0.,0.));
#4500=DIRECTION('',(0.,-1.,0.));
#4510=AXIS2_PLACEMENT_3D('',#4480,#4490,#4500);
#4520=PLANE('',#4510);
#4530=ORIENTED_EDGE('',*,*,#4350,.F.);
#4540=ORIENTED_EDGE('',*,*,#1430,.F.);
#4550=CARTESIAN_POINT('',(9.,74.55,0.));
#4560=DIRECTION('',(0.,0.,1.));
#4570=VECTOR('',#4560,1.);
#4580=LINE('',#4550,#4570);
#4590=EDGE_CURVE('',#870,#1340,#4580,.T.);
#4600=ORIENTED_EDGE('',*,*,#4590,.T.);
#4610=ORIENTED_EDGE('',*,*,#880,.T.);
#4620=EDGE_LOOP('',(#4610,#4600,#4540,#4530));
#4630=FACE_OUTER_BOUND('',#4620,.T.);
#4640=ADVANCED_FACE('',(#4630),#4520,.T.);
#4650=COLOUR_RGB('',0.313725501298904,0.313725501298904,
0.313725501298904);
#4660=FILL_AREA_STYLE_COLOUR('',#4650);
#4670=FILL_AREA_STYLE('',(#4660));
#4680=SURFACE_STYLE_FILL_AREA(#4670);
#4690=SURFACE_SIDE_STYLE('',(#4680));
#4700=SURFACE_STYLE_USAGE(.BOTH.,#4690);
#4710=PRESENTATION_STYLE_ASSIGNMENT((#4700));
#4720=CARTESIAN_POINT('',(-1.5,74.55,0.));
#4730=DIRECTION('',(-0.,1.,0.));
#4740=DIRECTION('',(1.,0.,0.));
#4750=AXIS2_PLACEMENT_3D('',#4720,#4730,#4740);
#4760=PLANE('',#4750);
#4770=ORIENTED_EDGE('',*,*,#4590,.F.);
#4780=ORIENTED_EDGE('',*,*,#1350,.F.);
#4790=CARTESIAN_POINT('',(-1.5,74.55,0.));
#4800=DIRECTION('',(0.,0.,1.));
#4810=VECTOR('',#4800,1.);
#4820=LINE('',#4790,#4810);
#4830=EDGE_CURVE('',#950,#1240,#4820,.T.);
#4840=ORIENTED_EDGE('',*,*,#4830,.T.);
#4850=ORIENTED_EDGE('',*,*,#960,.T.);
#4860=EDGE_LOOP('',(#4850,#4840,#4780,#4770));
#4870=FACE_OUTER_BOUND('',#4860,.T.);
#4880=ADVANCED_FACE('',(#4870),#4760,.T.);
#4890=COLOUR_RGB('',0.313725501298904,0.313725501298904,
0.313725501298904);
#4900=FILL_AREA_STYLE_COLOUR('',#4890);
#4910=FILL_AREA_STYLE('',(#4900));
#4920=SURFACE_STYLE_FILL_AREA(#4910);
#4930=SURFACE_SIDE_STYLE('',(#4920));
#4940=SURFACE_STYLE_USAGE(.BOTH.,#4930);
#4950=PRESENTATION_STYLE_ASSIGNMENT((#4940));
#4960=CARTESIAN_POINT('',(-1.5,73.55,0.));
#4970=DIRECTION('',(-1.,0.,0.));
#4980=DIRECTION('',(0.,1.,0.));
#4990=AXIS2_PLACEMENT_3D('',#4960,#4970,#4980);
#5000=PLANE('',#4990);
#5010=ORIENTED_EDGE('',*,*,#4830,.F.);
#5020=ORIENTED_EDGE('',*,*,#1270,.F.);
#5030=ORIENTED_EDGE('',*,*,#2360,.T.);
#5040=ORIENTED_EDGE('',*,*,#1020,.T.);
#5050=EDGE_LOOP('',(#5040,#5030,#5020,#5010));
#5060=FACE_OUTER_BOUND('',#5050,.T.);
#5070=ADVANCED_FACE('',(#5060),#5000,.T.);
#5080=COLOUR_RGB('',0.313725501298904,0.313725501298904,
0.313725501298904);
#5090=FILL_AREA_STYLE_COLOUR('',#5080);
#5100=FILL_AREA_STYLE('',(#5090));
#5110=SURFACE_STYLE_FILL_AREA(#5100);
#5120=SURFACE_SIDE_STYLE('',(#5110));
#5130=SURFACE_STYLE_USAGE(.BOTH.,#5120);
#5140=PRESENTATION_STYLE_ASSIGNMENT((#5130));
#5150=CLOSED_SHELL('',(#2480,#2720,#2960,#3200,#3440,#3680,#3920,#4160,
#4400,#4640,#4880,#5070,#2190,#1060));
#5160=MANIFOLD_SOLID_BREP('',#5150);
#5170=CARTESIAN_POINT('',(0.,0.,0.));
#5180=DIRECTION('',(0.,0.,1.));
#5190=DIRECTION('',(1.,0.,0.));
#5200=AXIS2_PLACEMENT_3D('',#5170,#5180,#5190);
#5210=APPLICATION_CONTEXT(' ');
#5220=APPLICATION_PROTOCOL_DEFINITION(' ','automotive_design',1998,#5210
);
#5230=PRODUCT_CONTEXT('',#5210,'mechanical');
#5240=PRODUCT_DEFINITION_CONTEXT('part definition',#5210,'design');
#5250=PRODUCT('ZBM_5_BK_UNBEDRUCKT-select','ZBM_5_BK_UNBEDRUCKT-select',
'',(#5230));
#5260=PRODUCT_RELATED_PRODUCT_CATEGORY('part',' ',(#5250));
#5270=PRODUCT_DEFINITION_FORMATION_WITH_SPECIFIED_SOURCE('','',#5250,
.BOUGHT.);
#5280=PRODUCT_DEFINITION('',' ',#5270,#5240);
#5290=PRODUCT_DEFINITION_SHAPE('','',#5280);
#5300=DIMENSIONAL_EXPONENTS(1.,0.,0.,0.,0.,0.,0.);
#5310=DIMENSIONAL_EXPONENTS(0.,0.,0.,0.,0.,0.,0.);
#5320=DIMENSIONAL_EXPONENTS(0.,0.,0.,0.,0.,0.,0.);
#5330=(LENGTH_UNIT() NAMED_UNIT(*) SI_UNIT(.MILLI.,.METRE.));
#5340=(NAMED_UNIT(*) PLANE_ANGLE_UNIT() SI_UNIT($,.RADIAN.));
#5350=(NAMED_UNIT(*) SI_UNIT($,.STERADIAN.) SOLID_ANGLE_UNIT());
#5360=(GEOMETRIC_REPRESENTATION_CONTEXT(3) 
GLOBAL_UNCERTAINTY_ASSIGNED_CONTEXT((#5370)) 
GLOBAL_UNIT_ASSIGNED_CONTEXT((#5330,#5340,#5350)) REPRESENTATION_CONTEXT
('',''));
#5370=UNCERTAINTY_MEASURE_WITH_UNIT(LENGTH_MEASURE(1.E-6),#5330,
'distance_accuracy_value','maximum gap value');
#5380=ADVANCED_BREP_SHAPE_REPRESENTATION('',(#5200,#5160),#5360);
#5390=SHAPE_DEFINITION_REPRESENTATION(#5290,#5380);
#5400=COLOUR_RGB('',0.313725501298904,0.313725501298904,
0.313725501298904);
#5410=FILL_AREA_STYLE_COLOUR('',#5400);
#5420=FILL_AREA_STYLE('',(#5410));
#5430=SURFACE_STYLE_FILL_AREA(#5420);
#5440=SURFACE_SIDE_STYLE('',(#5430));
#5450=SURFACE_STYLE_USAGE(.BOTH.,#5440);
#5460=PRESENTATION_STYLE_ASSIGNMENT((#5450));
#5470=STYLED_ITEM('',(#5460),#5160);
#5480=OVER_RIDING_STYLED_ITEM('',(#1130),#1060,#5470);
#5490=OVER_RIDING_STYLED_ITEM('',(#2260),#2190,#5470);
#5500=OVER_RIDING_STYLED_ITEM('',(#2550),#2480,#5470);
#5510=OVER_RIDING_STYLED_ITEM('',(#2790),#2720,#5470);
#5520=OVER_RIDING_STYLED_ITEM('',(#3030),#2960,#5470);
#5530=OVER_RIDING_STYLED_ITEM('',(#3270),#3200,#5470);
#5540=OVER_RIDING_STYLED_ITEM('',(#3510),#3440,#5470);
#5550=OVER_RIDING_STYLED_ITEM('',(#3750),#3680,#5470);
#5560=OVER_RIDING_STYLED_ITEM('',(#3990),#3920,#5470);
#5570=OVER_RIDING_STYLED_ITEM('',(#4230),#4160,#5470);
#5580=OVER_RIDING_STYLED_ITEM('',(#4470),#4400,#5470);
#5590=OVER_RIDING_STYLED_ITEM('',(#4710),#4640,#5470);
#5600=OVER_RIDING_STYLED_ITEM('',(#4950),#4880,#5470);
#5610=OVER_RIDING_STYLED_ITEM('',(#5140),#5070,#5470);
#5620=DRAUGHTING_MODEL('',(#5470,#5480,#5490,#5500,#5510,#5520,#5530,
#5540,#5550,#5560,#5570,#5580,#5590,#5600,#5610),#5360);
#5630=CARTESIAN_POINT('',(0.,1.5,-70.2500069969312));
#5640=DIRECTION('',(1.,0.,0.));
#5650=DIRECTION('',(0.,1.,0.));
#5660=AXIS2_PLACEMENT_3D('',#5630,#5640,#5650);
#5670=ITEM_DEFINED_TRANSFORMATION('ZBM_5_BK_UNBEDRUCKT-select','',#5200,
#5660);
#5680=APPLICATION_CONTEXT(' ');
#5690=APPLICATION_PROTOCOL_DEFINITION(' ','automotive_design',1998,#5680
);
#5700=PRODUCT_CONTEXT('',#5680,'mechanical');
#5710=PRODUCT_DEFINITION_CONTEXT('part definition',#5680,'design');
#5720=PRODUCT('ZBM_5_BK_UNBEDRUCKT-select','ZBM_5_BK_UNBEDRUCKT-select',
'',(#5700));
#5730=PRODUCT_RELATED_PRODUCT_CATEGORY('part',' ',(#5720));
#5740=PRODUCT_DEFINITION_FORMATION_WITH_SPECIFIED_SOURCE('','',#5720,
.BOUGHT.);
#5750=PRODUCT_DEFINITION('',' ',#5740,#5710);
#5760=PRODUCT_DEFINITION_SHAPE('','',#5750);
#5770=DIMENSIONAL_EXPONENTS(1.,0.,0.,0.,0.,0.,0.);
#5780=DIMENSIONAL_EXPONENTS(0.,0.,0.,0.,0.,0.,0.);
#5790=DIMENSIONAL_EXPONENTS(0.,0.,0.,0.,0.,0.,0.);
#5800=(LENGTH_UNIT() NAMED_UNIT(*) SI_UNIT(.MILLI.,.METRE.));
#5810=(NAMED_UNIT(*) PLANE_ANGLE_UNIT() SI_UNIT($,.RADIAN.));
#5820=(NAMED_UNIT(*) SI_UNIT($,.STERADIAN.) SOLID_ANGLE_UNIT());
#5830=(GEOMETRIC_REPRESENTATION_CONTEXT(3) 
GLOBAL_UNCERTAINTY_ASSIGNED_CONTEXT((#5840)) 
GLOBAL_UNIT_ASSIGNED_CONTEXT((#5800,#5810,#5820)) REPRESENTATION_CONTEXT
('',''));
#5840=UNCERTAINTY_MEASURE_WITH_UNIT(LENGTH_MEASURE(1.E-6),#5800,
'distance_accuracy_value','maximum gap value');
#5850=SHAPE_REPRESENTATION('',(#5200,#5660),#5830);
#5860=SHAPE_DEFINITION_REPRESENTATION(#5760,#5850);
#5870=(REPRESENTATION_RELATIONSHIP('','',#5380,#5850) 
REPRESENTATION_RELATIONSHIP_WITH_TRANSFORMATION(#5670) 
SHAPE_REPRESENTATION_RELATIONSHIP());
#5880=NEXT_ASSEMBLY_USAGE_OCCURRENCE('1','','ZBM_5_BK_UNBEDRUCKT-select'
,#5750,#5280,'');
#5890=PRODUCT_DEFINITION_SHAPE('','',#5880);
#5900=CONTEXT_DEPENDENT_SHAPE_REPRESENTATION(#5870,#5890);
ENDSEC;
END-ISO-10303-21;
