ISO-10303-21;
HEADER;
FILE_DESCRIPTION(('Creo Elements/Direct Modeling STEP Export'),'2;1');
FILE_NAME(
'D:/temp/JobSpoolerServerData/JobServer Files/e0e5a582-b3b5-4469-9a6e-8a
bac1ad1de6/work/output/model.stp','2018-04-04T 9:03:32',(''),(''),
'Creo Elements/Direct Modeling STEP processor for AP214 (Solid Model)',
'Creo Elements/Direct Modeling 18.1I  14-Aug-2016 (C) Parametric Technol
ogy GmbH','');
FILE_SCHEMA(('AUTOMOTIVE_DESIGN { 1 0 10303 214 1 1 1 1 }'));
ENDSEC;
DATA;
#10=CARTESIAN_POINT('',(-175.882670800196,-0.989168912703929,
77.1438894337356));
#20=DIRECTION('',(2.97539770599559E-13,-1.,0.));
#30=DIRECTION('',(1.,2.97539770599559E-13,0.));
#40=AXIS2_PLACEMENT_3D('',#10,#20,#30);
#50=PLANE('',#40);
#60=CARTESIAN_POINT('',(0.,-0.989168912651597,77.1438894337356));
#70=DIRECTION('',(-1.,-2.97539770599559E-13,0.));
#80=VECTOR('',#70,1.);
#90=LINE('',#60,#80);
#100=CARTESIAN_POINT('',(-175.832670800196,-0.989168912703914,
77.1438894337356));
#110=VERTEX_POINT('',#100);
#120=CARTESIAN_POINT('',(-176.082670800196,-0.989168912703989,
77.1438894337356));
#130=VERTEX_POINT('',#120);
#140=EDGE_CURVE('',#110,#130,#90,.T.);
#150=ORIENTED_EDGE('',*,*,#140,.F.);
#160=CARTESIAN_POINT('',(-176.082670800196,-0.989168912703989,0.));
#170=DIRECTION('',(-3.62278493456773E-47,-1.07784569304829E-59,-1.));
#180=VECTOR('',#170,1.);
#190=LINE('',#160,#180);
#200=CARTESIAN_POINT('',(-176.082670800196,-0.989168912703989,
72.5938894337356));
#210=VERTEX_POINT('',#200);
#220=EDGE_CURVE('',#130,#210,#190,.T.);
#230=ORIENTED_EDGE('',*,*,#220,.F.);
#240=CARTESIAN_POINT('',(0.,-0.989168912651597,72.5938894337356));
#250=DIRECTION('',(1.,2.97539770599559E-13,0.));
#260=VECTOR('',#250,1.);
#270=LINE('',#240,#260);
#280=CARTESIAN_POINT('',(-175.832670800196,-0.989168912703914,
72.5938894337356));
#290=VERTEX_POINT('',#280);
#300=EDGE_CURVE('',#210,#290,#270,.T.);
#310=ORIENTED_EDGE('',*,*,#300,.F.);
#320=CARTESIAN_POINT('',(-175.832670800196,-0.989168912703914,
72.5938894337356));
#330=DIRECTION('',(0.,0.,1.));
#340=VECTOR('',#330,1.);
#350=LINE('',#320,#340);
#360=EDGE_CURVE('',#290,#110,#350,.T.);
#370=ORIENTED_EDGE('',*,*,#360,.F.);
#380=EDGE_LOOP('',(#370,#310,#230,#150));
#390=FACE_OUTER_BOUND('',#380,.T.);
#400=ADVANCED_FACE('',(#390),#50,.F.);
#410=COLOUR_RGB('',0.980392217636108,0.517647087574005,0.168627455830574
);
#420=FILL_AREA_STYLE_COLOUR('',#410);
#430=FILL_AREA_STYLE('',(#420));
#440=SURFACE_STYLE_FILL_AREA(#430);
#450=SURFACE_SIDE_STYLE('',(#440));
#460=SURFACE_STYLE_USAGE(.BOTH.,#450);
#470=PRESENTATION_STYLE_ASSIGNMENT((#460));
#480=CARTESIAN_POINT('',(-181.082670800196,-0.639168912703927,
67.1438894337356));
#490=DIRECTION('',(1.,0.,0.));
#500=DIRECTION('',(0.,-1.,0.));
#510=AXIS2_PLACEMENT_3D('',#480,#490,#500);
#520=PLANE('',#510);
#530=CARTESIAN_POINT('',(-181.082670800196,-0.389168912703927,
72.5938894337356));
#540=DIRECTION('',(0.,0.,1.));
#550=VECTOR('',#540,1.);
#560=LINE('',#530,#550);
#570=CARTESIAN_POINT('',(-181.082670800196,-0.389168912703927,
72.5938894337356));
#580=VERTEX_POINT('',#570);
#590=CARTESIAN_POINT('',(-181.082670800196,-0.389168912703927,
77.1438894337356));
#600=VERTEX_POINT('',#590);
#610=EDGE_CURVE('',#580,#600,#560,.T.);
#620=ORIENTED_EDGE('',*,*,#610,.F.);
#630=CARTESIAN_POINT('',(-181.082670800196,0.,77.1438894337356));
#640=DIRECTION('',(0.,-1.,0.));
#650=VECTOR('',#640,1.);
#660=LINE('',#630,#650);
#670=CARTESIAN_POINT('',(-181.082670800196,-0.989168912703929,
77.1438894337356));
#680=VERTEX_POINT('',#670);
#690=EDGE_CURVE('',#600,#680,#660,.T.);
#700=ORIENTED_EDGE('',*,*,#690,.F.);
#710=CARTESIAN_POINT('',(-181.082670800196,-0.989168912703929,0.));
#720=DIRECTION('',(0.,0.,-1.));
#730=VECTOR('',#720,1.);
#740=LINE('',#710,#730);
#750=CARTESIAN_POINT('',(-181.082670800196,-0.989168912703929,
72.5938894337356));
#760=VERTEX_POINT('',#750);
#770=EDGE_CURVE('',#680,#760,#740,.T.);
#780=ORIENTED_EDGE('',*,*,#770,.F.);
#790=CARTESIAN_POINT('',(-181.082670800196,0.,72.5938894337356));
#800=DIRECTION('',(0.,1.,0.));
#810=VECTOR('',#800,1.);
#820=LINE('',#790,#810);
#830=EDGE_CURVE('',#760,#580,#820,.T.);
#840=ORIENTED_EDGE('',*,*,#830,.F.);
#850=EDGE_LOOP('',(#840,#780,#700,#620));
#860=FACE_OUTER_BOUND('',#850,.T.);
#870=ADVANCED_FACE('',(#860),#520,.F.);
#880=COLOUR_RGB('',0.980392217636108,0.517647087574005,0.168627455830574
);
#890=FILL_AREA_STYLE_COLOUR('',#880);
#900=FILL_AREA_STYLE('',(#890));
#910=SURFACE_STYLE_FILL_AREA(#900);
#920=SURFACE_SIDE_STYLE('',(#910));
#930=SURFACE_STYLE_USAGE(.BOTH.,#920);
#940=PRESENTATION_STYLE_ASSIGNMENT((#930));
#950=CARTESIAN_POINT('',(-173.697726075229,-2.14917131270393,
77.1438894337356));
#960=DIRECTION('',(0.,0.,1.));
#970=DIRECTION('',(-1.,0.,0.));
#980=AXIS2_PLACEMENT_3D('',#950,#960,#970);
#990=PLANE('',#980);
#1000=ORIENTED_EDGE('',*,*,#140,.T.);
#1010=CARTESIAN_POINT('',(-175.832670800196,-1.48916891270393,
77.1438894337356));
#1020=DIRECTION('',(0.,0.,1.));
#1030=DIRECTION('',(1.,0.,0.));
#1040=AXIS2_PLACEMENT_3D('',#1010,#1020,#1030);
#1050=CIRCLE('',#1040,0.5);
#1060=CARTESIAN_POINT('',(-175.832670800196,-1.98916891270393,
77.1438894337356));
#1070=VERTEX_POINT('',#1060);
#1080=EDGE_CURVE('',#1070,#110,#1050,.T.);
#1090=ORIENTED_EDGE('',*,*,#1080,.T.);
#1100=CARTESIAN_POINT('',(0.,-1.98916891270393,77.1438894337356));
#1110=DIRECTION('',(1.,0.,0.));
#1120=VECTOR('',#1110,1.);
#1130=LINE('',#1100,#1120);
#1140=CARTESIAN_POINT('',(-176.532670800196,-1.98916891270393,
77.1438894337356));
#1150=VERTEX_POINT('',#1140);
#1160=EDGE_CURVE('',#1150,#1070,#1130,.T.);
#1170=ORIENTED_EDGE('',*,*,#1160,.T.);
#1180=CARTESIAN_POINT('',(-176.532670800196,0.,77.1438894337356));
#1190=DIRECTION('',(0.,1.,0.));
#1200=VECTOR('',#1190,1.);
#1210=LINE('',#1180,#1200);
#1220=CARTESIAN_POINT('',(-176.532670800196,-0.98916891270393,
77.1438894337356));
#1230=VERTEX_POINT('',#1220);
#1240=EDGE_CURVE('',#1150,#1230,#1210,.T.);
#1250=ORIENTED_EDGE('',*,*,#1240,.F.);
#1260=CARTESIAN_POINT('',(0.,-0.989168912703951,77.1438894337356));
#1270=DIRECTION('',(-1.,-9.0569623364188E-47,0.));
#1280=VECTOR('',#1270,1.);
#1290=LINE('',#1260,#1280);
#1300=CARTESIAN_POINT('',(-180.632670800196,-0.989168912703913,
77.1438894337356));
#1310=VERTEX_POINT('',#1300);
#1320=EDGE_CURVE('',#1230,#1310,#1290,.T.);
#1330=ORIENTED_EDGE('',*,*,#1320,.F.);
#1340=CARTESIAN_POINT('',(-180.632670800196,0.,77.1438894337356));
#1350=DIRECTION('',(0.,-1.,0.));
#1360=VECTOR('',#1350,1.);
#1370=LINE('',#1340,#1360);
#1380=CARTESIAN_POINT('',(-180.632670800196,-1.98916891270393,
77.1438894337356));
#1390=VERTEX_POINT('',#1380);
#1400=EDGE_CURVE('',#1310,#1390,#1370,.T.);
#1410=ORIENTED_EDGE('',*,*,#1400,.F.);
#1420=CARTESIAN_POINT('',(0.,-1.98916891270393,77.1438894337356));
#1430=DIRECTION('',(-1.,0.,0.));
#1440=VECTOR('',#1430,1.);
#1450=LINE('',#1420,#1440);
#1460=CARTESIAN_POINT('',(-181.332670800196,-1.98916891270393,
77.1438894337356));
#1470=VERTEX_POINT('',#1460);
#1480=EDGE_CURVE('',#1390,#1470,#1450,.T.);
#1490=ORIENTED_EDGE('',*,*,#1480,.F.);
#1500=CARTESIAN_POINT('',(-181.332670800196,-1.48916891270393,
77.1438894337356));
#1510=DIRECTION('',(0.,0.,1.));
#1520=DIRECTION('',(1.,0.,0.));
#1530=AXIS2_PLACEMENT_3D('',#1500,#1510,#1520);
#1540=CIRCLE('',#1530,0.5);
#1550=CARTESIAN_POINT('',(-181.332670800196,-0.989168912703929,
77.1438894337356));
#1560=VERTEX_POINT('',#1550);
#1570=EDGE_CURVE('',#1560,#1470,#1540,.T.);
#1580=ORIENTED_EDGE('',*,*,#1570,.T.);
#1590=CARTESIAN_POINT('',(0.,-0.989168912703929,77.1438894337356));
#1600=DIRECTION('',(1.,0.,0.));
#1610=VECTOR('',#1600,1.);
#1620=LINE('',#1590,#1610);
#1630=EDGE_CURVE('',#1560,#680,#1620,.T.);
#1640=ORIENTED_EDGE('',*,*,#1630,.F.);
#1650=ORIENTED_EDGE('',*,*,#690,.T.);
#1660=CARTESIAN_POINT('',(0.,-0.389168912703927,77.1438894337356));
#1670=DIRECTION('',(-1.,0.,0.));
#1680=VECTOR('',#1670,1.);
#1690=LINE('',#1660,#1680);
#1700=CARTESIAN_POINT('',(-176.082670800196,-0.389168912703927,
77.1438894337356));
#1710=VERTEX_POINT('',#1700);
#1720=EDGE_CURVE('',#1710,#600,#1690,.T.);
#1730=ORIENTED_EDGE('',*,*,#1720,.T.);
#1740=CARTESIAN_POINT('',(-176.082670800196,0.,77.1438894337356));
#1750=DIRECTION('',(2.46519032881566E-32,1.,0.));
#1760=VECTOR('',#1750,1.);
#1770=LINE('',#1740,#1760);
#1780=EDGE_CURVE('',#130,#1710,#1770,.T.);
#1790=ORIENTED_EDGE('',*,*,#1780,.T.);
#1800=EDGE_LOOP('',(#1790,#1730,#1650,#1640,#1580,#1490,#1410,#1330,
#1250,#1170,#1090,#1000));
#1810=FACE_OUTER_BOUND('',#1800,.T.);
#1820=ADVANCED_FACE('',(#1810),#990,.T.);
#1830=COLOUR_RGB('',0.980392217636108,0.517647087574005,
0.168627455830574);
#1840=FILL_AREA_STYLE_COLOUR('',#1830);
#1850=FILL_AREA_STYLE('',(#1840));
#1860=SURFACE_STYLE_FILL_AREA(#1850);
#1870=SURFACE_SIDE_STYLE('',(#1860));
#1880=SURFACE_STYLE_USAGE(.BOTH.,#1870);
#1890=PRESENTATION_STYLE_ASSIGNMENT((#1880));
#1900=CARTESIAN_POINT('',(-181.332670800196,-1.48916891270393,
72.5938894337356));
#1910=DIRECTION('',(0.,0.,1.));
#1920=DIRECTION('',(1.,0.,0.));
#1930=AXIS2_PLACEMENT_3D('',#1900,#1910,#1920);
#1940=CYLINDRICAL_SURFACE('',#1930,0.5);
#1950=CARTESIAN_POINT('',(-181.332670800196,-0.989168912703929,
72.5938894337356));
#1960=DIRECTION('',(0.,0.,1.));
#1970=VECTOR('',#1960,1.);
#1980=LINE('',#1950,#1970);
#1990=CARTESIAN_POINT('',(-181.332670800196,-0.989168912703929,
72.5938894337356));
#2000=VERTEX_POINT('',#1990);
#2010=EDGE_CURVE('',#2000,#1560,#1980,.T.);
#2020=ORIENTED_EDGE('',*,*,#2010,.F.);
#2030=ORIENTED_EDGE('',*,*,#1570,.F.);
#2040=CARTESIAN_POINT('',(-181.332670800196,-1.98916891270393,
72.5938894337356));
#2050=DIRECTION('',(0.,0.,1.));
#2060=VECTOR('',#2050,1.);
#2070=LINE('',#2040,#2060);
#2080=CARTESIAN_POINT('',(-181.332670800196,-1.98916891270393,
72.5938894337356));
#2090=VERTEX_POINT('',#2080);
#2100=EDGE_CURVE('',#2090,#1470,#2070,.T.);
#2110=ORIENTED_EDGE('',*,*,#2100,.T.);
#2120=CARTESIAN_POINT('',(-181.332670800196,-1.48916891270393,
72.5938894337356));
#2130=DIRECTION('',(0.,0.,1.));
#2140=DIRECTION('',(1.,0.,0.));
#2150=AXIS2_PLACEMENT_3D('',#2120,#2130,#2140);
#2160=CIRCLE('',#2150,0.5);
#2170=EDGE_CURVE('',#2000,#2090,#2160,.T.);
#2180=ORIENTED_EDGE('',*,*,#2170,.T.);
#2190=EDGE_LOOP('',(#2180,#2110,#2030,#2020));
#2200=FACE_OUTER_BOUND('',#2190,.T.);
#2210=ADVANCED_FACE('',(#2200),#1940,.T.);
#2220=COLOUR_RGB('',0.980392217636108,0.517647087574005,
0.168627455830574);
#2230=FILL_AREA_STYLE_COLOUR('',#2220);
#2240=FILL_AREA_STYLE('',(#2230));
#2250=SURFACE_STYLE_FILL_AREA(#2240);
#2260=SURFACE_SIDE_STYLE('',(#2250));
#2270=SURFACE_STYLE_USAGE(.BOTH.,#2260);
#2280=PRESENTATION_STYLE_ASSIGNMENT((#2270));
#2290=CARTESIAN_POINT('',(-181.132670800196,-1.98916891270393,
72.5938894337356));
#2300=DIRECTION('',(-0.,-1.,-0.));
#2310=DIRECTION('',(-1.,0.,0.));
#2320=AXIS2_PLACEMENT_3D('',#2290,#2300,#2310);
#2330=PLANE('',#2320);
#2340=ORIENTED_EDGE('',*,*,#2100,.F.);
#2350=ORIENTED_EDGE('',*,*,#1480,.T.);
#2360=CARTESIAN_POINT('',(-180.632670800196,-1.98916891270393,0.));
#2370=DIRECTION('',(0.,0.,-1.));
#2380=VECTOR('',#2370,1.);
#2390=LINE('',#2360,#2380);
#2400=CARTESIAN_POINT('',(-180.632670800196,-1.98916891270393,
72.5938894337356));
#2410=VERTEX_POINT('',#2400);
#2420=EDGE_CURVE('',#1390,#2410,#2390,.T.);
#2430=ORIENTED_EDGE('',*,*,#2420,.F.);
#2440=CARTESIAN_POINT('',(0.,-1.98916891270393,72.5938894337356));
#2450=DIRECTION('',(1.,0.,0.));
#2460=VECTOR('',#2450,1.);
#2470=LINE('',#2440,#2460);
#2480=EDGE_CURVE('',#2090,#2410,#2470,.T.);
#2490=ORIENTED_EDGE('',*,*,#2480,.T.);
#2500=EDGE_LOOP('',(#2490,#2430,#2350,#2340));
#2510=FACE_OUTER_BOUND('',#2500,.T.);
#2520=ADVANCED_FACE('',(#2510),#2330,.T.);
#2530=COLOUR_RGB('',0.980392217636108,0.517647087574005,
0.168627455830574);
#2540=FILL_AREA_STYLE_COLOUR('',#2530);
#2550=FILL_AREA_STYLE('',(#2540));
#2560=SURFACE_STYLE_FILL_AREA(#2550);
#2570=SURFACE_SIDE_STYLE('',(#2560));
#2580=SURFACE_STYLE_USAGE(.BOTH.,#2570);
#2590=PRESENTATION_STYLE_ASSIGNMENT((#2580));
#2600=CARTESIAN_POINT('',(-176.082670800196,-0.0530843624320149,
128.943889433736));
#2610=DIRECTION('',(-1.,2.46519032881566E-32,3.62278493456773E-47));
#2620=DIRECTION('',(2.46519032881566E-32,1.,-2.18952885050753E-47));
#2630=AXIS2_PLACEMENT_3D('',#2600,#2610,#2620);
#2640=PLANE('',#2630);
#2650=CARTESIAN_POINT('',(-176.082670800196,-0.389168912703927,
77.1438894337356));
#2660=DIRECTION('',(0.,0.,1.));
#2670=VECTOR('',#2660,1.);
#2680=LINE('',#2650,#2670);
#2690=CARTESIAN_POINT('',(-176.082670800196,-0.389168912703927,
72.5938894337356));
#2700=VERTEX_POINT('',#2690);
#2710=EDGE_CURVE('',#2700,#1710,#2680,.T.);
#2720=ORIENTED_EDGE('',*,*,#2710,.T.);
#2730=CARTESIAN_POINT('',(-176.082670800196,0.,72.5938894337356));
#2740=DIRECTION('',(-2.46519032881566E-32,-1.,0.));
#2750=VECTOR('',#2740,1.);
#2760=LINE('',#2730,#2750);
#2770=EDGE_CURVE('',#2700,#210,#2760,.T.);
#2780=ORIENTED_EDGE('',*,*,#2770,.F.);
#2790=ORIENTED_EDGE('',*,*,#220,.T.);
#2800=ORIENTED_EDGE('',*,*,#1780,.F.);
#2810=EDGE_LOOP('',(#2800,#2790,#2780,#2720));
#2820=FACE_OUTER_BOUND('',#2810,.T.);
#2830=ADVANCED_FACE('',(#2820),#2640,.F.);
#2840=COLOUR_RGB('',0.980392217636108,0.517647087574005,
0.168627455830574);
#2850=FILL_AREA_STYLE_COLOUR('',#2840);
#2860=FILL_AREA_STYLE('',(#2850));
#2870=SURFACE_STYLE_FILL_AREA(#2860);
#2880=SURFACE_SIDE_STYLE('',(#2870));
#2890=SURFACE_STYLE_USAGE(.BOTH.,#2880);
#2900=PRESENTATION_STYLE_ASSIGNMENT((#2890));
#2910=CARTESIAN_POINT('',(-181.082670800196,-0.389168912703927,
77.1438894337356));
#2920=DIRECTION('',(0.,-1.,0.));
#2930=DIRECTION('',(1.,0.,0.));
#2940=AXIS2_PLACEMENT_3D('',#2910,#2920,#2930);
#2950=PLANE('',#2940);
#2960=ORIENTED_EDGE('',*,*,#1720,.F.);
#2970=ORIENTED_EDGE('',*,*,#610,.T.);
#2980=CARTESIAN_POINT('',(0.,-0.389168912703927,72.5938894337356));
#2990=DIRECTION('',(1.,0.,0.));
#3000=VECTOR('',#2990,1.);
#3010=LINE('',#2980,#3000);
#3020=EDGE_CURVE('',#580,#2700,#3010,.T.);
#3030=ORIENTED_EDGE('',*,*,#3020,.F.);
#3040=ORIENTED_EDGE('',*,*,#2710,.F.);
#3050=EDGE_LOOP('',(#3040,#3030,#2970,#2960));
#3060=FACE_OUTER_BOUND('',#3050,.T.);
#3070=ADVANCED_FACE('',(#3060),#2950,.F.);
#3080=COLOUR_RGB('',0.980392217636108,0.517647087574005,
0.168627455830574);
#3090=FILL_AREA_STYLE_COLOUR('',#3080);
#3100=FILL_AREA_STYLE('',(#3090));
#3110=SURFACE_STYLE_FILL_AREA(#3100);
#3120=SURFACE_SIDE_STYLE('',(#3110));
#3130=SURFACE_STYLE_USAGE(.BOTH.,#3120);
#3140=PRESENTATION_STYLE_ASSIGNMENT((#3130));
#3150=CARTESIAN_POINT('',(-175.832670800196,-1.48916891270393,
77.1438894337356));
#3160=DIRECTION('',(0.,0.,-1.));
#3170=DIRECTION('',(1.,0.,0.));
#3180=AXIS2_PLACEMENT_3D('',#3150,#3160,#3170);
#3190=CYLINDRICAL_SURFACE('',#3180,0.5);
#3200=ORIENTED_EDGE('',*,*,#1080,.F.);
#3210=ORIENTED_EDGE('',*,*,#360,.T.);
#3220=CARTESIAN_POINT('',(-175.832670800196,-1.48916891270393,
72.5938894337356));
#3230=DIRECTION('',(0.,0.,1.));
#3240=DIRECTION('',(1.,0.,0.));
#3250=AXIS2_PLACEMENT_3D('',#3220,#3230,#3240);
#3260=CIRCLE('',#3250,0.5);
#3270=CARTESIAN_POINT('',(-175.832670800196,-1.98916891270393,
72.5938894337356));
#3280=VERTEX_POINT('',#3270);
#3290=EDGE_CURVE('',#3280,#290,#3260,.T.);
#3300=ORIENTED_EDGE('',*,*,#3290,.T.);
#3310=CARTESIAN_POINT('',(-175.832670800196,-1.98916891270393,
77.1438894337356));
#3320=DIRECTION('',(0.,0.,-1.));
#3330=VECTOR('',#3320,1.);
#3340=LINE('',#3310,#3330);
#3350=EDGE_CURVE('',#1070,#3280,#3340,.T.);
#3360=ORIENTED_EDGE('',*,*,#3350,.T.);
#3370=EDGE_LOOP('',(#3360,#3300,#3210,#3200));
#3380=FACE_OUTER_BOUND('',#3370,.T.);
#3390=ADVANCED_FACE('',(#3380),#3190,.T.);
#3400=COLOUR_RGB('',0.980392217636108,0.517647087574005,
0.168627455830574);
#3410=FILL_AREA_STYLE_COLOUR('',#3400);
#3420=FILL_AREA_STYLE('',(#3410));
#3430=SURFACE_STYLE_FILL_AREA(#3420);
#3440=SURFACE_SIDE_STYLE('',(#3430));
#3450=SURFACE_STYLE_USAGE(.BOTH.,#3440);
#3460=PRESENTATION_STYLE_ASSIGNMENT((#3450));
#3470=CARTESIAN_POINT('',(-180.632670800196,-1.2891689127039,
72.5938894337356));
#3480=DIRECTION('',(1.,0.,0.));
#3490=DIRECTION('',(0.,-1.,0.));
#3500=AXIS2_PLACEMENT_3D('',#3470,#3480,#3490);
#3510=PLANE('',#3500);
#3520=ORIENTED_EDGE('',*,*,#2420,.T.);
#3530=ORIENTED_EDGE('',*,*,#1400,.T.);
#3540=CARTESIAN_POINT('',(-180.632670800196,-0.989168912703913,0.));
#3550=DIRECTION('',(0.,0.,1.));
#3560=VECTOR('',#3550,1.);
#3570=LINE('',#3540,#3560);
#3580=CARTESIAN_POINT('',(-180.632670800196,-0.989168912703913,
72.5938894337356));
#3590=VERTEX_POINT('',#3580);
#3600=EDGE_CURVE('',#3590,#1310,#3570,.T.);
#3610=ORIENTED_EDGE('',*,*,#3600,.T.);
#3620=CARTESIAN_POINT('',(-180.632670800196,0.,72.5938894337356));
#3630=DIRECTION('',(0.,1.,0.));
#3640=VECTOR('',#3630,1.);
#3650=LINE('',#3620,#3640);
#3660=EDGE_CURVE('',#2410,#3590,#3650,.T.);
#3670=ORIENTED_EDGE('',*,*,#3660,.T.);
#3680=EDGE_LOOP('',(#3670,#3610,#3530,#3520));
#3690=FACE_OUTER_BOUND('',#3680,.T.);
#3700=ADVANCED_FACE('',(#3690),#3510,.T.);
#3710=COLOUR_RGB('',0.980392217636108,0.517647087574005,
0.168627455830574);
#3720=FILL_AREA_STYLE_COLOUR('',#3710);
#3730=FILL_AREA_STYLE('',(#3720));
#3740=SURFACE_STYLE_FILL_AREA(#3730);
#3750=SURFACE_SIDE_STYLE('',(#3740));
#3760=SURFACE_STYLE_USAGE(.BOTH.,#3750);
#3770=PRESENTATION_STYLE_ASSIGNMENT((#3760));
#3780=CARTESIAN_POINT('',(-175.832670800196,-1.98916891270393,
77.1438894337356));
#3790=DIRECTION('',(0.,1.,-0.));
#3800=DIRECTION('',(-1.,0.,0.));
#3810=AXIS2_PLACEMENT_3D('',#3780,#3790,#3800);
#3820=PLANE('',#3810);
#3830=ORIENTED_EDGE('',*,*,#1160,.F.);
#3840=ORIENTED_EDGE('',*,*,#3350,.F.);
#3850=CARTESIAN_POINT('',(0.,-1.98916891270393,72.5938894337356));
#3860=DIRECTION('',(-1.,0.,0.));
#3870=VECTOR('',#3860,1.);
#3880=LINE('',#3850,#3870);
#3890=CARTESIAN_POINT('',(-176.532670800196,-1.98916891270393,
72.5938894337356));
#3900=VERTEX_POINT('',#3890);
#3910=EDGE_CURVE('',#3280,#3900,#3880,.T.);
#3920=ORIENTED_EDGE('',*,*,#3910,.F.);
#3930=CARTESIAN_POINT('',(-176.532670800196,-1.98916891270393,0.));
#3940=DIRECTION('',(0.,0.,1.));
#3950=VECTOR('',#3940,1.);
#3960=LINE('',#3930,#3950);
#3970=EDGE_CURVE('',#3900,#1150,#3960,.T.);
#3980=ORIENTED_EDGE('',*,*,#3970,.F.);
#3990=EDGE_LOOP('',(#3980,#3920,#3840,#3830));
#4000=FACE_OUTER_BOUND('',#3990,.T.);
#4010=ADVANCED_FACE('',(#4000),#3820,.F.);
#4020=COLOUR_RGB('',0.980392217636108,0.517647087574005,
0.168627455830574);
#4030=FILL_AREA_STYLE_COLOUR('',#4020);
#4040=FILL_AREA_STYLE('',(#4030));
#4050=SURFACE_STYLE_FILL_AREA(#4040);
#4060=SURFACE_SIDE_STYLE('',(#4050));
#4070=SURFACE_STYLE_USAGE(.BOTH.,#4060);
#4080=PRESENTATION_STYLE_ASSIGNMENT((#4070));
#4090=CARTESIAN_POINT('',(-176.532670800196,-1.48916891270393,
72.5938894337356));
#4100=DIRECTION('',(-1.,0.,0.));
#4110=DIRECTION('',(0.,1.,0.));
#4120=AXIS2_PLACEMENT_3D('',#4090,#4100,#4110);
#4130=PLANE('',#4120);
#4140=CARTESIAN_POINT('',(-176.532670800196,-0.98916891270393,0.));
#4150=DIRECTION('',(0.,0.,1.));
#4160=VECTOR('',#4150,1.);
#4170=LINE('',#4140,#4160);
#4180=CARTESIAN_POINT('',(-176.532670800196,-0.98916891270393,
72.5938894337356));
#4190=VERTEX_POINT('',#4180);
#4200=EDGE_CURVE('',#4190,#1230,#4170,.T.);
#4210=ORIENTED_EDGE('',*,*,#4200,.F.);
#4220=ORIENTED_EDGE('',*,*,#1240,.T.);
#4230=ORIENTED_EDGE('',*,*,#3970,.T.);
#4240=CARTESIAN_POINT('',(-176.532670800196,0.,72.5938894337356));
#4250=DIRECTION('',(0.,-1.,0.));
#4260=VECTOR('',#4250,1.);
#4270=LINE('',#4240,#4260);
#4280=EDGE_CURVE('',#4190,#3900,#4270,.T.);
#4290=ORIENTED_EDGE('',*,*,#4280,.T.);
#4300=EDGE_LOOP('',(#4290,#4230,#4220,#4210));
#4310=FACE_OUTER_BOUND('',#4300,.T.);
#4320=ADVANCED_FACE('',(#4310),#4130,.T.);
#4330=COLOUR_RGB('',0.980392217636108,0.517647087574005,
0.168627455830574);
#4340=FILL_AREA_STYLE_COLOUR('',#4330);
#4350=FILL_AREA_STYLE('',(#4340));
#4360=SURFACE_STYLE_FILL_AREA(#4350);
#4370=SURFACE_SIDE_STYLE('',(#4360));
#4380=SURFACE_STYLE_USAGE(.BOTH.,#4370);
#4390=PRESENTATION_STYLE_ASSIGNMENT((#4380));
#4400=CARTESIAN_POINT('',(-176.832670800196,-0.989168912703929,
72.5938894337356));
#4410=DIRECTION('',(-4.25056815142203E-15,-1.,-0.));
#4420=DIRECTION('',(-1.,4.25056815142203E-15,0.));
#4430=AXIS2_PLACEMENT_3D('',#4400,#4410,#4420);
#4440=PLANE('',#4430);
#4450=ORIENTED_EDGE('',*,*,#4200,.T.);
#4460=CARTESIAN_POINT('',(0.,-0.989168912703942,72.5938894337356));
#4470=DIRECTION('',(-1.,-9.0569623364188E-47,0.));
#4480=VECTOR('',#4470,1.);
#4490=LINE('',#4460,#4480);
#4500=EDGE_CURVE('',#4190,#3590,#4490,.T.);
#4510=ORIENTED_EDGE('',*,*,#4500,.F.);
#4520=ORIENTED_EDGE('',*,*,#3600,.F.);
#4530=ORIENTED_EDGE('',*,*,#1320,.T.);
#4540=EDGE_LOOP('',(#4530,#4520,#4510,#4450));
#4550=FACE_OUTER_BOUND('',#4540,.T.);
#4560=ADVANCED_FACE('',(#4550),#4440,.T.);
#4570=COLOUR_RGB('',0.980392217636108,0.517647087574005,
0.168627455830574);
#4580=FILL_AREA_STYLE_COLOUR('',#4570);
#4590=FILL_AREA_STYLE('',(#4580));
#4600=SURFACE_STYLE_FILL_AREA(#4590);
#4610=SURFACE_SIDE_STYLE('',(#4600));
#4620=SURFACE_STYLE_USAGE(.BOTH.,#4610);
#4630=PRESENTATION_STYLE_ASSIGNMENT((#4620));
#4640=CARTESIAN_POINT('',(-181.332670800196,-0.989168912703929,
72.5938894337356));
#4650=DIRECTION('',(-0.,1.,0.));
#4660=DIRECTION('',(1.,0.,0.));
#4670=AXIS2_PLACEMENT_3D('',#4640,#4650,#4660);
#4680=PLANE('',#4670);
#4690=ORIENTED_EDGE('',*,*,#770,.T.);
#4700=ORIENTED_EDGE('',*,*,#1630,.T.);
#4710=ORIENTED_EDGE('',*,*,#2010,.T.);
#4720=CARTESIAN_POINT('',(0.,-0.989168912703929,72.5938894337356));
#4730=DIRECTION('',(-1.,0.,0.));
#4740=VECTOR('',#4730,1.);
#4750=LINE('',#4720,#4740);
#4760=EDGE_CURVE('',#760,#2000,#4750,.T.);
#4770=ORIENTED_EDGE('',*,*,#4760,.T.);
#4780=EDGE_LOOP('',(#4770,#4710,#4700,#4690));
#4790=FACE_OUTER_BOUND('',#4780,.T.);
#4800=ADVANCED_FACE('',(#4790),#4680,.T.);
#4810=COLOUR_RGB('',0.980392217636108,0.517647087574005,
0.168627455830574);
#4820=FILL_AREA_STYLE_COLOUR('',#4810);
#4830=FILL_AREA_STYLE('',(#4820));
#4840=SURFACE_STYLE_FILL_AREA(#4830);
#4850=SURFACE_SIDE_STYLE('',(#4840));
#4860=SURFACE_STYLE_USAGE(.BOTH.,#4850);
#4870=PRESENTATION_STYLE_ASSIGNMENT((#4860));
#4880=CARTESIAN_POINT('',(-173.697726075229,-2.14917131270393,
72.5938894337356));
#4890=DIRECTION('',(0.,0.,1.));
#4900=DIRECTION('',(-1.,0.,0.));
#4910=AXIS2_PLACEMENT_3D('',#4880,#4890,#4900);
#4920=PLANE('',#4910);
#4930=ORIENTED_EDGE('',*,*,#3020,.T.);
#4940=ORIENTED_EDGE('',*,*,#830,.T.);
#4950=ORIENTED_EDGE('',*,*,#4760,.F.);
#4960=ORIENTED_EDGE('',*,*,#2170,.F.);
#4970=ORIENTED_EDGE('',*,*,#2480,.F.);
#4980=ORIENTED_EDGE('',*,*,#3660,.F.);
#4990=ORIENTED_EDGE('',*,*,#4500,.T.);
#5000=ORIENTED_EDGE('',*,*,#4280,.F.);
#5010=ORIENTED_EDGE('',*,*,#3910,.T.);
#5020=ORIENTED_EDGE('',*,*,#3290,.F.);
#5030=ORIENTED_EDGE('',*,*,#300,.T.);
#5040=ORIENTED_EDGE('',*,*,#2770,.T.);
#5050=EDGE_LOOP('',(#5040,#5030,#5020,#5010,#5000,#4990,#4980,#4970,
#4960,#4950,#4940,#4930));
#5060=FACE_OUTER_BOUND('',#5050,.T.);
#5070=ADVANCED_FACE('',(#5060),#4920,.F.);
#5080=COLOUR_RGB('',0.980392217636108,0.517647087574005,
0.168627455830574);
#5090=FILL_AREA_STYLE_COLOUR('',#5080);
#5100=FILL_AREA_STYLE('',(#5090));
#5110=SURFACE_STYLE_FILL_AREA(#5100);
#5120=SURFACE_SIDE_STYLE('',(#5110));
#5130=SURFACE_STYLE_USAGE(.BOTH.,#5120);
#5140=PRESENTATION_STYLE_ASSIGNMENT((#5130));
#5150=CLOSED_SHELL('',(#400,#870,#1820,#2210,#2520,#2830,#3070,#3390,
#3700,#4010,#4320,#4560,#4800,#5070));
#5160=MANIFOLD_SOLID_BREP('',#5150);
#5170=CARTESIAN_POINT('',(0.,0.,0.));
#5180=DIRECTION('',(0.,0.,1.));
#5190=DIRECTION('',(1.,0.,0.));
#5200=AXIS2_PLACEMENT_3D('',#5170,#5180,#5190);
#5210=APPLICATION_CONTEXT(' ');
#5220=APPLICATION_PROTOCOL_DEFINITION(' ','automotive_design',1998,#5210
);
#5230=PRODUCT_CONTEXT('',#5210,'mechanical');
#5240=PRODUCT_DEFINITION_CONTEXT('part definition',#5210,'design');
#5250=PRODUCT('ZBFM_5_OG_UNBEDRUCKT-select',
'ZBFM_5_OG_UNBEDRUCKT-select','',(#5230));
#5260=PRODUCT_RELATED_PRODUCT_CATEGORY('part',' ',(#5250));
#5270=PRODUCT_DEFINITION_FORMATION_WITH_SPECIFIED_SOURCE('','',#5250,
.BOUGHT.);
#5280=PRODUCT_DEFINITION('',' ',#5270,#5240);
#5290=PRODUCT_DEFINITION_SHAPE('','',#5280);
#5300=DIMENSIONAL_EXPONENTS(1.,0.,0.,0.,0.,0.,0.);
#5310=DIMENSIONAL_EXPONENTS(0.,0.,0.,0.,0.,0.,0.);
#5320=DIMENSIONAL_EXPONENTS(0.,0.,0.,0.,0.,0.,0.);
#5330=(LENGTH_UNIT() NAMED_UNIT(*) SI_UNIT(.MILLI.,.METRE.));
#5340=(NAMED_UNIT(*) PLANE_ANGLE_UNIT() SI_UNIT($,.RADIAN.));
#5350=(NAMED_UNIT(*) SI_UNIT($,.STERADIAN.) SOLID_ANGLE_UNIT());
#5360=(GEOMETRIC_REPRESENTATION_CONTEXT(3) 
GLOBAL_UNCERTAINTY_ASSIGNED_CONTEXT((#5370)) 
GLOBAL_UNIT_ASSIGNED_CONTEXT((#5330,#5340,#5350)) REPRESENTATION_CONTEXT
('',''));
#5370=UNCERTAINTY_MEASURE_WITH_UNIT(LENGTH_MEASURE(1.E-6),#5330,
'distance_accuracy_value','maximum gap value');
#5380=ADVANCED_BREP_SHAPE_REPRESENTATION('',(#5200,#5160),#5360);
#5390=SHAPE_DEFINITION_REPRESENTATION(#5290,#5380);
#5400=COLOUR_RGB('',0.980392217636108,0.517647087574005,
0.168627455830574);
#5410=FILL_AREA_STYLE_COLOUR('',#5400);
#5420=FILL_AREA_STYLE('',(#5410));
#5430=SURFACE_STYLE_FILL_AREA(#5420);
#5440=SURFACE_SIDE_STYLE('',(#5430));
#5450=SURFACE_STYLE_USAGE(.BOTH.,#5440);
#5460=PRESENTATION_STYLE_ASSIGNMENT((#5450));
#5470=STYLED_ITEM('',(#5460),#5160);
#5480=OVER_RIDING_STYLED_ITEM('',(#470),#400,#5470);
#5490=OVER_RIDING_STYLED_ITEM('',(#940),#870,#5470);
#5500=OVER_RIDING_STYLED_ITEM('',(#1890),#1820,#5470);
#5510=OVER_RIDING_STYLED_ITEM('',(#2280),#2210,#5470);
#5520=OVER_RIDING_STYLED_ITEM('',(#2590),#2520,#5470);
#5530=OVER_RIDING_STYLED_ITEM('',(#2900),#2830,#5470);
#5540=OVER_RIDING_STYLED_ITEM('',(#3140),#3070,#5470);
#5550=OVER_RIDING_STYLED_ITEM('',(#3460),#3390,#5470);
#5560=OVER_RIDING_STYLED_ITEM('',(#3770),#3700,#5470);
#5570=OVER_RIDING_STYLED_ITEM('',(#4080),#4010,#5470);
#5580=OVER_RIDING_STYLED_ITEM('',(#4390),#4320,#5470);
#5590=OVER_RIDING_STYLED_ITEM('',(#4630),#4560,#5470);
#5600=OVER_RIDING_STYLED_ITEM('',(#4870),#4800,#5470);
#5610=OVER_RIDING_STYLED_ITEM('',(#5140),#5070,#5470);
#5620=DRAUGHTING_MODEL('',(#5470,#5480,#5490,#5500,#5510,#5520,#5530,
#5540,#5550,#5560,#5570,#5580,#5590,#5600,#5610),#5360);
#5630=CARTESIAN_POINT('',(77.1438894337356,-175.321297607273,
1.98916891270367));
#5640=DIRECTION('',(-1.,0.,0.));
#5650=DIRECTION('',(0.,-1.,0.));
#5660=AXIS2_PLACEMENT_3D('',#5630,#5640,#5650);
#5670=ITEM_DEFINED_TRANSFORMATION('ZBFM_5_OG_UNBEDRUCKT-select','',#5200
,#5660);
#5680=APPLICATION_CONTEXT(' ');
#5690=APPLICATION_PROTOCOL_DEFINITION(' ','automotive_design',1998,#5680
);
#5700=PRODUCT_CONTEXT('',#5680,'mechanical');
#5710=PRODUCT_DEFINITION_CONTEXT('part definition',#5680,'design');
#5720=PRODUCT('ZBFM_5_OG_UNBEDRUCKT-select',
'ZBFM_5_OG_UNBEDRUCKT-select','',(#5700));
#5730=PRODUCT_RELATED_PRODUCT_CATEGORY('part',' ',(#5720));
#5740=PRODUCT_DEFINITION_FORMATION_WITH_SPECIFIED_SOURCE('','',#5720,
.BOUGHT.);
#5750=PRODUCT_DEFINITION('',' ',#5740,#5710);
#5760=PRODUCT_DEFINITION_SHAPE('','',#5750);
#5770=DIMENSIONAL_EXPONENTS(1.,0.,0.,0.,0.,0.,0.);
#5780=DIMENSIONAL_EXPONENTS(0.,0.,0.,0.,0.,0.,0.);
#5790=DIMENSIONAL_EXPONENTS(0.,0.,0.,0.,0.,0.,0.);
#5800=(LENGTH_UNIT() NAMED_UNIT(*) SI_UNIT(.MILLI.,.METRE.));
#5810=(NAMED_UNIT(*) PLANE_ANGLE_UNIT() SI_UNIT($,.RADIAN.));
#5820=(NAMED_UNIT(*) SI_UNIT($,.STERADIAN.) SOLID_ANGLE_UNIT());
#5830=(GEOMETRIC_REPRESENTATION_CONTEXT(3) 
GLOBAL_UNCERTAINTY_ASSIGNED_CONTEXT((#5840)) 
GLOBAL_UNIT_ASSIGNED_CONTEXT((#5800,#5810,#5820)) REPRESENTATION_CONTEXT
('',''));
#5840=UNCERTAINTY_MEASURE_WITH_UNIT(LENGTH_MEASURE(1.E-6),#5800,
'distance_accuracy_value','maximum gap value');
#5850=SHAPE_REPRESENTATION('',(#5200,#5660),#5830);
#5860=SHAPE_DEFINITION_REPRESENTATION(#5760,#5850);
#5870=(REPRESENTATION_RELATIONSHIP('','',#5380,#5850) 
REPRESENTATION_RELATIONSHIP_WITH_TRANSFORMATION(#5670) 
SHAPE_REPRESENTATION_RELATIONSHIP());
#5880=NEXT_ASSEMBLY_USAGE_OCCURRENCE('1','',
'ZBFM_5_OG_UNBEDRUCKT-select',#5750,#5280,'');
#5890=PRODUCT_DEFINITION_SHAPE('','',#5880);
#5900=CONTEXT_DEPENDENT_SHAPE_REPRESENTATION(#5870,#5890);
ENDSEC;
END-ISO-10303-21;
