ISO-10303-21;
HEADER;
FILE_DESCRIPTION(('Creo Elements/Direct Modeling STEP Export'),'2;1');
FILE_NAME(
'D:/temp/JobSpoolerServerData/JobServer Files/c6265e5b-88a0-4b02-9f7e-ce
4e3b67ca1b/work/output/model.stp','2018-02-17T11:41:20',(''),(''),
'Creo Elements/Direct Modeling STEP processor for AP214 (Solid Model)',
'Creo Elements/Direct Modeling 18.1I  14-Aug-2016 (C) Parametric Technol
ogy GmbH','');
FILE_SCHEMA(('AUTOMOTIVE_DESIGN { 1 0 10303 214 1 1 1 1 }'));
ENDSEC;
DATA;
#10=CARTESIAN_POINT('',(-10.,94.,0.));
#20=DIRECTION('',(0.,0.,-1.));
#30=DIRECTION('',(-1.,0.,0.));
#40=AXIS2_PLACEMENT_3D('',#10,#20,#30);
#50=PLANE('',#40);
#60=CARTESIAN_POINT('',(7.5,0.,0.));
#70=DIRECTION('',(0.,1.,0.));
#80=VECTOR('',#70,1.);
#90=LINE('',#60,#80);
#100=CARTESIAN_POINT('',(7.5,4.25,0.));
#110=VERTEX_POINT('',#100);
#120=CARTESIAN_POINT('',(7.5,41.75,0.));
#130=VERTEX_POINT('',#120);
#140=EDGE_CURVE('',#110,#130,#90,.T.);
#150=ORIENTED_EDGE('',*,*,#140,.F.);
#160=CARTESIAN_POINT('',(0.,41.75,0.));
#170=DIRECTION('',(-1.,0.,0.));
#180=VECTOR('',#170,1.);
#190=LINE('',#160,#180);
#200=CARTESIAN_POINT('',(-7.5,41.75,0.));
#210=VERTEX_POINT('',#200);
#220=EDGE_CURVE('',#130,#210,#190,.T.);
#230=ORIENTED_EDGE('',*,*,#220,.F.);
#240=CARTESIAN_POINT('',(-7.5,0.,0.));
#250=DIRECTION('',(0.,-1.,0.));
#260=VECTOR('',#250,1.);
#270=LINE('',#240,#260);
#280=CARTESIAN_POINT('',(-7.5,4.25,0.));
#290=VERTEX_POINT('',#280);
#300=EDGE_CURVE('',#210,#290,#270,.T.);
#310=ORIENTED_EDGE('',*,*,#300,.F.);
#320=CARTESIAN_POINT('',(0.,4.25,0.));
#330=DIRECTION('',(-1.,0.,0.));
#340=VECTOR('',#330,1.);
#350=LINE('',#320,#340);
#360=EDGE_CURVE('',#110,#290,#350,.T.);
#370=ORIENTED_EDGE('',*,*,#360,.T.);
#380=EDGE_LOOP('',(#370,#310,#230,#150));
#390=FACE_OUTER_BOUND('',#380,.T.);
#400=CARTESIAN_POINT('',(1.10056007276288E-14,13.25,0.));
#410=DIRECTION('',(1.3010426069826E-16,0.,-1.));
#420=DIRECTION('',(1.,0.,1.3010426069826E-16));
#430=AXIS2_PLACEMENT_3D('',#400,#410,#420);
#440=CIRCLE('',#430,3.3);
#450=CARTESIAN_POINT('',(3.30000000000001,13.25,4.29344060304258E-16));
#460=VERTEX_POINT('',#450);
#470=CARTESIAN_POINT('',(-3.29999999999999,13.25,-4.29344060304258E-16))
;
#480=VERTEX_POINT('',#470);
#490=EDGE_CURVE('',#460,#480,#440,.T.);
#500=ORIENTED_EDGE('',*,*,#490,.F.);
#510=EDGE_CURVE('',#480,#460,#440,.T.);
#520=ORIENTED_EDGE('',*,*,#510,.F.);
#530=EDGE_LOOP('',(#520,#500));
#540=FACE_BOUND('',#530,.T.);
#550=CARTESIAN_POINT('',(1.10056007276288E-14,32.75,0.));
#560=DIRECTION('',(1.3010426069826E-16,0.,-1.));
#570=DIRECTION('',(1.,0.,1.3010426069826E-16));
#580=AXIS2_PLACEMENT_3D('',#550,#560,#570);
#590=CIRCLE('',#580,3.3);
#600=CARTESIAN_POINT('',(3.30000000000001,32.75,4.29344060304258E-16));
#610=VERTEX_POINT('',#600);
#620=CARTESIAN_POINT('',(-3.29999999999999,32.75,-4.29344060304258E-16))
;
#630=VERTEX_POINT('',#620);
#640=EDGE_CURVE('',#610,#630,#590,.T.);
#650=ORIENTED_EDGE('',*,*,#640,.F.);
#660=EDGE_CURVE('',#630,#610,#590,.T.);
#670=ORIENTED_EDGE('',*,*,#660,.F.);
#680=EDGE_LOOP('',(#670,#650));
#690=FACE_BOUND('',#680,.T.);
#700=ADVANCED_FACE('',(#390,#540,#690),#50,.T.);
#710=COLOUR_RGB('',0.823529481887817,0.823529481887817,0.784313797950745
);
#720=FILL_AREA_STYLE_COLOUR('',#710);
#730=FILL_AREA_STYLE('',(#720));
#740=SURFACE_STYLE_FILL_AREA(#730);
#750=SURFACE_SIDE_STYLE('',(#740));
#760=SURFACE_STYLE_USAGE(.BOTH.,#750);
#770=PRESENTATION_STYLE_ASSIGNMENT((#760));
#780=CARTESIAN_POINT('',(-7.5,94.,3.));
#790=DIRECTION('',(-1.,0.,-5.78241158658936E-16));
#800=DIRECTION('',(-5.78241158658936E-16,0.,1.));
#810=AXIS2_PLACEMENT_3D('',#780,#790,#800);
#820=PLANE('',#810);
#830=ORIENTED_EDGE('',*,*,#300,.T.);
#840=CARTESIAN_POINT('',(-7.5,41.75,0.));
#850=DIRECTION('',(5.78241158658936E-16,0.,-1.));
#860=VECTOR('',#850,1.);
#870=LINE('',#840,#860);
#880=CARTESIAN_POINT('',(-7.5,41.75,3.));
#890=VERTEX_POINT('',#880);
#900=EDGE_CURVE('',#890,#210,#870,.T.);
#910=ORIENTED_EDGE('',*,*,#900,.T.);
#920=CARTESIAN_POINT('',(-7.5,0.,3.));
#930=DIRECTION('',(0.,1.,0.));
#940=VECTOR('',#930,1.);
#950=LINE('',#920,#940);
#960=CARTESIAN_POINT('',(-7.5,4.25,3.));
#970=VERTEX_POINT('',#960);
#980=EDGE_CURVE('',#970,#890,#950,.T.);
#990=ORIENTED_EDGE('',*,*,#980,.T.);
#1000=CARTESIAN_POINT('',(-7.5,4.25,0.));
#1010=DIRECTION('',(5.78241158658936E-16,0.,-1.));
#1020=VECTOR('',#1010,1.);
#1030=LINE('',#1000,#1020);
#1040=EDGE_CURVE('',#970,#290,#1030,.T.);
#1050=ORIENTED_EDGE('',*,*,#1040,.F.);
#1060=EDGE_LOOP('',(#1050,#990,#910,#830));
#1070=FACE_OUTER_BOUND('',#1060,.T.);
#1080=ADVANCED_FACE('',(#1070),#820,.T.);
#1090=COLOUR_RGB('',0.823529481887817,0.823529481887817,
0.784313797950745);
#1100=FILL_AREA_STYLE_COLOUR('',#1090);
#1110=FILL_AREA_STYLE('',(#1100));
#1120=SURFACE_STYLE_FILL_AREA(#1110);
#1130=SURFACE_SIDE_STYLE('',(#1120));
#1140=SURFACE_STYLE_USAGE(.BOTH.,#1130);
#1150=PRESENTATION_STYLE_ASSIGNMENT((#1140));
#1160=CARTESIAN_POINT('',(-10.,4.25,3.));
#1170=DIRECTION('',(0.,1.,0.));
#1180=DIRECTION('',(0.,0.,1.));
#1190=AXIS2_PLACEMENT_3D('',#1160,#1170,#1180);
#1200=PLANE('',#1190);
#1210=CARTESIAN_POINT('',(0.,4.25,3.));
#1220=DIRECTION('',(1.,0.,1.30104260698261E-16));
#1230=VECTOR('',#1220,1.);
#1240=LINE('',#1210,#1230);
#1250=CARTESIAN_POINT('',(7.5,4.25,3.));
#1260=VERTEX_POINT('',#1250);
#1270=EDGE_CURVE('',#970,#1260,#1240,.T.);
#1280=ORIENTED_EDGE('',*,*,#1270,.F.);
#1290=CARTESIAN_POINT('',(7.5,4.25,0.));
#1300=DIRECTION('',(0.,0.,-1.));
#1310=VECTOR('',#1300,1.);
#1320=LINE('',#1290,#1310);
#1330=EDGE_CURVE('',#1260,#110,#1320,.T.);
#1340=ORIENTED_EDGE('',*,*,#1330,.F.);
#1350=ORIENTED_EDGE('',*,*,#360,.F.);
#1360=ORIENTED_EDGE('',*,*,#1040,.T.);
#1370=EDGE_LOOP('',(#1360,#1350,#1340,#1280));
#1380=FACE_OUTER_BOUND('',#1370,.T.);
#1390=ADVANCED_FACE('',(#1380),#1200,.F.);
#1400=COLOUR_RGB('',0.823529481887817,0.823529481887817,
0.784313797950745);
#1410=FILL_AREA_STYLE_COLOUR('',#1400);
#1420=FILL_AREA_STYLE('',(#1410));
#1430=SURFACE_STYLE_FILL_AREA(#1420);
#1440=SURFACE_SIDE_STYLE('',(#1430));
#1450=SURFACE_STYLE_USAGE(.BOTH.,#1440);
#1460=PRESENTATION_STYLE_ASSIGNMENT((#1450));
#1470=CARTESIAN_POINT('',(7.5,94.,0.));
#1480=DIRECTION('',(1.,-0.,0.));
#1490=DIRECTION('',(0.,0.,-1.));
#1500=AXIS2_PLACEMENT_3D('',#1470,#1480,#1490);
#1510=PLANE('',#1500);
#1520=CARTESIAN_POINT('',(7.5,0.,3.));
#1530=DIRECTION('',(0.,1.,0.));
#1540=VECTOR('',#1530,1.);
#1550=LINE('',#1520,#1540);
#1560=CARTESIAN_POINT('',(7.5,41.75,3.));
#1570=VERTEX_POINT('',#1560);
#1580=EDGE_CURVE('',#1260,#1570,#1550,.T.);
#1590=ORIENTED_EDGE('',*,*,#1580,.F.);
#1600=CARTESIAN_POINT('',(7.5,41.75,0.));
#1610=DIRECTION('',(0.,0.,-1.));
#1620=VECTOR('',#1610,1.);
#1630=LINE('',#1600,#1620);
#1640=EDGE_CURVE('',#1570,#130,#1630,.T.);
#1650=ORIENTED_EDGE('',*,*,#1640,.F.);
#1660=ORIENTED_EDGE('',*,*,#140,.T.);
#1670=ORIENTED_EDGE('',*,*,#1330,.T.);
#1680=EDGE_LOOP('',(#1670,#1660,#1650,#1590));
#1690=FACE_OUTER_BOUND('',#1680,.T.);
#1700=ADVANCED_FACE('',(#1690),#1510,.T.);
#1710=COLOUR_RGB('',0.823529481887817,0.823529481887817,
0.784313797950745);
#1720=FILL_AREA_STYLE_COLOUR('',#1710);
#1730=FILL_AREA_STYLE('',(#1720));
#1740=SURFACE_STYLE_FILL_AREA(#1730);
#1750=SURFACE_SIDE_STYLE('',(#1740));
#1760=SURFACE_STYLE_USAGE(.BOTH.,#1750);
#1770=PRESENTATION_STYLE_ASSIGNMENT((#1760));
#1780=CARTESIAN_POINT('',(10.,94.,3.));
#1790=DIRECTION('',(-1.30104260698261E-16,0.,1.));
#1800=DIRECTION('',(1.,0.,1.30104260698261E-16));
#1810=AXIS2_PLACEMENT_3D('',#1780,#1790,#1800);
#1820=PLANE('',#1810);
#1830=ORIENTED_EDGE('',*,*,#980,.F.);
#1840=CARTESIAN_POINT('',(0.,41.75,3.));
#1850=DIRECTION('',(1.,0.,1.30104260698261E-16));
#1860=VECTOR('',#1850,1.);
#1870=LINE('',#1840,#1860);
#1880=EDGE_CURVE('',#890,#1570,#1870,.T.);
#1890=ORIENTED_EDGE('',*,*,#1880,.F.);
#1900=ORIENTED_EDGE('',*,*,#1580,.T.);
#1910=ORIENTED_EDGE('',*,*,#1270,.T.);
#1920=EDGE_LOOP('',(#1910,#1900,#1890,#1830));
#1930=FACE_OUTER_BOUND('',#1920,.T.);
#1940=CARTESIAN_POINT('',(1.0615287945534E-14,13.25,3.));
#1950=DIRECTION('',(1.3010426069826E-16,0.,-1.));
#1960=DIRECTION('',(1.,0.,1.3010426069826E-16));
#1970=AXIS2_PLACEMENT_3D('',#1940,#1950,#1960);
#1980=CIRCLE('',#1970,3.3);
#1990=CARTESIAN_POINT('',(3.30000000000001,13.25,3.));
#2000=VERTEX_POINT('',#1990);
#2010=CARTESIAN_POINT('',(-3.29999999999999,13.25,3.));
#2020=VERTEX_POINT('',#2010);
#2030=EDGE_CURVE('',#2000,#2020,#1980,.T.);
#2040=ORIENTED_EDGE('',*,*,#2030,.T.);
#2050=EDGE_CURVE('',#2020,#2000,#1980,.T.);
#2060=ORIENTED_EDGE('',*,*,#2050,.T.);
#2070=EDGE_LOOP('',(#2060,#2040));
#2080=FACE_BOUND('',#2070,.T.);
#2090=CARTESIAN_POINT('',(1.0615287945534E-14,32.75,3.));
#2100=DIRECTION('',(1.3010426069826E-16,0.,-1.));
#2110=DIRECTION('',(1.,0.,1.3010426069826E-16));
#2120=AXIS2_PLACEMENT_3D('',#2090,#2100,#2110);
#2130=CIRCLE('',#2120,3.3);
#2140=CARTESIAN_POINT('',(3.30000000000001,32.75,3.));
#2150=VERTEX_POINT('',#2140);
#2160=CARTESIAN_POINT('',(-3.29999999999999,32.75,3.));
#2170=VERTEX_POINT('',#2160);
#2180=EDGE_CURVE('',#2150,#2170,#2130,.T.);
#2190=ORIENTED_EDGE('',*,*,#2180,.T.);
#2200=EDGE_CURVE('',#2170,#2150,#2130,.T.);
#2210=ORIENTED_EDGE('',*,*,#2200,.T.);
#2220=EDGE_LOOP('',(#2210,#2190));
#2230=FACE_BOUND('',#2220,.T.);
#2240=ADVANCED_FACE('',(#1930,#2080,#2230),#1820,.T.);
#2250=COLOUR_RGB('',0.823529481887817,0.823529481887817,
0.784313797950745);
#2260=FILL_AREA_STYLE_COLOUR('',#2250);
#2270=FILL_AREA_STYLE('',(#2260));
#2280=SURFACE_STYLE_FILL_AREA(#2270);
#2290=SURFACE_SIDE_STYLE('',(#2280));
#2300=SURFACE_STYLE_USAGE(.BOTH.,#2290);
#2310=PRESENTATION_STYLE_ASSIGNMENT((#2300));
#2320=CARTESIAN_POINT('',(1.10056007276288E-14,13.25,
-1.30104260698261E-15));
#2330=DIRECTION('',(1.3010426069826E-16,0.,-1.));
#2340=DIRECTION('',(1.,0.,1.3010426069826E-16));
#2350=AXIS2_PLACEMENT_3D('',#2320,#2330,#2340);
#2360=CYLINDRICAL_SURFACE('',#2350,3.3);
#2370=CARTESIAN_POINT('',(-3.29999999999999,13.25,-1.73038666728687E-15)
);
#2380=DIRECTION('',(1.3010426069826E-16,0.,-1.));
#2390=VECTOR('',#2380,1.);
#2400=LINE('',#2370,#2390);
#2410=EDGE_CURVE('',#2020,#480,#2400,.T.);
#2420=ORIENTED_EDGE('',*,*,#2410,.T.);
#2430=ORIENTED_EDGE('',*,*,#2050,.F.);
#2440=CARTESIAN_POINT('',(3.30000000000001,13.25,-8.71698546678352E-16))
;
#2450=DIRECTION('',(1.3010426069826E-16,0.,-1.));
#2460=VECTOR('',#2450,1.);
#2470=LINE('',#2440,#2460);
#2480=EDGE_CURVE('',#2000,#460,#2470,.T.);
#2490=ORIENTED_EDGE('',*,*,#2480,.F.);
#2500=ORIENTED_EDGE('',*,*,#510,.T.);
#2510=EDGE_LOOP('',(#2500,#2490,#2430,#2420));
#2520=FACE_OUTER_BOUND('',#2510,.T.);
#2530=ADVANCED_FACE('',(#2520),#2360,.F.);
#2540=COLOUR_RGB('',0.823529481887817,0.823529481887817,
0.784313797950745);
#2550=FILL_AREA_STYLE_COLOUR('',#2540);
#2560=FILL_AREA_STYLE('',(#2550));
#2570=SURFACE_STYLE_FILL_AREA(#2560);
#2580=SURFACE_SIDE_STYLE('',(#2570));
#2590=SURFACE_STYLE_USAGE(.BOTH.,#2580);
#2600=PRESENTATION_STYLE_ASSIGNMENT((#2590));
#2610=CARTESIAN_POINT('',(1.10056007276288E-14,32.75,
-1.30104260698261E-15));
#2620=DIRECTION('',(1.3010426069826E-16,0.,-1.));
#2630=DIRECTION('',(1.,0.,1.3010426069826E-16));
#2640=AXIS2_PLACEMENT_3D('',#2610,#2620,#2630);
#2650=CYLINDRICAL_SURFACE('',#2640,3.3);
#2660=CARTESIAN_POINT('',(-3.29999999999999,32.75,-1.73038666728687E-15)
);
#2670=DIRECTION('',(1.3010426069826E-16,0.,-1.));
#2680=VECTOR('',#2670,1.);
#2690=LINE('',#2660,#2680);
#2700=EDGE_CURVE('',#2170,#630,#2690,.T.);
#2710=ORIENTED_EDGE('',*,*,#2700,.T.);
#2720=ORIENTED_EDGE('',*,*,#2200,.F.);
#2730=CARTESIAN_POINT('',(3.30000000000001,32.75,-8.71698546678352E-16))
;
#2740=DIRECTION('',(1.3010426069826E-16,0.,-1.));
#2750=VECTOR('',#2740,1.);
#2760=LINE('',#2730,#2750);
#2770=EDGE_CURVE('',#2150,#610,#2760,.T.);
#2780=ORIENTED_EDGE('',*,*,#2770,.F.);
#2790=ORIENTED_EDGE('',*,*,#660,.T.);
#2800=EDGE_LOOP('',(#2790,#2780,#2720,#2710));
#2810=FACE_OUTER_BOUND('',#2800,.T.);
#2820=ADVANCED_FACE('',(#2810),#2650,.F.);
#2830=COLOUR_RGB('',0.823529481887817,0.823529481887817,
0.784313797950745);
#2840=FILL_AREA_STYLE_COLOUR('',#2830);
#2850=FILL_AREA_STYLE('',(#2840));
#2860=SURFACE_STYLE_FILL_AREA(#2850);
#2870=SURFACE_SIDE_STYLE('',(#2860));
#2880=SURFACE_STYLE_USAGE(.BOTH.,#2870);
#2890=PRESENTATION_STYLE_ASSIGNMENT((#2880));
#2900=CARTESIAN_POINT('',(-18.901153,41.75,-0.302400000000002));
#2910=DIRECTION('',(-0.,1.,0.));
#2920=DIRECTION('',(1.,0.,0.));
#2930=AXIS2_PLACEMENT_3D('',#2900,#2910,#2920);
#2940=PLANE('',#2930);
#2950=ORIENTED_EDGE('',*,*,#1640,.T.);
#2960=ORIENTED_EDGE('',*,*,#1880,.T.);
#2970=ORIENTED_EDGE('',*,*,#900,.F.);
#2980=ORIENTED_EDGE('',*,*,#220,.T.);
#2990=EDGE_LOOP('',(#2980,#2970,#2960,#2950));
#3000=FACE_OUTER_BOUND('',#2990,.T.);
#3010=ADVANCED_FACE('',(#3000),#2940,.T.);
#3020=COLOUR_RGB('',0.823529481887817,0.823529481887817,
0.784313797950745);
#3030=FILL_AREA_STYLE_COLOUR('',#3020);
#3040=FILL_AREA_STYLE('',(#3030));
#3050=SURFACE_STYLE_FILL_AREA(#3040);
#3060=SURFACE_SIDE_STYLE('',(#3050));
#3070=SURFACE_STYLE_USAGE(.BOTH.,#3060);
#3080=PRESENTATION_STYLE_ASSIGNMENT((#3070));
#3090=CARTESIAN_POINT('',(1.10056007276288E-14,32.75,
-1.30104260698261E-15));
#3100=DIRECTION('',(1.3010426069826E-16,0.,-1.));
#3110=DIRECTION('',(1.,0.,1.3010426069826E-16));
#3120=AXIS2_PLACEMENT_3D('',#3090,#3100,#3110);
#3130=CYLINDRICAL_SURFACE('',#3120,3.3);
#3140=ORIENTED_EDGE('',*,*,#2180,.F.);
#3150=ORIENTED_EDGE('',*,*,#2700,.F.);
#3160=ORIENTED_EDGE('',*,*,#640,.T.);
#3170=ORIENTED_EDGE('',*,*,#2770,.T.);
#3180=EDGE_LOOP('',(#3170,#3160,#3150,#3140));
#3190=FACE_OUTER_BOUND('',#3180,.T.);
#3200=ADVANCED_FACE('',(#3190),#3130,.F.);
#3210=COLOUR_RGB('',0.823529481887817,0.823529481887817,
0.784313797950745);
#3220=FILL_AREA_STYLE_COLOUR('',#3210);
#3230=FILL_AREA_STYLE('',(#3220));
#3240=SURFACE_STYLE_FILL_AREA(#3230);
#3250=SURFACE_SIDE_STYLE('',(#3240));
#3260=SURFACE_STYLE_USAGE(.BOTH.,#3250);
#3270=PRESENTATION_STYLE_ASSIGNMENT((#3260));
#3280=CARTESIAN_POINT('',(1.10056007276288E-14,13.25,
-1.30104260698261E-15));
#3290=DIRECTION('',(1.3010426069826E-16,0.,-1.));
#3300=DIRECTION('',(1.,0.,1.3010426069826E-16));
#3310=AXIS2_PLACEMENT_3D('',#3280,#3290,#3300);
#3320=CYLINDRICAL_SURFACE('',#3310,3.3);
#3330=ORIENTED_EDGE('',*,*,#2030,.F.);
#3340=ORIENTED_EDGE('',*,*,#2410,.F.);
#3350=ORIENTED_EDGE('',*,*,#490,.T.);
#3360=ORIENTED_EDGE('',*,*,#2480,.T.);
#3370=EDGE_LOOP('',(#3360,#3350,#3340,#3330));
#3380=FACE_OUTER_BOUND('',#3370,.T.);
#3390=ADVANCED_FACE('',(#3380),#3320,.F.);
#3400=COLOUR_RGB('',0.823529481887817,0.823529481887817,
0.784313797950745);
#3410=FILL_AREA_STYLE_COLOUR('',#3400);
#3420=FILL_AREA_STYLE('',(#3410));
#3430=SURFACE_STYLE_FILL_AREA(#3420);
#3440=SURFACE_SIDE_STYLE('',(#3430));
#3450=SURFACE_STYLE_USAGE(.BOTH.,#3440);
#3460=PRESENTATION_STYLE_ASSIGNMENT((#3450));
#3470=CLOSED_SHELL('',(#700,#1080,#1390,#1700,#2240,#2530,#2820,#3010,
#3200,#3390));
#3480=MANIFOLD_SOLID_BREP('',#3470);
#3490=CARTESIAN_POINT('',(0.,0.,0.));
#3500=DIRECTION('',(0.,0.,1.));
#3510=DIRECTION('',(1.,0.,0.));
#3520=AXIS2_PLACEMENT_3D('',#3490,#3500,#3510);
#3530=APPLICATION_CONTEXT(' ');
#3540=APPLICATION_PROTOCOL_DEFINITION(' ','automotive_design',10000,
#3530);
#3550=PRODUCT_CONTEXT('',#3530,'mechanical');
#3560=PRODUCT_DEFINITION_CONTEXT('part definition',#3530,'design');
#3570=PRODUCT('HV-M6-VS_2-select','HV-M6-VS_2-select','PART-1-DESC',(
#3550));
#3580=PRODUCT_RELATED_PRODUCT_CATEGORY('part',' ',(#3570));
#3590=PRODUCT_DEFINITION_FORMATION_WITH_SPECIFIED_SOURCE(' ','NONE',
#3570,.BOUGHT.);
#3600=PRODUCT_DEFINITION('',' ',#3590,#3560);
#3610=PRODUCT_DEFINITION_SHAPE('','NONE',#3600);
#3620=DIMENSIONAL_EXPONENTS(1.,0.,0.,0.,0.,0.,0.);
#3630=DIMENSIONAL_EXPONENTS(0.,0.,0.,0.,0.,0.,0.);
#3640=DIMENSIONAL_EXPONENTS(0.,0.,0.,0.,0.,0.,0.);
#3650=(LENGTH_UNIT() NAMED_UNIT(*) SI_UNIT(.MILLI.,.METRE.));
#3660=(NAMED_UNIT(*) PLANE_ANGLE_UNIT() SI_UNIT($,.RADIAN.));
#3670=(NAMED_UNIT(*) SI_UNIT($,.STERADIAN.) SOLID_ANGLE_UNIT());
#3680=(GEOMETRIC_REPRESENTATION_CONTEXT(3) 
GLOBAL_UNCERTAINTY_ASSIGNED_CONTEXT((#3690)) 
GLOBAL_UNIT_ASSIGNED_CONTEXT((#3650,#3660,#3670)) REPRESENTATION_CONTEXT
('',''));
#3690=UNCERTAINTY_MEASURE_WITH_UNIT(LENGTH_MEASURE(0.001),#3650,
'distance_accuracy_value','maximum gap value');
#3700=ADVANCED_BREP_SHAPE_REPRESENTATION('',(#3520,#3480),#3680);
#3710=SHAPE_DEFINITION_REPRESENTATION(#3610,#3700);
#3720=COLOUR_RGB('',0.823529481887817,0.823529481887817,
0.784313797950745);
#3730=FILL_AREA_STYLE_COLOUR('',#3720);
#3740=FILL_AREA_STYLE('',(#3730));
#3750=SURFACE_STYLE_FILL_AREA(#3740);
#3760=SURFACE_SIDE_STYLE('',(#3750));
#3770=SURFACE_STYLE_USAGE(.BOTH.,#3760);
#3780=PRESENTATION_STYLE_ASSIGNMENT((#3770));
#3790=STYLED_ITEM('',(#3780),#3480);
#3800=OVER_RIDING_STYLED_ITEM('',(#770),#700,#3790);
#3810=OVER_RIDING_STYLED_ITEM('',(#1150),#1080,#3790);
#3820=OVER_RIDING_STYLED_ITEM('',(#1460),#1390,#3790);
#3830=OVER_RIDING_STYLED_ITEM('',(#1770),#1700,#3790);
#3840=OVER_RIDING_STYLED_ITEM('',(#2310),#2240,#3790);
#3850=OVER_RIDING_STYLED_ITEM('',(#2600),#2530,#3790);
#3860=OVER_RIDING_STYLED_ITEM('',(#2890),#2820,#3790);
#3870=OVER_RIDING_STYLED_ITEM('',(#3080),#3010,#3790);
#3880=OVER_RIDING_STYLED_ITEM('',(#3270),#3200,#3790);
#3890=OVER_RIDING_STYLED_ITEM('',(#3460),#3390,#3790);
#3900=DRAUGHTING_MODEL('',(#3790,#3800,#3810,#3820,#3830,#3840,#3850,
#3860,#3870,#3880,#3890),#3680);
#3910=CARTESIAN_POINT('',(-4.25,7.5,0.));
#3920=DIRECTION('',(0.,0.,1.));
#3930=DIRECTION('',(0.,-1.,0.));
#3940=AXIS2_PLACEMENT_3D('',#3910,#3920,#3930);
#3950=ITEM_DEFINED_TRANSFORMATION('HV-M6-VS_2-select','',#3520,#3940);
#3960=APPLICATION_CONTEXT(' ');
#3970=APPLICATION_PROTOCOL_DEFINITION(' ','automotive_design',10000,
#3960);
#3980=PRODUCT_CONTEXT('',#3960,'mechanical');
#3990=PRODUCT_DEFINITION_CONTEXT('part definition',#3960,'design');
#4000=PRODUCT('HV-M6-VS_2-select','HV-M6-VS_2-select','PART-1-DESC',(
#3980));
#4010=PRODUCT_RELATED_PRODUCT_CATEGORY('part',' ',(#4000));
#4020=PRODUCT_DEFINITION_FORMATION_WITH_SPECIFIED_SOURCE(' ','NONE',
#4000,.BOUGHT.);
#4030=PRODUCT_DEFINITION('',' ',#4020,#3990);
#4040=PRODUCT_DEFINITION_SHAPE('','NONE',#4030);
#4050=DIMENSIONAL_EXPONENTS(1.,0.,0.,0.,0.,0.,0.);
#4060=DIMENSIONAL_EXPONENTS(0.,0.,0.,0.,0.,0.,0.);
#4070=DIMENSIONAL_EXPONENTS(0.,0.,0.,0.,0.,0.,0.);
#4080=(LENGTH_UNIT() NAMED_UNIT(*) SI_UNIT(.MILLI.,.METRE.));
#4090=(NAMED_UNIT(*) PLANE_ANGLE_UNIT() SI_UNIT($,.RADIAN.));
#4100=(NAMED_UNIT(*) SI_UNIT($,.STERADIAN.) SOLID_ANGLE_UNIT());
#4110=(GEOMETRIC_REPRESENTATION_CONTEXT(3) 
GLOBAL_UNCERTAINTY_ASSIGNED_CONTEXT((#4120)) 
GLOBAL_UNIT_ASSIGNED_CONTEXT((#4080,#4090,#4100)) REPRESENTATION_CONTEXT
('',''));
#4120=UNCERTAINTY_MEASURE_WITH_UNIT(LENGTH_MEASURE(0.001),#4080,
'distance_accuracy_value','maximum gap value');
#4130=SHAPE_REPRESENTATION('',(#3520,#3940),#4110);
#4140=SHAPE_DEFINITION_REPRESENTATION(#4040,#4130);
#4150=(REPRESENTATION_RELATIONSHIP('','',#3700,#4130) 
REPRESENTATION_RELATIONSHIP_WITH_TRANSFORMATION(#3950) 
SHAPE_REPRESENTATION_RELATIONSHIP());
#4160=NEXT_ASSEMBLY_USAGE_OCCURRENCE('1','','HV-M6-VS_2-select',#4030,
#3600,'');
#4170=PRODUCT_DEFINITION_SHAPE('','',#4160);
#4180=CONTEXT_DEPENDENT_SHAPE_REPRESENTATION(#4150,#4170);
ENDSEC;
END-ISO-10303-21;
