ISO-10303-21;
HEADER;
FILE_DESCRIPTION(('Creo Elements/Direct Modeling STEP Export'),'2;1');
FILE_NAME(
'D:/temp/JobSpoolerServerData/JobServer Files/d285a8b3-4a38-457b-8450-f5
75f84ab51b/work/output/model.stp','2018-01-19T 0:36:08',(''),(''),
'Creo Elements/Direct Modeling STEP processor for AP214 (Solid Model)',
'Creo Elements/Direct Modeling 18.1I  14-Aug-2016 (C) Parametric Technol
ogy GmbH','');
FILE_SCHEMA(('AUTOMOTIVE_DESIGN { 1 0 10303 214 1 1 1 1 }'));
ENDSEC;
DATA;
#10=CARTESIAN_POINT('',(0.,0.,0.));
#20=DIRECTION('',(0.,0.,1.));
#30=DIRECTION('',(1.,0.,0.));
#40=AXIS2_PLACEMENT_3D('',#10,#20,#30);
#50=PLANE('',#40);
#60=CARTESIAN_POINT('',(39.25,0.,0.));
#70=DIRECTION('',(0.,1.,0.));
#80=VECTOR('',#70,1.);
#90=LINE('',#60,#80);
#100=CARTESIAN_POINT('',(39.25,5.,0.));
#110=VERTEX_POINT('',#100);
#120=CARTESIAN_POINT('',(39.25,5.8,0.));
#130=VERTEX_POINT('',#120);
#140=EDGE_CURVE('',#110,#130,#90,.T.);
#150=ORIENTED_EDGE('',*,*,#140,.T.);
#160=CARTESIAN_POINT('',(0.,5.,0.));
#170=DIRECTION('',(1.,0.,0.));
#180=VECTOR('',#170,1.);
#190=LINE('',#160,#180);
#200=CARTESIAN_POINT('',(21.75,5.,0.));
#210=VERTEX_POINT('',#200);
#220=EDGE_CURVE('',#210,#110,#190,.T.);
#230=ORIENTED_EDGE('',*,*,#220,.T.);
#240=CARTESIAN_POINT('',(21.75,0.,0.));
#250=DIRECTION('',(0.,1.,0.));
#260=VECTOR('',#250,1.);
#270=LINE('',#240,#260);
#280=CARTESIAN_POINT('',(21.75,5.8,0.));
#290=VERTEX_POINT('',#280);
#300=EDGE_CURVE('',#210,#290,#270,.T.);
#310=ORIENTED_EDGE('',*,*,#300,.F.);
#320=CARTESIAN_POINT('',(61.,5.8,0.));
#330=DIRECTION('',(-1.,0.,0.));
#340=VECTOR('',#330,1.);
#350=LINE('',#320,#340);
#360=CARTESIAN_POINT('',(0.,5.8,0.));
#370=VERTEX_POINT('',#360);
#380=EDGE_CURVE('',#290,#370,#350,.T.);
#390=ORIENTED_EDGE('',*,*,#380,.F.);
#400=CARTESIAN_POINT('',(0.,5.8,0.));
#410=DIRECTION('',(0.,1.,0.));
#420=VECTOR('',#410,1.);
#430=LINE('',#400,#420);
#440=CARTESIAN_POINT('',(0.,62.8,0.));
#450=VERTEX_POINT('',#440);
#460=EDGE_CURVE('',#370,#450,#430,.T.);
#470=ORIENTED_EDGE('',*,*,#460,.F.);
#480=CARTESIAN_POINT('',(0.,62.8,0.));
#490=DIRECTION('',(1.,0.,0.));
#500=VECTOR('',#490,1.);
#510=LINE('',#480,#500);
#520=CARTESIAN_POINT('',(61.,62.8,0.));
#530=VERTEX_POINT('',#520);
#540=EDGE_CURVE('',#450,#530,#510,.T.);
#550=ORIENTED_EDGE('',*,*,#540,.F.);
#560=CARTESIAN_POINT('',(61.,62.8,0.));
#570=DIRECTION('',(0.,-1.,0.));
#580=VECTOR('',#570,1.);
#590=LINE('',#560,#580);
#600=CARTESIAN_POINT('',(61.,5.8,0.));
#610=VERTEX_POINT('',#600);
#620=EDGE_CURVE('',#530,#610,#590,.T.);
#630=ORIENTED_EDGE('',*,*,#620,.F.);
#640=EDGE_CURVE('',#610,#130,#350,.T.);
#650=ORIENTED_EDGE('',*,*,#640,.F.);
#660=EDGE_LOOP('',(#650,#630,#550,#470,#390,#310,#230,#150));
#670=FACE_OUTER_BOUND('',#660,.T.);
#680=ADVANCED_FACE('',(#670),#50,.T.);
#690=COLOUR_RGB('',0.560784339904785,0.588235318660736,0.600000023841858
);
#700=FILL_AREA_STYLE_COLOUR('',#690);
#710=FILL_AREA_STYLE('',(#700));
#720=SURFACE_STYLE_FILL_AREA(#710);
#730=SURFACE_SIDE_STYLE('',(#720));
#740=SURFACE_STYLE_USAGE(.BOTH.,#730);
#750=PRESENTATION_STYLE_ASSIGNMENT((#740));
#760=CARTESIAN_POINT('',(39.25,34.3,-0.399999999999999));
#770=DIRECTION('',(-1.,0.,0.));
#780=DIRECTION('',(0.,0.,1.));
#790=AXIS2_PLACEMENT_3D('',#760,#770,#780);
#800=PLANE('',#790);
#810=CARTESIAN_POINT('',(39.25,5.8,0.));
#820=DIRECTION('',(0.,0.,1.));
#830=VECTOR('',#820,1.);
#840=LINE('',#810,#830);
#850=CARTESIAN_POINT('',(39.25,5.8,-0.8));
#860=VERTEX_POINT('',#850);
#870=EDGE_CURVE('',#860,#130,#840,.T.);
#880=ORIENTED_EDGE('',*,*,#870,.T.);
#890=CARTESIAN_POINT('',(39.25,0.,-0.8));
#900=DIRECTION('',(0.,1.,0.));
#910=VECTOR('',#900,1.);
#920=LINE('',#890,#910);
#930=CARTESIAN_POINT('',(39.25,5.,-0.8));
#940=VERTEX_POINT('',#930);
#950=EDGE_CURVE('',#940,#860,#920,.T.);
#960=ORIENTED_EDGE('',*,*,#950,.T.);
#970=CARTESIAN_POINT('',(39.25,5.,0.));
#980=DIRECTION('',(0.,0.,-1.));
#990=VECTOR('',#980,1.);
#1000=LINE('',#970,#990);
#1010=EDGE_CURVE('',#110,#940,#1000,.T.);
#1020=ORIENTED_EDGE('',*,*,#1010,.T.);
#1030=ORIENTED_EDGE('',*,*,#140,.F.);
#1040=EDGE_LOOP('',(#1030,#1020,#960,#880));
#1050=FACE_OUTER_BOUND('',#1040,.T.);
#1060=ADVANCED_FACE('',(#1050),#800,.F.);
#1070=COLOUR_RGB('',0.560784339904785,0.588235318660736,
0.600000023841858);
#1080=FILL_AREA_STYLE_COLOUR('',#1070);
#1090=FILL_AREA_STYLE('',(#1080));
#1100=SURFACE_STYLE_FILL_AREA(#1090);
#1110=SURFACE_SIDE_STYLE('',(#1100));
#1120=SURFACE_STYLE_USAGE(.BOTH.,#1110);
#1130=PRESENTATION_STYLE_ASSIGNMENT((#1120));
#1140=CARTESIAN_POINT('',(21.75,34.3,-0.399999999999999));
#1150=DIRECTION('',(-1.,0.,0.));
#1160=DIRECTION('',(0.,0.,1.));
#1170=AXIS2_PLACEMENT_3D('',#1140,#1150,#1160);
#1180=PLANE('',#1170);
#1190=ORIENTED_EDGE('',*,*,#300,.T.);
#1200=CARTESIAN_POINT('',(21.75,5.,0.));
#1210=DIRECTION('',(0.,0.,-1.));
#1220=VECTOR('',#1210,1.);
#1230=LINE('',#1200,#1220);
#1240=CARTESIAN_POINT('',(21.75,5.,-0.8));
#1250=VERTEX_POINT('',#1240);
#1260=EDGE_CURVE('',#210,#1250,#1230,.T.);
#1270=ORIENTED_EDGE('',*,*,#1260,.F.);
#1280=CARTESIAN_POINT('',(21.75,0.,-0.8));
#1290=DIRECTION('',(0.,1.,0.));
#1300=VECTOR('',#1290,1.);
#1310=LINE('',#1280,#1300);
#1320=CARTESIAN_POINT('',(21.75,5.8,-0.8));
#1330=VERTEX_POINT('',#1320);
#1340=EDGE_CURVE('',#1250,#1330,#1310,.T.);
#1350=ORIENTED_EDGE('',*,*,#1340,.F.);
#1360=CARTESIAN_POINT('',(21.75,5.8,0.));
#1370=DIRECTION('',(0.,0.,1.));
#1380=VECTOR('',#1370,1.);
#1390=LINE('',#1360,#1380);
#1400=EDGE_CURVE('',#1330,#290,#1390,.T.);
#1410=ORIENTED_EDGE('',*,*,#1400,.F.);
#1420=EDGE_LOOP('',(#1410,#1350,#1270,#1190));
#1430=FACE_OUTER_BOUND('',#1420,.T.);
#1440=ADVANCED_FACE('',(#1430),#1180,.T.);
#1450=COLOUR_RGB('',0.560784339904785,0.588235318660736,
0.600000023841858);
#1460=FILL_AREA_STYLE_COLOUR('',#1450);
#1470=FILL_AREA_STYLE('',(#1460));
#1480=SURFACE_STYLE_FILL_AREA(#1470);
#1490=SURFACE_SIDE_STYLE('',(#1480));
#1500=SURFACE_STYLE_USAGE(.BOTH.,#1490);
#1510=PRESENTATION_STYLE_ASSIGNMENT((#1500));
#1520=CARTESIAN_POINT('',(21.75,5.,0.));
#1530=DIRECTION('',(0.,1.,0.));
#1540=DIRECTION('',(0.,0.,1.));
#1550=AXIS2_PLACEMENT_3D('',#1520,#1530,#1540);
#1560=PLANE('',#1550);
#1570=ORIENTED_EDGE('',*,*,#1010,.F.);
#1580=CARTESIAN_POINT('',(0.,5.,-0.8));
#1590=DIRECTION('',(1.,0.,0.));
#1600=VECTOR('',#1590,1.);
#1610=LINE('',#1580,#1600);
#1620=EDGE_CURVE('',#1250,#940,#1610,.T.);
#1630=ORIENTED_EDGE('',*,*,#1620,.T.);
#1640=ORIENTED_EDGE('',*,*,#1260,.T.);
#1650=ORIENTED_EDGE('',*,*,#220,.F.);
#1660=EDGE_LOOP('',(#1650,#1640,#1630,#1570));
#1670=FACE_OUTER_BOUND('',#1660,.T.);
#1680=ADVANCED_FACE('',(#1670),#1560,.F.);
#1690=COLOUR_RGB('',0.560784339904785,0.588235318660736,
0.600000023841858);
#1700=FILL_AREA_STYLE_COLOUR('',#1690);
#1710=FILL_AREA_STYLE('',(#1700));
#1720=SURFACE_STYLE_FILL_AREA(#1710);
#1730=SURFACE_SIDE_STYLE('',(#1720));
#1740=SURFACE_STYLE_USAGE(.BOTH.,#1730);
#1750=PRESENTATION_STYLE_ASSIGNMENT((#1740));
#1760=CARTESIAN_POINT('',(0.,0.,-0.8));
#1770=DIRECTION('',(0.,0.,1.));
#1780=DIRECTION('',(1.,0.,0.));
#1790=AXIS2_PLACEMENT_3D('',#1760,#1770,#1780);
#1800=PLANE('',#1790);
#1810=ORIENTED_EDGE('',*,*,#1340,.T.);
#1820=ORIENTED_EDGE('',*,*,#1620,.F.);
#1830=ORIENTED_EDGE('',*,*,#950,.F.);
#1840=CARTESIAN_POINT('',(21.75,5.8,-0.8));
#1850=DIRECTION('',(-1.,0.,0.));
#1860=VECTOR('',#1850,1.);
#1870=LINE('',#1840,#1860);
#1880=CARTESIAN_POINT('',(61.,5.8,-0.8));
#1890=VERTEX_POINT('',#1880);
#1900=EDGE_CURVE('',#1890,#860,#1870,.T.);
#1910=ORIENTED_EDGE('',*,*,#1900,.T.);
#1920=CARTESIAN_POINT('',(61.,62.8,-0.8));
#1930=DIRECTION('',(0.,-1.,0.));
#1940=VECTOR('',#1930,1.);
#1950=LINE('',#1920,#1940);
#1960=CARTESIAN_POINT('',(61.,62.8,-0.8));
#1970=VERTEX_POINT('',#1960);
#1980=EDGE_CURVE('',#1970,#1890,#1950,.T.);
#1990=ORIENTED_EDGE('',*,*,#1980,.T.);
#2000=CARTESIAN_POINT('',(0.,62.8,-0.8));
#2010=DIRECTION('',(1.,0.,0.));
#2020=VECTOR('',#2010,1.);
#2030=LINE('',#2000,#2020);
#2040=CARTESIAN_POINT('',(0.,62.8,-0.8));
#2050=VERTEX_POINT('',#2040);
#2060=EDGE_CURVE('',#2050,#1970,#2030,.T.);
#2070=ORIENTED_EDGE('',*,*,#2060,.T.);
#2080=CARTESIAN_POINT('',(0.,5.8,-0.8));
#2090=DIRECTION('',(0.,1.,0.));
#2100=VECTOR('',#2090,1.);
#2110=LINE('',#2080,#2100);
#2120=CARTESIAN_POINT('',(0.,5.8,-0.8));
#2130=VERTEX_POINT('',#2120);
#2140=EDGE_CURVE('',#2130,#2050,#2110,.T.);
#2150=ORIENTED_EDGE('',*,*,#2140,.T.);
#2160=EDGE_CURVE('',#1330,#2130,#1870,.T.);
#2170=ORIENTED_EDGE('',*,*,#2160,.T.);
#2180=EDGE_LOOP('',(#2170,#2150,#2070,#1990,#1910,#1830,#1820,#1810));
#2190=FACE_OUTER_BOUND('',#2180,.T.);
#2200=ADVANCED_FACE('',(#2190),#1800,.F.);
#2210=COLOUR_RGB('',0.560784339904785,0.588235318660736,
0.600000023841858);
#2220=FILL_AREA_STYLE_COLOUR('',#2210);
#2230=FILL_AREA_STYLE('',(#2220));
#2240=SURFACE_STYLE_FILL_AREA(#2230);
#2250=SURFACE_SIDE_STYLE('',(#2240));
#2260=SURFACE_STYLE_USAGE(.BOTH.,#2250);
#2270=PRESENTATION_STYLE_ASSIGNMENT((#2260));
#2280=CARTESIAN_POINT('',(21.75,5.8,0.));
#2290=DIRECTION('',(-0.,1.,0.));
#2300=DIRECTION('',(1.,0.,0.));
#2310=AXIS2_PLACEMENT_3D('',#2280,#2290,#2300);
#2320=PLANE('',#2310);
#2330=ORIENTED_EDGE('',*,*,#640,.T.);
#2340=CARTESIAN_POINT('',(61.,5.8,0.));
#2350=DIRECTION('',(0.,0.,1.));
#2360=VECTOR('',#2350,1.);
#2370=LINE('',#2340,#2360);
#2380=EDGE_CURVE('',#1890,#610,#2370,.T.);
#2390=ORIENTED_EDGE('',*,*,#2380,.T.);
#2400=ORIENTED_EDGE('',*,*,#1900,.F.);
#2410=ORIENTED_EDGE('',*,*,#870,.F.);
#2420=EDGE_LOOP('',(#2410,#2400,#2390,#2330));
#2430=FACE_OUTER_BOUND('',#2420,.T.);
#2440=ADVANCED_FACE('',(#2430),#2320,.F.);
#2450=COLOUR_RGB('',0.560784339904785,0.588235318660736,
0.600000023841858);
#2460=FILL_AREA_STYLE_COLOUR('',#2450);
#2470=FILL_AREA_STYLE('',(#2460));
#2480=SURFACE_STYLE_FILL_AREA(#2470);
#2490=SURFACE_SIDE_STYLE('',(#2480));
#2500=SURFACE_STYLE_USAGE(.BOTH.,#2490);
#2510=PRESENTATION_STYLE_ASSIGNMENT((#2500));
#2520=ORIENTED_EDGE('',*,*,#380,.T.);
#2530=ORIENTED_EDGE('',*,*,#1400,.T.);
#2540=ORIENTED_EDGE('',*,*,#2160,.F.);
#2550=CARTESIAN_POINT('',(0.,5.8,0.));
#2560=DIRECTION('',(0.,0.,1.));
#2570=VECTOR('',#2560,1.);
#2580=LINE('',#2550,#2570);
#2590=EDGE_CURVE('',#2130,#370,#2580,.T.);
#2600=ORIENTED_EDGE('',*,*,#2590,.F.);
#2610=EDGE_LOOP('',(#2600,#2540,#2530,#2520));
#2620=FACE_OUTER_BOUND('',#2610,.T.);
#2630=ADVANCED_FACE('',(#2620),#2320,.F.);
#2640=COLOUR_RGB('',0.560784339904785,0.588235318660736,
0.600000023841858);
#2650=FILL_AREA_STYLE_COLOUR('',#2640);
#2660=FILL_AREA_STYLE('',(#2650));
#2670=SURFACE_STYLE_FILL_AREA(#2660);
#2680=SURFACE_SIDE_STYLE('',(#2670));
#2690=SURFACE_STYLE_USAGE(.BOTH.,#2680);
#2700=PRESENTATION_STYLE_ASSIGNMENT((#2690));
#2710=CARTESIAN_POINT('',(61.,60.8,0.));
#2720=DIRECTION('',(-1.,0.,0.));
#2730=DIRECTION('',(0.,1.,0.));
#2740=AXIS2_PLACEMENT_3D('',#2710,#2720,#2730);
#2750=PLANE('',#2740);
#2760=ORIENTED_EDGE('',*,*,#620,.T.);
#2770=CARTESIAN_POINT('',(61.,62.8,0.));
#2780=DIRECTION('',(0.,0.,1.));
#2790=VECTOR('',#2780,1.);
#2800=LINE('',#2770,#2790);
#2810=EDGE_CURVE('',#1970,#530,#2800,.T.);
#2820=ORIENTED_EDGE('',*,*,#2810,.T.);
#2830=ORIENTED_EDGE('',*,*,#1980,.F.);
#2840=ORIENTED_EDGE('',*,*,#2380,.F.);
#2850=EDGE_LOOP('',(#2840,#2830,#2820,#2760));
#2860=FACE_OUTER_BOUND('',#2850,.T.);
#2870=ADVANCED_FACE('',(#2860),#2750,.F.);
#2880=COLOUR_RGB('',0.560784339904785,0.588235318660736,
0.600000023841858);
#2890=FILL_AREA_STYLE_COLOUR('',#2880);
#2900=FILL_AREA_STYLE('',(#2890));
#2910=SURFACE_STYLE_FILL_AREA(#2900);
#2920=SURFACE_SIDE_STYLE('',(#2910));
#2930=SURFACE_STYLE_USAGE(.BOTH.,#2920);
#2940=PRESENTATION_STYLE_ASSIGNMENT((#2930));
#2950=CARTESIAN_POINT('',(2.,62.8,0.));
#2960=DIRECTION('',(-0.,-1.,-0.));
#2970=DIRECTION('',(-1.,0.,0.));
#2980=AXIS2_PLACEMENT_3D('',#2950,#2960,#2970);
#2990=PLANE('',#2980);
#3000=ORIENTED_EDGE('',*,*,#540,.T.);
#3010=CARTESIAN_POINT('',(0.,62.8,0.));
#3020=DIRECTION('',(0.,0.,1.));
#3030=VECTOR('',#3020,1.);
#3040=LINE('',#3010,#3030);
#3050=EDGE_CURVE('',#2050,#450,#3040,.T.);
#3060=ORIENTED_EDGE('',*,*,#3050,.T.);
#3070=ORIENTED_EDGE('',*,*,#2060,.F.);
#3080=ORIENTED_EDGE('',*,*,#2810,.F.);
#3090=EDGE_LOOP('',(#3080,#3070,#3060,#3000));
#3100=FACE_OUTER_BOUND('',#3090,.T.);
#3110=ADVANCED_FACE('',(#3100),#2990,.F.);
#3120=COLOUR_RGB('',0.560784339904785,0.588235318660736,
0.600000023841858);
#3130=FILL_AREA_STYLE_COLOUR('',#3120);
#3140=FILL_AREA_STYLE('',(#3130));
#3150=SURFACE_STYLE_FILL_AREA(#3140);
#3160=SURFACE_SIDE_STYLE('',(#3150));
#3170=SURFACE_STYLE_USAGE(.BOTH.,#3160);
#3180=PRESENTATION_STYLE_ASSIGNMENT((#3170));
#3190=CARTESIAN_POINT('',(0.,7.8,0.));
#3200=DIRECTION('',(1.,0.,0.));
#3210=DIRECTION('',(0.,-1.,0.));
#3220=AXIS2_PLACEMENT_3D('',#3190,#3200,#3210);
#3230=PLANE('',#3220);
#3240=ORIENTED_EDGE('',*,*,#460,.T.);
#3250=ORIENTED_EDGE('',*,*,#2590,.T.);
#3260=ORIENTED_EDGE('',*,*,#2140,.F.);
#3270=ORIENTED_EDGE('',*,*,#3050,.F.);
#3280=EDGE_LOOP('',(#3270,#3260,#3250,#3240));
#3290=FACE_OUTER_BOUND('',#3280,.T.);
#3300=ADVANCED_FACE('',(#3290),#3230,.F.);
#3310=COLOUR_RGB('',0.560784339904785,0.588235318660736,
0.600000023841858);
#3320=FILL_AREA_STYLE_COLOUR('',#3310);
#3330=FILL_AREA_STYLE('',(#3320));
#3340=SURFACE_STYLE_FILL_AREA(#3330);
#3350=SURFACE_SIDE_STYLE('',(#3340));
#3360=SURFACE_STYLE_USAGE(.BOTH.,#3350);
#3370=PRESENTATION_STYLE_ASSIGNMENT((#3360));
#3380=CLOSED_SHELL('',(#2440,#2630,#2870,#3110,#3300,#2200,#680,#1060,
#1440,#1680));
#3390=MANIFOLD_SOLID_BREP('',#3380);
#3400=CARTESIAN_POINT('',(0.,0.,0.));
#3410=DIRECTION('',(0.,0.,1.));
#3420=DIRECTION('',(1.,0.,0.));
#3430=AXIS2_PLACEMENT_3D('',#3400,#3410,#3420);
#3440=APPLICATION_CONTEXT(' ');
#3450=APPLICATION_PROTOCOL_DEFINITION(' ','automotive_design',1998,#3440
);
#3460=PRODUCT_CONTEXT('',#3440,'mechanical');
#3470=PRODUCT_DEFINITION_CONTEXT('part definition',#3440,'design');
#3480=PRODUCT('TSS_RTK_BEN-select','TSS_RTK_BEN-select','',(#3460));
#3490=PRODUCT_RELATED_PRODUCT_CATEGORY('part',' ',(#3480));
#3500=PRODUCT_DEFINITION_FORMATION_WITH_SPECIFIED_SOURCE('','',#3480,
.BOUGHT.);
#3510=PRODUCT_DEFINITION('',' ',#3500,#3470);
#3520=PRODUCT_DEFINITION_SHAPE('','',#3510);
#3530=DIMENSIONAL_EXPONENTS(1.,0.,0.,0.,0.,0.,0.);
#3540=DIMENSIONAL_EXPONENTS(0.,0.,0.,0.,0.,0.,0.);
#3550=DIMENSIONAL_EXPONENTS(0.,0.,0.,0.,0.,0.,0.);
#3560=(LENGTH_UNIT() NAMED_UNIT(*) SI_UNIT(.MILLI.,.METRE.));
#3570=(NAMED_UNIT(*) PLANE_ANGLE_UNIT() SI_UNIT($,.RADIAN.));
#3580=(NAMED_UNIT(*) SI_UNIT($,.STERADIAN.) SOLID_ANGLE_UNIT());
#3590=(GEOMETRIC_REPRESENTATION_CONTEXT(3) 
GLOBAL_UNCERTAINTY_ASSIGNED_CONTEXT((#3600)) 
GLOBAL_UNIT_ASSIGNED_CONTEXT((#3560,#3570,#3580)) REPRESENTATION_CONTEXT
('',''));
#3600=UNCERTAINTY_MEASURE_WITH_UNIT(LENGTH_MEASURE(1.E-6),#3560,
'distance_accuracy_value','maximum gap value');
#3610=ADVANCED_BREP_SHAPE_REPRESENTATION('',(#3430,#3390),#3590);
#3620=SHAPE_DEFINITION_REPRESENTATION(#3520,#3610);
#3630=COLOUR_RGB('',0.560784339904785,0.588235318660736,
0.600000023841858);
#3640=FILL_AREA_STYLE_COLOUR('',#3630);
#3650=FILL_AREA_STYLE('',(#3640));
#3660=SURFACE_STYLE_FILL_AREA(#3650);
#3670=SURFACE_SIDE_STYLE('',(#3660));
#3680=SURFACE_STYLE_USAGE(.BOTH.,#3670);
#3690=PRESENTATION_STYLE_ASSIGNMENT((#3680));
#3700=STYLED_ITEM('',(#3690),#3390);
#3710=OVER_RIDING_STYLED_ITEM('',(#750),#680,#3700);
#3720=OVER_RIDING_STYLED_ITEM('',(#1130),#1060,#3700);
#3730=OVER_RIDING_STYLED_ITEM('',(#1510),#1440,#3700);
#3740=OVER_RIDING_STYLED_ITEM('',(#1750),#1680,#3700);
#3750=OVER_RIDING_STYLED_ITEM('',(#2270),#2200,#3700);
#3760=OVER_RIDING_STYLED_ITEM('',(#2510),#2440,#3700);
#3770=OVER_RIDING_STYLED_ITEM('',(#2700),#2630,#3700);
#3780=OVER_RIDING_STYLED_ITEM('',(#2940),#2870,#3700);
#3790=OVER_RIDING_STYLED_ITEM('',(#3180),#3110,#3700);
#3800=OVER_RIDING_STYLED_ITEM('',(#3370),#3300,#3700);
#3810=DRAUGHTING_MODEL('',(#3700,#3710,#3720,#3730,#3740,#3750,#3760,
#3770,#3780,#3790,#3800),#3590);
#3820=CARTESIAN_POINT('',(7.105427357601E-15,61.,-5.00000000000002));
#3830=DIRECTION('',(-1.,-9.32150093083421E-32,-3.05311331771918E-16));
#3840=DIRECTION('',(0.,-1.,3.05311331771918E-16));
#3850=AXIS2_PLACEMENT_3D('',#3820,#3830,#3840);
#3860=ITEM_DEFINED_TRANSFORMATION('TSS_RTK_BEN-select','',#3430,#3850);
#3870=APPLICATION_CONTEXT(' ');
#3880=APPLICATION_PROTOCOL_DEFINITION(' ','automotive_design',1998,#3870
);
#3890=PRODUCT_CONTEXT('',#3870,'mechanical');
#3900=PRODUCT_DEFINITION_CONTEXT('part definition',#3870,'design');
#3910=PRODUCT('TSS_RTK_BEN-select','TSS_RTK_BEN-select','',(#3890));
#3920=PRODUCT_RELATED_PRODUCT_CATEGORY('part',' ',(#3910));
#3930=PRODUCT_DEFINITION_FORMATION_WITH_SPECIFIED_SOURCE('','',#3910,
.BOUGHT.);
#3940=PRODUCT_DEFINITION('',' ',#3930,#3900);
#3950=PRODUCT_DEFINITION_SHAPE('','',#3940);
#3960=DIMENSIONAL_EXPONENTS(1.,0.,0.,0.,0.,0.,0.);
#3970=DIMENSIONAL_EXPONENTS(0.,0.,0.,0.,0.,0.,0.);
#3980=DIMENSIONAL_EXPONENTS(0.,0.,0.,0.,0.,0.,0.);
#3990=(LENGTH_UNIT() NAMED_UNIT(*) SI_UNIT(.MILLI.,.METRE.));
#4000=(NAMED_UNIT(*) PLANE_ANGLE_UNIT() SI_UNIT($,.RADIAN.));
#4010=(NAMED_UNIT(*) SI_UNIT($,.STERADIAN.) SOLID_ANGLE_UNIT());
#4020=(GEOMETRIC_REPRESENTATION_CONTEXT(3) 
GLOBAL_UNCERTAINTY_ASSIGNED_CONTEXT((#4030)) 
GLOBAL_UNIT_ASSIGNED_CONTEXT((#3990,#4000,#4010)) REPRESENTATION_CONTEXT
('',''));
#4030=UNCERTAINTY_MEASURE_WITH_UNIT(LENGTH_MEASURE(1.E-6),#3990,
'distance_accuracy_value','maximum gap value');
#4040=SHAPE_REPRESENTATION('',(#3430,#3850),#4020);
#4050=SHAPE_DEFINITION_REPRESENTATION(#3950,#4040);
#4060=(REPRESENTATION_RELATIONSHIP('','',#3610,#4040) 
REPRESENTATION_RELATIONSHIP_WITH_TRANSFORMATION(#3860) 
SHAPE_REPRESENTATION_RELATIONSHIP());
#4070=NEXT_ASSEMBLY_USAGE_OCCURRENCE('1','','TSS_RTK_BEN-select',#3940,
#3510,'');
#4080=PRODUCT_DEFINITION_SHAPE('','',#4070);
#4090=CONTEXT_DEPENDENT_SHAPE_REPRESENTATION(#4060,#4080);
ENDSEC;
END-ISO-10303-21;
