ISO-10303-21;
HEADER;
FILE_DESCRIPTION(('Creo Elements/Direct Modeling STEP Export'),'2;1');
FILE_NAME(
'D:/temp/JobSpoolerServerData/JobServer Files/31dcb0cb-a42c-4ac2-a214-f1
dcb2b50e73/work/output/model.stp','2018-02-13T10:40:42',(''),(''),
'Creo Elements/Direct Modeling STEP processor for AP214 (Solid Model)',
'Creo Elements/Direct Modeling 18.1I  14-Aug-2016 (C) Parametric Technol
ogy GmbH','');
FILE_SCHEMA(('AUTOMOTIVE_DESIGN { 1 0 10303 214 1 1 1 1 }'));
ENDSEC;
DATA;
#10=CARTESIAN_POINT('',(0.,0.,0.));
#20=DIRECTION('',(0.,0.,1.));
#30=DIRECTION('',(1.,0.,0.));
#40=AXIS2_PLACEMENT_3D('',#10,#20,#30);
#50=PLANE('',#40);
#60=CARTESIAN_POINT('',(-17.6221671261794,0.,0.));
#70=DIRECTION('',(0.258819045102521,0.965925826289068,0.));
#80=VECTOR('',#70,1.);
#90=LINE('',#60,#80);
#100=CARTESIAN_POINT('',(-21.2,-13.3526540660886,0.));
#110=VERTEX_POINT('',#100);
#120=CARTESIAN_POINT('',(-13.0275496308508,17.1473459339114,0.));
#130=VERTEX_POINT('',#120);
#140=EDGE_CURVE('',#110,#130,#90,.T.);
#150=ORIENTED_EDGE('',*,*,#140,.T.);
#160=CARTESIAN_POINT('',(-21.2,0.,0.));
#170=DIRECTION('',(0.,1.,0.));
#180=VECTOR('',#170,1.);
#190=LINE('',#160,#180);
#200=CARTESIAN_POINT('',(-21.2,-31.3526540660886,0.));
#210=VERTEX_POINT('',#200);
#220=EDGE_CURVE('',#210,#110,#190,.T.);
#230=ORIENTED_EDGE('',*,*,#220,.T.);
#240=CARTESIAN_POINT('',(0.,-31.3526540660886,0.));
#250=DIRECTION('',(-1.,0.,0.));
#260=VECTOR('',#250,1.);
#270=LINE('',#240,#260);
#280=CARTESIAN_POINT('',(39.8,-31.3526540660886,0.));
#290=VERTEX_POINT('',#280);
#300=EDGE_CURVE('',#290,#210,#270,.T.);
#310=ORIENTED_EDGE('',*,*,#300,.T.);
#320=CARTESIAN_POINT('',(39.8,0.,0.));
#330=DIRECTION('',(0.,-1.,0.));
#340=VECTOR('',#330,1.);
#350=LINE('',#320,#340);
#360=CARTESIAN_POINT('',(39.8,-13.3526540660886,0.));
#370=VERTEX_POINT('',#360);
#380=EDGE_CURVE('',#370,#290,#350,.T.);
#390=ORIENTED_EDGE('',*,*,#380,.T.);
#400=CARTESIAN_POINT('',(36.2221671261794,0.,0.));
#410=DIRECTION('',(0.25881904510252,-0.965925826289069,0.));
#420=VECTOR('',#410,1.);
#430=LINE('',#400,#420);
#440=CARTESIAN_POINT('',(31.6275496308508,17.1473459339114,0.));
#450=VERTEX_POINT('',#440);
#460=EDGE_CURVE('',#450,#370,#430,.T.);
#470=ORIENTED_EDGE('',*,*,#460,.T.);
#480=CARTESIAN_POINT('',(0.,17.1473459339114,0.));
#490=DIRECTION('',(1.,0.,0.));
#500=VECTOR('',#490,1.);
#510=LINE('',#480,#500);
#520=EDGE_CURVE('',#130,#450,#510,.T.);
#530=ORIENTED_EDGE('',*,*,#520,.T.);
#540=EDGE_LOOP('',(#530,#470,#390,#310,#230,#150));
#550=FACE_OUTER_BOUND('',#540,.T.);
#560=ADVANCED_FACE('',(#550),#50,.F.);
#570=COLOUR_RGB('',0.560784339904785,0.588235318660736,0.600000023841858
);
#580=FILL_AREA_STYLE_COLOUR('',#570);
#590=FILL_AREA_STYLE('',(#580));
#600=SURFACE_STYLE_FILL_AREA(#590);
#610=SURFACE_SIDE_STYLE('',(#600));
#620=SURFACE_STYLE_USAGE(.BOTH.,#610);
#630=PRESENTATION_STYLE_ASSIGNMENT((#620));
#640=CARTESIAN_POINT('',(0.,0.,2.2));
#650=DIRECTION('',(0.,0.,1.));
#660=DIRECTION('',(1.,0.,0.));
#670=AXIS2_PLACEMENT_3D('',#640,#650,#660);
#680=PLANE('',#670);
#690=CARTESIAN_POINT('',(0.,17.1473459339114,2.2));
#700=DIRECTION('',(1.,0.,0.));
#710=VECTOR('',#700,1.);
#720=LINE('',#690,#710);
#730=CARTESIAN_POINT('',(-13.0275496308508,17.1473459339114,2.2));
#740=VERTEX_POINT('',#730);
#750=CARTESIAN_POINT('',(31.6275496308508,17.1473459339114,2.2));
#760=VERTEX_POINT('',#750);
#770=EDGE_CURVE('',#740,#760,#720,.T.);
#780=ORIENTED_EDGE('',*,*,#770,.F.);
#790=CARTESIAN_POINT('',(36.2221671261794,0.,2.2));
#800=DIRECTION('',(0.25881904510252,-0.965925826289069,0.));
#810=VECTOR('',#800,1.);
#820=LINE('',#790,#810);
#830=CARTESIAN_POINT('',(39.8,-13.3526540660886,2.2));
#840=VERTEX_POINT('',#830);
#850=EDGE_CURVE('',#760,#840,#820,.T.);
#860=ORIENTED_EDGE('',*,*,#850,.F.);
#870=CARTESIAN_POINT('',(39.8,0.,2.2));
#880=DIRECTION('',(0.,-1.,0.));
#890=VECTOR('',#880,1.);
#900=LINE('',#870,#890);
#910=CARTESIAN_POINT('',(39.8,-31.3526540660886,2.2));
#920=VERTEX_POINT('',#910);
#930=EDGE_CURVE('',#840,#920,#900,.T.);
#940=ORIENTED_EDGE('',*,*,#930,.F.);
#950=CARTESIAN_POINT('',(0.,-31.3526540660886,2.2));
#960=DIRECTION('',(-1.,0.,0.));
#970=VECTOR('',#960,1.);
#980=LINE('',#950,#970);
#990=CARTESIAN_POINT('',(-21.2,-31.3526540660886,2.2));
#1000=VERTEX_POINT('',#990);
#1010=EDGE_CURVE('',#920,#1000,#980,.T.);
#1020=ORIENTED_EDGE('',*,*,#1010,.F.);
#1030=CARTESIAN_POINT('',(-21.2,0.,2.2));
#1040=DIRECTION('',(0.,1.,0.));
#1050=VECTOR('',#1040,1.);
#1060=LINE('',#1030,#1050);
#1070=CARTESIAN_POINT('',(-21.2,-13.3526540660886,2.2));
#1080=VERTEX_POINT('',#1070);
#1090=EDGE_CURVE('',#1000,#1080,#1060,.T.);
#1100=ORIENTED_EDGE('',*,*,#1090,.F.);
#1110=CARTESIAN_POINT('',(-17.6221671261794,0.,2.2));
#1120=DIRECTION('',(0.258819045102521,0.965925826289068,0.));
#1130=VECTOR('',#1120,1.);
#1140=LINE('',#1110,#1130);
#1150=EDGE_CURVE('',#1080,#740,#1140,.T.);
#1160=ORIENTED_EDGE('',*,*,#1150,.F.);
#1170=EDGE_LOOP('',(#1160,#1100,#1020,#940,#860,#780));
#1180=FACE_OUTER_BOUND('',#1170,.T.);
#1190=ADVANCED_FACE('',(#1180),#680,.T.);
#1200=COLOUR_RGB('',0.560784339904785,0.588235318660736,
0.600000023841858);
#1210=FILL_AREA_STYLE_COLOUR('',#1200);
#1220=FILL_AREA_STYLE('',(#1210));
#1230=SURFACE_STYLE_FILL_AREA(#1220);
#1240=SURFACE_SIDE_STYLE('',(#1230));
#1250=SURFACE_STYLE_USAGE(.BOTH.,#1240);
#1260=PRESENTATION_STYLE_ASSIGNMENT((#1250));
#1270=CARTESIAN_POINT('',(-12.106757245276,17.1473459339114,0.));
#1280=DIRECTION('',(-0.,1.,0.));
#1290=DIRECTION('',(1.,0.,0.));
#1300=AXIS2_PLACEMENT_3D('',#1270,#1280,#1290);
#1310=PLANE('',#1300);
#1320=ORIENTED_EDGE('',*,*,#520,.F.);
#1330=CARTESIAN_POINT('',(31.6275496308508,17.1473459339114,0.));
#1340=DIRECTION('',(0.,0.,-1.));
#1350=VECTOR('',#1340,1.);
#1360=LINE('',#1330,#1350);
#1370=EDGE_CURVE('',#760,#450,#1360,.T.);
#1380=ORIENTED_EDGE('',*,*,#1370,.T.);
#1390=ORIENTED_EDGE('',*,*,#770,.T.);
#1400=CARTESIAN_POINT('',(-13.0275496308508,17.1473459339114,0.));
#1410=DIRECTION('',(0.,0.,-1.));
#1420=VECTOR('',#1410,1.);
#1430=LINE('',#1400,#1420);
#1440=EDGE_CURVE('',#740,#130,#1430,.T.);
#1450=ORIENTED_EDGE('',*,*,#1440,.F.);
#1460=EDGE_LOOP('',(#1450,#1390,#1380,#1320));
#1470=FACE_OUTER_BOUND('',#1460,.T.);
#1480=ADVANCED_FACE('',(#1470),#1310,.T.);
#1490=COLOUR_RGB('',0.560784339904785,0.588235318660736,
0.600000023841858);
#1500=FILL_AREA_STYLE_COLOUR('',#1490);
#1510=FILL_AREA_STYLE('',(#1500));
#1520=SURFACE_STYLE_FILL_AREA(#1510);
#1530=SURFACE_SIDE_STYLE('',(#1520));
#1540=SURFACE_STYLE_USAGE(.BOTH.,#1530);
#1550=PRESENTATION_STYLE_ASSIGNMENT((#1540));
#1560=CARTESIAN_POINT('',(39.8,-13.3526540660886,0.));
#1570=DIRECTION('',(1.,0.,0.));
#1580=DIRECTION('',(0.,-1.,0.));
#1590=AXIS2_PLACEMENT_3D('',#1560,#1570,#1580);
#1600=PLANE('',#1590);
#1610=CARTESIAN_POINT('',(39.8,-31.3526540660886,0.));
#1620=DIRECTION('',(0.,0.,-1.));
#1630=VECTOR('',#1620,1.);
#1640=LINE('',#1610,#1630);
#1650=EDGE_CURVE('',#920,#290,#1640,.T.);
#1660=ORIENTED_EDGE('',*,*,#1650,.T.);
#1670=ORIENTED_EDGE('',*,*,#930,.T.);
#1680=CARTESIAN_POINT('',(39.8,-13.3526540660886,0.));
#1690=DIRECTION('',(0.,0.,1.));
#1700=VECTOR('',#1690,1.);
#1710=LINE('',#1680,#1700);
#1720=EDGE_CURVE('',#370,#840,#1710,.T.);
#1730=ORIENTED_EDGE('',*,*,#1720,.T.);
#1740=ORIENTED_EDGE('',*,*,#380,.F.);
#1750=EDGE_LOOP('',(#1740,#1730,#1670,#1660));
#1760=FACE_OUTER_BOUND('',#1750,.T.);
#1770=ADVANCED_FACE('',(#1760),#1600,.T.);
#1780=COLOUR_RGB('',0.560784339904785,0.588235318660736,
0.600000023841858);
#1790=FILL_AREA_STYLE_COLOUR('',#1780);
#1800=FILL_AREA_STYLE('',(#1790));
#1810=SURFACE_STYLE_FILL_AREA(#1800);
#1820=SURFACE_SIDE_STYLE('',(#1810));
#1830=SURFACE_STYLE_USAGE(.BOTH.,#1820);
#1840=PRESENTATION_STYLE_ASSIGNMENT((#1830));
#1850=CARTESIAN_POINT('',(-21.2,-13.3526540660886,0.));
#1860=DIRECTION('',(-0.965925826289068,0.258819045102521,0.));
#1870=DIRECTION('',(0.258819045102521,0.965925826289068,0.));
#1880=AXIS2_PLACEMENT_3D('',#1850,#1860,#1870);
#1890=PLANE('',#1880);
#1900=ORIENTED_EDGE('',*,*,#1440,.T.);
#1910=ORIENTED_EDGE('',*,*,#1150,.T.);
#1920=CARTESIAN_POINT('',(-21.2,-13.3526540660886,0.));
#1930=DIRECTION('',(0.,0.,1.));
#1940=VECTOR('',#1930,1.);
#1950=LINE('',#1920,#1940);
#1960=EDGE_CURVE('',#110,#1080,#1950,.T.);
#1970=ORIENTED_EDGE('',*,*,#1960,.T.);
#1980=ORIENTED_EDGE('',*,*,#140,.F.);
#1990=EDGE_LOOP('',(#1980,#1970,#1910,#1900));
#2000=FACE_OUTER_BOUND('',#1990,.T.);
#2010=ADVANCED_FACE('',(#2000),#1890,.T.);
#2020=COLOUR_RGB('',0.560784339904785,0.588235318660736,
0.600000023841858);
#2030=FILL_AREA_STYLE_COLOUR('',#2020);
#2040=FILL_AREA_STYLE('',(#2030));
#2050=SURFACE_STYLE_FILL_AREA(#2040);
#2060=SURFACE_SIDE_STYLE('',(#2050));
#2070=SURFACE_STYLE_USAGE(.BOTH.,#2060);
#2080=PRESENTATION_STYLE_ASSIGNMENT((#2070));
#2090=CARTESIAN_POINT('',(-21.2,-29.3526540660886,0.));
#2100=DIRECTION('',(-1.,0.,0.));
#2110=DIRECTION('',(0.,1.,0.));
#2120=AXIS2_PLACEMENT_3D('',#2090,#2100,#2110);
#2130=PLANE('',#2120);
#2140=ORIENTED_EDGE('',*,*,#220,.F.);
#2150=ORIENTED_EDGE('',*,*,#1960,.F.);
#2160=ORIENTED_EDGE('',*,*,#1090,.T.);
#2170=CARTESIAN_POINT('',(-21.2,-31.3526540660886,0.));
#2180=DIRECTION('',(0.,0.,-1.));
#2190=VECTOR('',#2180,1.);
#2200=LINE('',#2170,#2190);
#2210=EDGE_CURVE('',#1000,#210,#2200,.T.);
#2220=ORIENTED_EDGE('',*,*,#2210,.F.);
#2230=EDGE_LOOP('',(#2220,#2160,#2150,#2140));
#2240=FACE_OUTER_BOUND('',#2230,.T.);
#2250=ADVANCED_FACE('',(#2240),#2130,.T.);
#2260=COLOUR_RGB('',0.560784339904785,0.588235318660736,
0.600000023841858);
#2270=FILL_AREA_STYLE_COLOUR('',#2260);
#2280=FILL_AREA_STYLE('',(#2270));
#2290=SURFACE_STYLE_FILL_AREA(#2280);
#2300=SURFACE_SIDE_STYLE('',(#2290));
#2310=SURFACE_STYLE_USAGE(.BOTH.,#2300);
#2320=PRESENTATION_STYLE_ASSIGNMENT((#2310));
#2330=CARTESIAN_POINT('',(31.8658682368229,16.2579287880344,0.));
#2340=DIRECTION('',(0.965925826289069,0.25881904510252,0.));
#2350=DIRECTION('',(0.25881904510252,-0.965925826289069,0.));
#2360=AXIS2_PLACEMENT_3D('',#2330,#2340,#2350);
#2370=PLANE('',#2360);
#2380=ORIENTED_EDGE('',*,*,#460,.F.);
#2390=ORIENTED_EDGE('',*,*,#1720,.F.);
#2400=ORIENTED_EDGE('',*,*,#850,.T.);
#2410=ORIENTED_EDGE('',*,*,#1370,.F.);
#2420=EDGE_LOOP('',(#2410,#2400,#2390,#2380));
#2430=FACE_OUTER_BOUND('',#2420,.T.);
#2440=ADVANCED_FACE('',(#2430),#2370,.T.);
#2450=COLOUR_RGB('',0.560784339904785,0.588235318660736,
0.600000023841858);
#2460=FILL_AREA_STYLE_COLOUR('',#2450);
#2470=FILL_AREA_STYLE('',(#2460));
#2480=SURFACE_STYLE_FILL_AREA(#2470);
#2490=SURFACE_SIDE_STYLE('',(#2480));
#2500=SURFACE_STYLE_USAGE(.BOTH.,#2490);
#2510=PRESENTATION_STYLE_ASSIGNMENT((#2500));
#2520=CARTESIAN_POINT('',(37.8,-31.3526540660886,0.));
#2530=DIRECTION('',(-0.,-1.,-0.));
#2540=DIRECTION('',(-1.,0.,0.));
#2550=AXIS2_PLACEMENT_3D('',#2520,#2530,#2540);
#2560=PLANE('',#2550);
#2570=ORIENTED_EDGE('',*,*,#2210,.T.);
#2580=ORIENTED_EDGE('',*,*,#1010,.T.);
#2590=ORIENTED_EDGE('',*,*,#1650,.F.);
#2600=ORIENTED_EDGE('',*,*,#300,.F.);
#2610=EDGE_LOOP('',(#2600,#2590,#2580,#2570));
#2620=FACE_OUTER_BOUND('',#2610,.T.);
#2630=ADVANCED_FACE('',(#2620),#2560,.T.);
#2640=COLOUR_RGB('',0.560784339904785,0.588235318660736,
0.600000023841858);
#2650=FILL_AREA_STYLE_COLOUR('',#2640);
#2660=FILL_AREA_STYLE('',(#2650));
#2670=SURFACE_STYLE_FILL_AREA(#2660);
#2680=SURFACE_SIDE_STYLE('',(#2670));
#2690=SURFACE_STYLE_USAGE(.BOTH.,#2680);
#2700=PRESENTATION_STYLE_ASSIGNMENT((#2690));
#2710=CLOSED_SHELL('',(#1480,#1770,#2010,#2250,#2440,#2630,#1190,#560));
#2720=MANIFOLD_SOLID_BREP('',#2710);
#2730=CARTESIAN_POINT('',(0.,0.,0.));
#2740=DIRECTION('',(0.,0.,1.));
#2750=DIRECTION('',(1.,0.,0.));
#2760=AXIS2_PLACEMENT_3D('',#2730,#2740,#2750);
#2770=APPLICATION_CONTEXT(' ');
#2780=APPLICATION_PROTOCOL_DEFINITION(' ','automotive_design',1998,#2770
);
#2790=PRODUCT_CONTEXT('',#2770,'mechanical');
#2800=PRODUCT_DEFINITION_CONTEXT('part definition',#2770,'design');
#2810=PRODUCT('D_URTK_S_BEN-select','D_URTK_S_BEN-select','',(#2790));
#2820=PRODUCT_RELATED_PRODUCT_CATEGORY('part',' ',(#2810));
#2830=PRODUCT_DEFINITION_FORMATION_WITH_SPECIFIED_SOURCE('','',#2810,
.BOUGHT.);
#2840=PRODUCT_DEFINITION('',' ',#2830,#2800);
#2850=PRODUCT_DEFINITION_SHAPE('','',#2840);
#2860=DIMENSIONAL_EXPONENTS(1.,0.,0.,0.,0.,0.,0.);
#2870=DIMENSIONAL_EXPONENTS(0.,0.,0.,0.,0.,0.,0.);
#2880=DIMENSIONAL_EXPONENTS(0.,0.,0.,0.,0.,0.,0.);
#2890=(LENGTH_UNIT() NAMED_UNIT(*) SI_UNIT(.MILLI.,.METRE.));
#2900=(NAMED_UNIT(*) PLANE_ANGLE_UNIT() SI_UNIT($,.RADIAN.));
#2910=(NAMED_UNIT(*) SI_UNIT($,.STERADIAN.) SOLID_ANGLE_UNIT());
#2920=(GEOMETRIC_REPRESENTATION_CONTEXT(3) 
GLOBAL_UNCERTAINTY_ASSIGNED_CONTEXT((#2930)) 
GLOBAL_UNIT_ASSIGNED_CONTEXT((#2890,#2900,#2910)) REPRESENTATION_CONTEXT
('',''));
#2930=UNCERTAINTY_MEASURE_WITH_UNIT(LENGTH_MEASURE(1.E-6),#2890,
'distance_accuracy_value','maximum gap value');
#2940=ADVANCED_BREP_SHAPE_REPRESENTATION('',(#2760,#2720),#2920);
#2950=SHAPE_DEFINITION_REPRESENTATION(#2850,#2940);
#2960=COLOUR_RGB('',0.560784339904785,0.588235318660736,
0.600000023841858);
#2970=FILL_AREA_STYLE_COLOUR('',#2960);
#2980=FILL_AREA_STYLE('',(#2970));
#2990=SURFACE_STYLE_FILL_AREA(#2980);
#3000=SURFACE_SIDE_STYLE('',(#2990));
#3010=SURFACE_STYLE_USAGE(.BOTH.,#3000);
#3020=PRESENTATION_STYLE_ASSIGNMENT((#3010));
#3030=STYLED_ITEM('',(#3020),#2720);
#3040=OVER_RIDING_STYLED_ITEM('',(#630),#560,#3030);
#3050=OVER_RIDING_STYLED_ITEM('',(#1260),#1190,#3030);
#3060=OVER_RIDING_STYLED_ITEM('',(#1550),#1480,#3030);
#3070=OVER_RIDING_STYLED_ITEM('',(#1840),#1770,#3030);
#3080=OVER_RIDING_STYLED_ITEM('',(#2080),#2010,#3030);
#3090=OVER_RIDING_STYLED_ITEM('',(#2320),#2250,#3030);
#3100=OVER_RIDING_STYLED_ITEM('',(#2510),#2440,#3030);
#3110=OVER_RIDING_STYLED_ITEM('',(#2700),#2630,#3030);
#3120=DRAUGHTING_MODEL('',(#3030,#3040,#3050,#3060,#3070,#3080,#3090,
#3100,#3110),#2920);
#3130=CARTESIAN_POINT('',(2.2,39.8,31.3526540660883));
#3140=DIRECTION('',(-1.,-3.25482160601443E-32,-1.80411241501588E-16));
#3150=DIRECTION('',(0.,-1.,1.80411241501588E-16));
#3160=AXIS2_PLACEMENT_3D('',#3130,#3140,#3150);
#3170=ITEM_DEFINED_TRANSFORMATION('D_URTK_S_BEN-select','',#2760,#3160);
#3180=APPLICATION_CONTEXT(' ');
#3190=APPLICATION_PROTOCOL_DEFINITION(' ','automotive_design',1998,#3180
);
#3200=PRODUCT_CONTEXT('',#3180,'mechanical');
#3210=PRODUCT_DEFINITION_CONTEXT('part definition',#3180,'design');
#3220=PRODUCT('D_URTK_S_BEN-select','D_URTK_S_BEN-select','',(#3200));
#3230=PRODUCT_RELATED_PRODUCT_CATEGORY('part',' ',(#3220));
#3240=PRODUCT_DEFINITION_FORMATION_WITH_SPECIFIED_SOURCE('','',#3220,
.BOUGHT.);
#3250=PRODUCT_DEFINITION('',' ',#3240,#3210);
#3260=PRODUCT_DEFINITION_SHAPE('','',#3250);
#3270=DIMENSIONAL_EXPONENTS(1.,0.,0.,0.,0.,0.,0.);
#3280=DIMENSIONAL_EXPONENTS(0.,0.,0.,0.,0.,0.,0.);
#3290=DIMENSIONAL_EXPONENTS(0.,0.,0.,0.,0.,0.,0.);
#3300=(LENGTH_UNIT() NAMED_UNIT(*) SI_UNIT(.MILLI.,.METRE.));
#3310=(NAMED_UNIT(*) PLANE_ANGLE_UNIT() SI_UNIT($,.RADIAN.));
#3320=(NAMED_UNIT(*) SI_UNIT($,.STERADIAN.) SOLID_ANGLE_UNIT());
#3330=(GEOMETRIC_REPRESENTATION_CONTEXT(3) 
GLOBAL_UNCERTAINTY_ASSIGNED_CONTEXT((#3340)) 
GLOBAL_UNIT_ASSIGNED_CONTEXT((#3300,#3310,#3320)) REPRESENTATION_CONTEXT
('',''));
#3340=UNCERTAINTY_MEASURE_WITH_UNIT(LENGTH_MEASURE(1.E-6),#3300,
'distance_accuracy_value','maximum gap value');
#3350=SHAPE_REPRESENTATION('',(#2760,#3160),#3330);
#3360=SHAPE_DEFINITION_REPRESENTATION(#3260,#3350);
#3370=(REPRESENTATION_RELATIONSHIP('','',#2940,#3350) 
REPRESENTATION_RELATIONSHIP_WITH_TRANSFORMATION(#3170) 
SHAPE_REPRESENTATION_RELATIONSHIP());
#3380=NEXT_ASSEMBLY_USAGE_OCCURRENCE('1','','D_URTK_S_BEN-select',#3250,
#2840,'');
#3390=PRODUCT_DEFINITION_SHAPE('','',#3380);
#3400=CONTEXT_DEPENDENT_SHAPE_REPRESENTATION(#3370,#3390);
ENDSEC;
END-ISO-10303-21;
