ISO-10303-21;
HEADER;
FILE_DESCRIPTION(('Creo Elements/Direct Modeling STEP Export'),'2;1');
FILE_NAME(
'D:/temp/JobSpoolerServerData/JobServer Files/80fe0460-49b9-41d2-b452-d5
8fb1ac0a7e/work/output/model.stp','2017-12-15T 9:58:48',(''),(''),
'Creo Elements/Direct Modeling STEP processor for AP214 (Solid Model)',
'Creo Elements/Direct Modeling 18.1I  14-Aug-2016 (C) Parametric Technol
ogy GmbH','');
FILE_SCHEMA(('AUTOMOTIVE_DESIGN { 1 0 10303 214 1 1 1 1 }'));
ENDSEC;
DATA;
#10=CARTESIAN_POINT('',(36.1481414638966,1.68644766298724,
5.39999999999962));
#20=DIRECTION('',(0.,0.,1.));
#30=DIRECTION('',(1.,0.,0.));
#40=AXIS2_PLACEMENT_3D('',#10,#20,#30);
#50=PLANE('',#40);
#60=CARTESIAN_POINT('',(35.3471976766202,27.4837843325338,
5.39999999999962));
#70=DIRECTION('',(0.25881904510252,-0.965925826289068,0.));
#80=VECTOR('',#70,1.);
#90=LINE('',#60,#80);
#100=CARTESIAN_POINT('',(34.95,28.9661462423288,5.39999999999962));
#110=VERTEX_POINT('',#100);
#120=CARTESIAN_POINT('',(41.25,5.45422615464482,5.39999999999962));
#130=VERTEX_POINT('',#120);
#140=EDGE_CURVE('',#110,#130,#90,.T.);
#150=ORIENTED_EDGE('',*,*,#140,.F.);
#160=CARTESIAN_POINT('',(41.25,5.19092115947006,5.39999999999962));
#170=DIRECTION('',(-1.86680654295943E-15,-1.,0.));
#180=VECTOR('',#170,1.);
#190=LINE('',#160,#180);
#200=CARTESIAN_POINT('',(41.25,-12.5338537576712,5.39999999999962));
#210=VERTEX_POINT('',#200);
#220=EDGE_CURVE('',#130,#210,#190,.T.);
#230=ORIENTED_EDGE('',*,*,#220,.F.);
#240=CARTESIAN_POINT('',(38.75,-12.5338537576712,5.39999999999962));
#250=DIRECTION('',(-1.,0.,0.));
#260=VECTOR('',#250,1.);
#270=LINE('',#240,#260);
#280=CARTESIAN_POINT('',(-19.75,-12.5338537576712,5.39999999999962));
#290=VERTEX_POINT('',#280);
#300=EDGE_CURVE('',#210,#290,#270,.T.);
#310=ORIENTED_EDGE('',*,*,#300,.F.);
#320=CARTESIAN_POINT('',(-19.75,-10.0338537576712,5.39999999999962));
#330=DIRECTION('',(0.,1.,0.));
#340=VECTOR('',#330,1.);
#350=LINE('',#320,#340);
#360=CARTESIAN_POINT('',(-19.75,5.45422615464481,5.39999999999962));
#370=VERTEX_POINT('',#360);
#380=EDGE_CURVE('',#290,#370,#350,.T.);
#390=ORIENTED_EDGE('',*,*,#380,.F.);
#400=CARTESIAN_POINT('',(-19.6818516525782,5.70855924967509,
5.39999999999962));
#410=DIRECTION('',(0.258819045102522,0.965925826289068,0.));
#420=VECTOR('',#410,1.);
#430=LINE('',#400,#420);
#440=CARTESIAN_POINT('',(-13.45,28.9661462423288,5.39999999999962));
#450=VERTEX_POINT('',#440);
#460=EDGE_CURVE('',#370,#450,#430,.T.);
#470=ORIENTED_EDGE('',*,*,#460,.F.);
#480=CARTESIAN_POINT('',(-11.9153460240421,28.9661462423288,
5.39999999999962));
#490=DIRECTION('',(1.,0.,0.));
#500=VECTOR('',#490,1.);
#510=LINE('',#480,#500);
#520=EDGE_CURVE('',#450,#110,#510,.T.);
#530=ORIENTED_EDGE('',*,*,#520,.F.);
#540=EDGE_LOOP('',(#530,#470,#390,#310,#230,#150));
#550=FACE_OUTER_BOUND('',#540,.T.);
#560=ADVANCED_FACE('',(#550),#50,.T.);
#570=COLOUR_RGB('',0.560784339904785,0.588235318660736,0.600000023841858
);
#580=FILL_AREA_STYLE_COLOUR('',#570);
#590=FILL_AREA_STYLE('',(#580));
#600=SURFACE_STYLE_FILL_AREA(#590);
#610=SURFACE_SIDE_STYLE('',(#600));
#620=SURFACE_STYLE_USAGE(.BOTH.,#610);
#630=PRESENTATION_STYLE_ASSIGNMENT((#620));
#640=CARTESIAN_POINT('',(36.1481414638966,1.68644766298724,
3.19999999999962));
#650=DIRECTION('',(0.,0.,1.));
#660=DIRECTION('',(1.,0.,0.));
#670=AXIS2_PLACEMENT_3D('',#640,#650,#660);
#680=PLANE('',#670);
#690=CARTESIAN_POINT('',(-20.759573204099,1.68644766298724,
3.19999999999962));
#700=DIRECTION('',(0.258819045102522,0.965925826289068,0.));
#710=VECTOR('',#700,1.);
#720=LINE('',#690,#710);
#730=CARTESIAN_POINT('',(-19.75,5.45422615464481,3.19999999999962));
#740=VERTEX_POINT('',#730);
#750=CARTESIAN_POINT('',(-13.45,28.9661462423288,3.19999999999962));
#760=VERTEX_POINT('',#750);
#770=EDGE_CURVE('',#740,#760,#720,.T.);
#780=ORIENTED_EDGE('',*,*,#770,.T.);
#790=CARTESIAN_POINT('',(-19.75,1.68644766298724,3.19999999999962));
#800=DIRECTION('',(0.,1.,0.));
#810=VECTOR('',#800,1.);
#820=LINE('',#790,#810);
#830=CARTESIAN_POINT('',(-19.75,-12.5338537576712,3.19999999999962));
#840=VERTEX_POINT('',#830);
#850=EDGE_CURVE('',#840,#740,#820,.T.);
#860=ORIENTED_EDGE('',*,*,#850,.T.);
#870=CARTESIAN_POINT('',(36.1481414638966,-12.5338537576712,
3.19999999999962));
#880=DIRECTION('',(-1.,0.,0.));
#890=VECTOR('',#880,1.);
#900=LINE('',#870,#890);
#910=CARTESIAN_POINT('',(41.25,-12.5338537576712,3.19999999999962));
#920=VERTEX_POINT('',#910);
#930=EDGE_CURVE('',#920,#840,#900,.T.);
#940=ORIENTED_EDGE('',*,*,#930,.T.);
#950=CARTESIAN_POINT('',(41.25,1.68644766298724,3.19999999999962));
#960=DIRECTION('',(-1.86680654295943E-15,-1.,0.));
#970=VECTOR('',#960,1.);
#980=LINE('',#950,#970);
#990=CARTESIAN_POINT('',(41.25,5.45422615464482,3.19999999999962));
#1000=VERTEX_POINT('',#990);
#1010=EDGE_CURVE('',#1000,#920,#980,.T.);
#1020=ORIENTED_EDGE('',*,*,#1010,.T.);
#1030=CARTESIAN_POINT('',(42.259573204099,1.68644766298724,
3.19999999999962));
#1040=DIRECTION('',(0.25881904510252,-0.965925826289068,0.));
#1050=VECTOR('',#1040,1.);
#1060=LINE('',#1030,#1050);
#1070=CARTESIAN_POINT('',(34.95,28.9661462423288,3.19999999999962));
#1080=VERTEX_POINT('',#1070);
#1090=EDGE_CURVE('',#1080,#1000,#1060,.T.);
#1100=ORIENTED_EDGE('',*,*,#1090,.T.);
#1110=CARTESIAN_POINT('',(36.1481414638966,28.9661462423288,
3.19999999999962));
#1120=DIRECTION('',(1.,0.,0.));
#1130=VECTOR('',#1120,1.);
#1140=LINE('',#1110,#1130);
#1150=EDGE_CURVE('',#760,#1080,#1140,.T.);
#1160=ORIENTED_EDGE('',*,*,#1150,.T.);
#1170=EDGE_LOOP('',(#1160,#1100,#1020,#940,#860,#780));
#1180=FACE_OUTER_BOUND('',#1170,.T.);
#1190=ADVANCED_FACE('',(#1180),#680,.F.);
#1200=COLOUR_RGB('',0.560784339904785,0.588235318660736,
0.600000023841858);
#1210=FILL_AREA_STYLE_COLOUR('',#1200);
#1220=FILL_AREA_STYLE('',(#1210));
#1230=SURFACE_STYLE_FILL_AREA(#1220);
#1240=SURFACE_SIDE_STYLE('',(#1230));
#1250=SURFACE_STYLE_USAGE(.BOTH.,#1240);
#1260=PRESENTATION_STYLE_ASSIGNMENT((#1250));
#1270=CARTESIAN_POINT('',(-11.9153460240421,28.9661462423288,
3.19999999999962));
#1280=DIRECTION('',(-0.,1.,0.));
#1290=DIRECTION('',(1.,0.,0.));
#1300=AXIS2_PLACEMENT_3D('',#1270,#1280,#1290);
#1310=PLANE('',#1300);
#1320=CARTESIAN_POINT('',(34.95,28.9661462423288,3.19999999999962));
#1330=DIRECTION('',(0.,0.,-1.));
#1340=VECTOR('',#1330,1.);
#1350=LINE('',#1320,#1340);
#1360=EDGE_CURVE('',#110,#1080,#1350,.T.);
#1370=ORIENTED_EDGE('',*,*,#1360,.T.);
#1380=ORIENTED_EDGE('',*,*,#520,.T.);
#1390=CARTESIAN_POINT('',(-13.45,28.9661462423288,3.19999999999962));
#1400=DIRECTION('',(0.,0.,-1.));
#1410=VECTOR('',#1400,1.);
#1420=LINE('',#1390,#1410);
#1430=EDGE_CURVE('',#450,#760,#1420,.T.);
#1440=ORIENTED_EDGE('',*,*,#1430,.F.);
#1450=ORIENTED_EDGE('',*,*,#1150,.F.);
#1460=EDGE_LOOP('',(#1450,#1440,#1380,#1370));
#1470=FACE_OUTER_BOUND('',#1460,.T.);
#1480=ADVANCED_FACE('',(#1470),#1310,.T.);
#1490=COLOUR_RGB('',0.560784339904785,0.588235318660736,
0.600000023841858);
#1500=FILL_AREA_STYLE_COLOUR('',#1490);
#1510=FILL_AREA_STYLE('',(#1500));
#1520=SURFACE_STYLE_FILL_AREA(#1510);
#1530=SURFACE_SIDE_STYLE('',(#1520));
#1540=SURFACE_STYLE_USAGE(.BOTH.,#1530);
#1550=PRESENTATION_STYLE_ASSIGNMENT((#1540));
#1560=CARTESIAN_POINT('',(-19.6818516525782,5.70855924967509,
3.19999999999962));
#1570=DIRECTION('',(-0.965925826289068,0.258819045102522,0.));
#1580=DIRECTION('',(0.258819045102522,0.965925826289068,0.));
#1590=AXIS2_PLACEMENT_3D('',#1560,#1570,#1580);
#1600=PLANE('',#1590);
#1610=ORIENTED_EDGE('',*,*,#1430,.T.);
#1620=ORIENTED_EDGE('',*,*,#460,.T.);
#1630=CARTESIAN_POINT('',(-19.75,5.45422615464481,3.19999999999962));
#1640=DIRECTION('',(0.,0.,-1.));
#1650=VECTOR('',#1640,1.);
#1660=LINE('',#1630,#1650);
#1670=EDGE_CURVE('',#370,#740,#1660,.T.);
#1680=ORIENTED_EDGE('',*,*,#1670,.F.);
#1690=ORIENTED_EDGE('',*,*,#770,.F.);
#1700=EDGE_LOOP('',(#1690,#1680,#1620,#1610));
#1710=FACE_OUTER_BOUND('',#1700,.T.);
#1720=ADVANCED_FACE('',(#1710),#1600,.T.);
#1730=COLOUR_RGB('',0.560784339904785,0.588235318660736,
0.600000023841858);
#1740=FILL_AREA_STYLE_COLOUR('',#1730);
#1750=FILL_AREA_STYLE('',(#1740));
#1760=SURFACE_STYLE_FILL_AREA(#1750);
#1770=SURFACE_SIDE_STYLE('',(#1760));
#1780=SURFACE_STYLE_USAGE(.BOTH.,#1770);
#1790=PRESENTATION_STYLE_ASSIGNMENT((#1780));
#1800=CARTESIAN_POINT('',(35.3471976766202,27.4837843325338,
3.19999999999962));
#1810=DIRECTION('',(0.965925826289068,0.25881904510252,0.));
#1820=DIRECTION('',(0.25881904510252,-0.965925826289068,0.));
#1830=AXIS2_PLACEMENT_3D('',#1800,#1810,#1820);
#1840=PLANE('',#1830);
#1850=CARTESIAN_POINT('',(41.25,5.45422615464482,3.19999999999962));
#1860=DIRECTION('',(0.,0.,-1.));
#1870=VECTOR('',#1860,1.);
#1880=LINE('',#1850,#1870);
#1890=EDGE_CURVE('',#130,#1000,#1880,.T.);
#1900=ORIENTED_EDGE('',*,*,#1890,.T.);
#1910=ORIENTED_EDGE('',*,*,#140,.T.);
#1920=ORIENTED_EDGE('',*,*,#1360,.F.);
#1930=ORIENTED_EDGE('',*,*,#1090,.F.);
#1940=EDGE_LOOP('',(#1930,#1920,#1910,#1900));
#1950=FACE_OUTER_BOUND('',#1940,.T.);
#1960=ADVANCED_FACE('',(#1950),#1840,.T.);
#1970=COLOUR_RGB('',0.560784339904785,0.588235318660736,
0.600000023841858);
#1980=FILL_AREA_STYLE_COLOUR('',#1970);
#1990=FILL_AREA_STYLE('',(#1980));
#2000=SURFACE_STYLE_FILL_AREA(#1990);
#2010=SURFACE_SIDE_STYLE('',(#2000));
#2020=SURFACE_STYLE_USAGE(.BOTH.,#2010);
#2030=PRESENTATION_STYLE_ASSIGNMENT((#2020));
#2040=CARTESIAN_POINT('',(-19.75,-10.0338537576712,3.19999999999962));
#2050=DIRECTION('',(-1.,0.,0.));
#2060=DIRECTION('',(0.,1.,0.));
#2070=AXIS2_PLACEMENT_3D('',#2040,#2050,#2060);
#2080=PLANE('',#2070);
#2090=ORIENTED_EDGE('',*,*,#1670,.T.);
#2100=ORIENTED_EDGE('',*,*,#380,.T.);
#2110=CARTESIAN_POINT('',(-19.75,-12.5338537576712,3.19999999999962));
#2120=DIRECTION('',(0.,0.,-1.));
#2130=VECTOR('',#2120,1.);
#2140=LINE('',#2110,#2130);
#2150=EDGE_CURVE('',#290,#840,#2140,.T.);
#2160=ORIENTED_EDGE('',*,*,#2150,.F.);
#2170=ORIENTED_EDGE('',*,*,#850,.F.);
#2180=EDGE_LOOP('',(#2170,#2160,#2100,#2090));
#2190=FACE_OUTER_BOUND('',#2180,.T.);
#2200=ADVANCED_FACE('',(#2190),#2080,.T.);
#2210=COLOUR_RGB('',0.560784339904785,0.588235318660736,
0.600000023841858);
#2220=FILL_AREA_STYLE_COLOUR('',#2210);
#2230=FILL_AREA_STYLE('',(#2220));
#2240=SURFACE_STYLE_FILL_AREA(#2230);
#2250=SURFACE_SIDE_STYLE('',(#2240));
#2260=SURFACE_STYLE_USAGE(.BOTH.,#2250);
#2270=PRESENTATION_STYLE_ASSIGNMENT((#2260));
#2280=CARTESIAN_POINT('',(41.25,5.19092115947006,3.19999999999962));
#2290=DIRECTION('',(1.,-1.86680654295943E-15,0.));
#2300=DIRECTION('',(-1.86680654295943E-15,-1.,0.));
#2310=AXIS2_PLACEMENT_3D('',#2280,#2290,#2300);
#2320=PLANE('',#2310);
#2330=CARTESIAN_POINT('',(41.25,-12.5338537576712,3.19999999999962));
#2340=DIRECTION('',(0.,0.,-1.));
#2350=VECTOR('',#2340,1.);
#2360=LINE('',#2330,#2350);
#2370=EDGE_CURVE('',#210,#920,#2360,.T.);
#2380=ORIENTED_EDGE('',*,*,#2370,.T.);
#2390=ORIENTED_EDGE('',*,*,#220,.T.);
#2400=ORIENTED_EDGE('',*,*,#1890,.F.);
#2410=ORIENTED_EDGE('',*,*,#1010,.F.);
#2420=EDGE_LOOP('',(#2410,#2400,#2390,#2380));
#2430=FACE_OUTER_BOUND('',#2420,.T.);
#2440=ADVANCED_FACE('',(#2430),#2320,.T.);
#2450=COLOUR_RGB('',0.560784339904785,0.588235318660736,
0.600000023841858);
#2460=FILL_AREA_STYLE_COLOUR('',#2450);
#2470=FILL_AREA_STYLE('',(#2460));
#2480=SURFACE_STYLE_FILL_AREA(#2470);
#2490=SURFACE_SIDE_STYLE('',(#2480));
#2500=SURFACE_STYLE_USAGE(.BOTH.,#2490);
#2510=PRESENTATION_STYLE_ASSIGNMENT((#2500));
#2520=CARTESIAN_POINT('',(38.75,-12.5338537576712,3.19999999999962));
#2530=DIRECTION('',(-0.,-1.,-0.));
#2540=DIRECTION('',(-1.,0.,0.));
#2550=AXIS2_PLACEMENT_3D('',#2520,#2530,#2540);
#2560=PLANE('',#2550);
#2570=ORIENTED_EDGE('',*,*,#2150,.T.);
#2580=ORIENTED_EDGE('',*,*,#300,.T.);
#2590=ORIENTED_EDGE('',*,*,#2370,.F.);
#2600=ORIENTED_EDGE('',*,*,#930,.F.);
#2610=EDGE_LOOP('',(#2600,#2590,#2580,#2570));
#2620=FACE_OUTER_BOUND('',#2610,.T.);
#2630=ADVANCED_FACE('',(#2620),#2560,.T.);
#2640=COLOUR_RGB('',0.560784339904785,0.588235318660736,
0.600000023841858);
#2650=FILL_AREA_STYLE_COLOUR('',#2640);
#2660=FILL_AREA_STYLE('',(#2650));
#2670=SURFACE_STYLE_FILL_AREA(#2660);
#2680=SURFACE_SIDE_STYLE('',(#2670));
#2690=SURFACE_STYLE_USAGE(.BOTH.,#2680);
#2700=PRESENTATION_STYLE_ASSIGNMENT((#2690));
#2710=CLOSED_SHELL('',(#1480,#1720,#1960,#2200,#2440,#2630,#560,#1190));
#2720=MANIFOLD_SOLID_BREP('',#2710);
#2730=CARTESIAN_POINT('',(0.,0.,0.));
#2740=DIRECTION('',(0.,0.,1.));
#2750=DIRECTION('',(1.,0.,0.));
#2760=AXIS2_PLACEMENT_3D('',#2730,#2740,#2750);
#2770=APPLICATION_CONTEXT(' ');
#2780=APPLICATION_PROTOCOL_DEFINITION(' ','automotive_design',1998,#2770
);
#2790=PRODUCT_CONTEXT('',#2770,'mechanical');
#2800=PRODUCT_DEFINITION_CONTEXT('part definition',#2770,'design');
#2810=PRODUCT('D_UGSK-select','D_UGSK-select','',(#2790));
#2820=PRODUCT_RELATED_PRODUCT_CATEGORY('part',' ',(#2810));
#2830=PRODUCT_DEFINITION_FORMATION_WITH_SPECIFIED_SOURCE('','',#2810,
.BOUGHT.);
#2840=PRODUCT_DEFINITION('',' ',#2830,#2800);
#2850=PRODUCT_DEFINITION_SHAPE('','',#2840);
#2860=DIMENSIONAL_EXPONENTS(1.,0.,0.,0.,0.,0.,0.);
#2870=DIMENSIONAL_EXPONENTS(0.,0.,0.,0.,0.,0.,0.);
#2880=DIMENSIONAL_EXPONENTS(0.,0.,0.,0.,0.,0.,0.);
#2890=(LENGTH_UNIT() NAMED_UNIT(*) SI_UNIT(.MILLI.,.METRE.));
#2900=(NAMED_UNIT(*) PLANE_ANGLE_UNIT() SI_UNIT($,.RADIAN.));
#2910=(NAMED_UNIT(*) SI_UNIT($,.STERADIAN.) SOLID_ANGLE_UNIT());
#2920=(GEOMETRIC_REPRESENTATION_CONTEXT(3) 
GLOBAL_UNCERTAINTY_ASSIGNED_CONTEXT((#2930)) 
GLOBAL_UNIT_ASSIGNED_CONTEXT((#2890,#2900,#2910)) REPRESENTATION_CONTEXT
('',''));
#2930=UNCERTAINTY_MEASURE_WITH_UNIT(LENGTH_MEASURE(1.E-6),#2890,
'distance_accuracy_value','maximum gap value');
#2940=ADVANCED_BREP_SHAPE_REPRESENTATION('',(#2760,#2720),#2920);
#2950=SHAPE_DEFINITION_REPRESENTATION(#2850,#2940);
#2960=COLOUR_RGB('',0.560784339904785,0.588235318660736,
0.600000023841858);
#2970=FILL_AREA_STYLE_COLOUR('',#2960);
#2980=FILL_AREA_STYLE('',(#2970));
#2990=SURFACE_STYLE_FILL_AREA(#2980);
#3000=SURFACE_SIDE_STYLE('',(#2990));
#3010=SURFACE_STYLE_USAGE(.BOTH.,#3000);
#3020=PRESENTATION_STYLE_ASSIGNMENT((#3010));
#3030=STYLED_ITEM('',(#3020),#2720);
#3040=OVER_RIDING_STYLED_ITEM('',(#630),#560,#3030);
#3050=OVER_RIDING_STYLED_ITEM('',(#1260),#1190,#3030);
#3060=OVER_RIDING_STYLED_ITEM('',(#1550),#1480,#3030);
#3070=OVER_RIDING_STYLED_ITEM('',(#1790),#1720,#3030);
#3080=OVER_RIDING_STYLED_ITEM('',(#2030),#1960,#3030);
#3090=OVER_RIDING_STYLED_ITEM('',(#2270),#2200,#3030);
#3100=OVER_RIDING_STYLED_ITEM('',(#2510),#2440,#3030);
#3110=OVER_RIDING_STYLED_ITEM('',(#2700),#2630,#3030);
#3120=DRAUGHTING_MODEL('',(#3030,#3040,#3050,#3060,#3070,#3080,#3090,
#3100,#3110),#2920);
#3130=CARTESIAN_POINT('',(5.39999999999962,41.25,12.533853757671));
#3140=DIRECTION('',(-1.,9.77832054459291E-17,0.));
#3150=DIRECTION('',(-9.77832054459291E-17,-1.,8.55492195974518E-18));
#3160=AXIS2_PLACEMENT_3D('',#3130,#3140,#3150);
#3170=ITEM_DEFINED_TRANSFORMATION('D_UGSK-select','',#2760,#3160);
#3180=APPLICATION_CONTEXT(' ');
#3190=APPLICATION_PROTOCOL_DEFINITION(' ','automotive_design',1998,#3180
);
#3200=PRODUCT_CONTEXT('',#3180,'mechanical');
#3210=PRODUCT_DEFINITION_CONTEXT('part definition',#3180,'design');
#3220=PRODUCT('D_UGSK-select','D_UGSK-select','',(#3200));
#3230=PRODUCT_RELATED_PRODUCT_CATEGORY('part',' ',(#3220));
#3240=PRODUCT_DEFINITION_FORMATION_WITH_SPECIFIED_SOURCE('','',#3220,
.BOUGHT.);
#3250=PRODUCT_DEFINITION('',' ',#3240,#3210);
#3260=PRODUCT_DEFINITION_SHAPE('','',#3250);
#3270=DIMENSIONAL_EXPONENTS(1.,0.,0.,0.,0.,0.,0.);
#3280=DIMENSIONAL_EXPONENTS(0.,0.,0.,0.,0.,0.,0.);
#3290=DIMENSIONAL_EXPONENTS(0.,0.,0.,0.,0.,0.,0.);
#3300=(LENGTH_UNIT() NAMED_UNIT(*) SI_UNIT(.MILLI.,.METRE.));
#3310=(NAMED_UNIT(*) PLANE_ANGLE_UNIT() SI_UNIT($,.RADIAN.));
#3320=(NAMED_UNIT(*) SI_UNIT($,.STERADIAN.) SOLID_ANGLE_UNIT());
#3330=(GEOMETRIC_REPRESENTATION_CONTEXT(3) 
GLOBAL_UNCERTAINTY_ASSIGNED_CONTEXT((#3340)) 
GLOBAL_UNIT_ASSIGNED_CONTEXT((#3300,#3310,#3320)) REPRESENTATION_CONTEXT
('',''));
#3340=UNCERTAINTY_MEASURE_WITH_UNIT(LENGTH_MEASURE(1.E-6),#3300,
'distance_accuracy_value','maximum gap value');
#3350=SHAPE_REPRESENTATION('',(#2760,#3160),#3330);
#3360=SHAPE_DEFINITION_REPRESENTATION(#3260,#3350);
#3370=(REPRESENTATION_RELATIONSHIP('','',#2940,#3350) 
REPRESENTATION_RELATIONSHIP_WITH_TRANSFORMATION(#3170) 
SHAPE_REPRESENTATION_RELATIONSHIP());
#3380=NEXT_ASSEMBLY_USAGE_OCCURRENCE('1','','D_UGSK-select',#3250,#2840,
'');
#3390=PRODUCT_DEFINITION_SHAPE('','',#3380);
#3400=CONTEXT_DEPENDENT_SHAPE_REPRESENTATION(#3370,#3390);
ENDSEC;
END-ISO-10303-21;
