ISO-10303-21;
HEADER;
FILE_DESCRIPTION(('Creo Elements/Direct Modeling STEP Export'),'2;1');
FILE_NAME(
'C:/temp/JobSpoolerServerData/JobServer Files/b21b0ae4-9781-4c69-9dad-65
678b714957/work/output/model.stp','2020-10-03T 0:03:58',(''),(''),
'Creo Elements/Direct Modeling STEP processor for AP214 (Solid Model)',
'Creo Elements/Direct Modeling 20.1A  29-Sep-2018 (C) Parametric Technol
ogy GmbH','');
FILE_SCHEMA(('AUTOMOTIVE_DESIGN { 1 0 10303 214 1 1 1 1 }'));
ENDSEC;
DATA;
#10=CARTESIAN_POINT('',(-6.52487373415292,-1.12386018237097,
1.76776695296637));
#20=DIRECTION('',(0.707106781186547,0.,0.707106781186548));
#30=DIRECTION('',(0.,-1.,0.));
#40=AXIS2_PLACEMENT_3D('',#10,#20,#30);
#50=PLANE('',#40);
#60=CARTESIAN_POINT('',(-1.53977092678776,0.876139817629035,
-3.21733585439879));
#70=DIRECTION('',(0.707106781186548,0.,-0.707106781186547));
#80=VECTOR('',#70,1.);
#90=LINE('',#60,#80);
#100=CARTESIAN_POINT('',(-2.99776179864232,0.876139817629035,
-1.75934498254423));
#110=VERTEX_POINT('',#100);
#120=CARTESIAN_POINT('',(-2.31190332425808,0.876139817629035,
-2.44520345692846));
#130=VERTEX_POINT('',#120);
#140=EDGE_CURVE('',#110,#130,#90,.T.);
#150=ORIENTED_EDGE('',*,*,#140,.F.);
#160=CARTESIAN_POINT('',(-2.31190332425808,-3.22386018237096,
-2.44520345692846));
#170=DIRECTION('',(0.,-1.,0.));
#180=VECTOR('',#170,1.);
#190=LINE('',#160,#180);
#200=CARTESIAN_POINT('',(-2.31190332425808,-1.12386018237097,
-2.44520345692846));
#210=VERTEX_POINT('',#200);
#220=EDGE_CURVE('',#130,#210,#190,.T.);
#230=ORIENTED_EDGE('',*,*,#220,.F.);
#240=CARTESIAN_POINT('',(-6.52487373415292,-1.12386018237097,
1.76776695296637));
#250=DIRECTION('',(0.707106781186548,0.,-0.707106781186547));
#260=VECTOR('',#250,1.);
#270=LINE('',#240,#260);
#280=CARTESIAN_POINT('',(-2.99776179864232,-1.12386018237097,
-1.75934498254423));
#290=VERTEX_POINT('',#280);
#300=EDGE_CURVE('',#290,#210,#270,.T.);
#310=ORIENTED_EDGE('',*,*,#300,.T.);
#320=CARTESIAN_POINT('',(-2.99776179864232,-0.623860182370965,
-1.75934498254422));
#330=DIRECTION('',(0.,1.,0.));
#340=VECTOR('',#330,1.);
#350=LINE('',#320,#340);
#360=EDGE_CURVE('',#290,#110,#350,.T.);
#370=ORIENTED_EDGE('',*,*,#360,.F.);
#380=EDGE_LOOP('',(#370,#310,#230,#150));
#390=FACE_OUTER_BOUND('',#380,.T.);
#400=ADVANCED_FACE('',(#390),#50,.T.);
#410=COLOUR_RGB('',0.823529481887817,0.823529481887817,0.784313797950745
);
#420=FILL_AREA_STYLE_COLOUR('',#410);
#430=FILL_AREA_STYLE('',(#420));
#440=SURFACE_STYLE_FILL_AREA(#430);
#450=SURFACE_SIDE_STYLE('',(#440));
#460=SURFACE_STYLE_USAGE(.BOTH.,#450);
#470=PRESENTATION_STYLE_ASSIGNMENT((#460));
#480=CARTESIAN_POINT('',(-5.81776695296637,-1.12386018237097,
2.47487373415292));
#490=DIRECTION('',(-0.,1.,0.));
#500=DIRECTION('',(0.707106781186547,0.,0.707106781186548));
#510=AXIS2_PLACEMENT_3D('',#480,#490,#500);
#520=PLANE('',#510);
#530=ORIENTED_EDGE('',*,*,#300,.F.);
#540=CARTESIAN_POINT('',(-4.05,-1.12386018237097,0.));
#550=DIRECTION('',(0.,-1.,0.));
#560=DIRECTION('',(-1.,0.,0.));
#570=AXIS2_PLACEMENT_3D('',#540,#550,#560);
#580=CIRCLE('',#570,3.);
#590=CARTESIAN_POINT('',(-1.60479654307154,-1.12386018237097,
-1.73809667574191));
#600=VERTEX_POINT('',#590);
#610=EDGE_CURVE('',#210,#600,#580,.T.);
#620=ORIENTED_EDGE('',*,*,#610,.F.);
#630=CARTESIAN_POINT('',(-5.81776695296637,-1.12386018237097,
2.47487373415292));
#640=DIRECTION('',(0.707106781186548,0.,-0.707106781186547));
#650=VECTOR('',#640,1.);
#660=LINE('',#630,#650);
#670=CARTESIAN_POINT('',(-2.29065501745577,-1.12386018237097,
-1.05223820135768));
#680=VERTEX_POINT('',#670);
#690=EDGE_CURVE('',#680,#600,#660,.T.);
#700=ORIENTED_EDGE('',*,*,#690,.T.);
#710=CARTESIAN_POINT('',(-4.05,-1.12386018237097,3.99680288865056E-15));
#720=DIRECTION('',(0.,1.,0.));
#730=DIRECTION('',(0.707106781186548,0.,-0.707106781186547));
#740=AXIS2_PLACEMENT_3D('',#710,#720,#730);
#750=CIRCLE('',#740,2.05);
#760=CARTESIAN_POINT('',(-2.60043109856758,-1.12386018237097,
-1.44956890143242));
#770=VERTEX_POINT('',#760);
#780=EDGE_CURVE('',#680,#770,#750,.T.);
#790=ORIENTED_EDGE('',*,*,#780,.F.);
#800=EDGE_CURVE('',#770,#290,#750,.T.);
#810=ORIENTED_EDGE('',*,*,#800,.F.);
#820=EDGE_LOOP('',(#810,#790,#700,#620,#530));
#830=FACE_OUTER_BOUND('',#820,.T.);
#840=ADVANCED_FACE('',(#830),#520,.T.);
#850=COLOUR_RGB('',0.823529481887817,0.823529481887817,0.784313797950745
);
#860=FILL_AREA_STYLE_COLOUR('',#850);
#870=FILL_AREA_STYLE('',(#860));
#880=SURFACE_STYLE_FILL_AREA(#870);
#890=SURFACE_SIDE_STYLE('',(#880));
#900=SURFACE_STYLE_USAGE(.BOTH.,#890);
#910=PRESENTATION_STYLE_ASSIGNMENT((#900));
#920=CARTESIAN_POINT('',(-4.05,-3.22386018237096,0.));
#930=DIRECTION('',(0.,-1.,0.));
#940=DIRECTION('',(-1.,0.,0.));
#950=AXIS2_PLACEMENT_3D('',#920,#930,#940);
#960=CYLINDRICAL_SURFACE('',#950,3.);
#970=CARTESIAN_POINT('',(-1.60479654307154,-3.22386018237096,
-1.73809667574191));
#980=DIRECTION('',(0.,-1.,0.));
#990=VECTOR('',#980,1.);
#1000=LINE('',#970,#990);
#1010=CARTESIAN_POINT('',(-1.60479654307154,0.876139817629035,
-1.73809667574191));
#1020=VERTEX_POINT('',#1010);
#1030=EDGE_CURVE('',#1020,#600,#1000,.T.);
#1040=ORIENTED_EDGE('',*,*,#1030,.F.);
#1050=ORIENTED_EDGE('',*,*,#610,.T.);
#1060=ORIENTED_EDGE('',*,*,#220,.T.);
#1070=CARTESIAN_POINT('',(-4.05,0.876139817629035,0.));
#1080=DIRECTION('',(0.,1.,0.));
#1090=DIRECTION('',(-1.,0.,0.));
#1100=AXIS2_PLACEMENT_3D('',#1070,#1080,#1090);
#1110=CIRCLE('',#1100,3.);
#1120=CARTESIAN_POINT('',(-7.05,0.876139817629035,0.));
#1130=VERTEX_POINT('',#1120);
#1140=EDGE_CURVE('',#130,#1130,#1110,.T.);
#1150=ORIENTED_EDGE('',*,*,#1140,.F.);
#1160=CARTESIAN_POINT('',(-7.05,-3.22386018237096,0.));
#1170=DIRECTION('',(0.,-1.,0.));
#1180=VECTOR('',#1170,1.);
#1190=LINE('',#1160,#1180);
#1200=CARTESIAN_POINT('',(-7.05,-16.1238601823709,0.));
#1210=VERTEX_POINT('',#1200);
#1220=EDGE_CURVE('',#1130,#1210,#1190,.T.);
#1230=ORIENTED_EDGE('',*,*,#1220,.F.);
#1240=CARTESIAN_POINT('',(-4.05,-16.1238601823709,0.));
#1250=DIRECTION('',(0.,-1.,0.));
#1260=DIRECTION('',(-1.,0.,0.));
#1270=AXIS2_PLACEMENT_3D('',#1240,#1250,#1260);
#1280=CIRCLE('',#1270,3.);
#1290=CARTESIAN_POINT('',(-1.05,-16.1238601823709,-3.67394039744206E-16)
);
#1300=VERTEX_POINT('',#1290);
#1310=EDGE_CURVE('',#1210,#1300,#1280,.T.);
#1320=ORIENTED_EDGE('',*,*,#1310,.F.);
#1330=CARTESIAN_POINT('',(-1.05,-3.22386018237096,-3.67394039744206E-16)
);
#1340=DIRECTION('',(0.,-1.,0.));
#1350=VECTOR('',#1340,1.);
#1360=LINE('',#1330,#1350);
#1370=CARTESIAN_POINT('',(-1.05,0.876139817629035,-3.67394039744206E-16)
);
#1380=VERTEX_POINT('',#1370);
#1390=EDGE_CURVE('',#1380,#1300,#1360,.T.);
#1400=ORIENTED_EDGE('',*,*,#1390,.T.);
#1410=CARTESIAN_POINT('',(-4.05,0.876139817629035,0.));
#1420=DIRECTION('',(0.,1.,0.));
#1430=DIRECTION('',(-1.,0.,0.));
#1440=AXIS2_PLACEMENT_3D('',#1410,#1420,#1430);
#1450=CIRCLE('',#1440,3.);
#1460=EDGE_CURVE('',#1380,#1020,#1450,.T.);
#1470=ORIENTED_EDGE('',*,*,#1460,.F.);
#1480=EDGE_LOOP('',(#1470,#1400,#1320,#1230,#1150,#1060,#1050,#1040));
#1490=FACE_OUTER_BOUND('',#1480,.T.);
#1500=ADVANCED_FACE('',(#1490),#960,.T.);
#1510=COLOUR_RGB('',0.823529481887817,0.823529481887817,
0.784313797950745);
#1520=FILL_AREA_STYLE_COLOUR('',#1510);
#1530=FILL_AREA_STYLE('',(#1520));
#1540=SURFACE_STYLE_FILL_AREA(#1530);
#1550=SURFACE_SIDE_STYLE('',(#1540));
#1560=SURFACE_STYLE_USAGE(.BOTH.,#1550);
#1570=PRESENTATION_STYLE_ASSIGNMENT((#1560));
#1580=CARTESIAN_POINT('',(-5.72028451130326,0.876139817629035,
1.84028328735095));
#1590=DIRECTION('',(0.,1.,0.));
#1600=DIRECTION('',(0.,0.,-1.));
#1610=AXIS2_PLACEMENT_3D('',#1580,#1590,#1600);
#1620=PLANE('',#1610);
#1630=CARTESIAN_POINT('',(-5.78809667574191,0.876139817629035,
2.44520345692847));
#1640=VERTEX_POINT('',#1630);
#1650=EDGE_CURVE('',#1640,#1380,#1450,.T.);
#1660=ORIENTED_EDGE('',*,*,#1650,.T.);
#1670=CARTESIAN_POINT('',(-0.83266414560121,0.876139817629035,
-2.51022907321224));
#1680=DIRECTION('',(-0.707106781186548,0.,0.707106781186547));
#1690=VECTOR('',#1680,1.);
#1700=LINE('',#1670,#1690);
#1710=CARTESIAN_POINT('',(-5.10223820135768,0.876139817629035,
1.75934498254423));
#1720=VERTEX_POINT('',#1710);
#1730=EDGE_CURVE('',#1720,#1640,#1700,.T.);
#1740=ORIENTED_EDGE('',*,*,#1730,.T.);
#1750=CARTESIAN_POINT('',(-4.05,0.876139817629036,3.99680288865056E-15))
;
#1760=DIRECTION('',(0.,-1.,0.));
#1770=DIRECTION('',(-0.707106781186548,0.,0.707106781186547));
#1780=AXIS2_PLACEMENT_3D('',#1750,#1760,#1770);
#1790=CIRCLE('',#1780,2.05);
#1800=CARTESIAN_POINT('',(-2.29065501745577,0.876139817629035,
-1.05223820135768));
#1810=VERTEX_POINT('',#1800);
#1820=EDGE_CURVE('',#1810,#1720,#1790,.T.);
#1830=ORIENTED_EDGE('',*,*,#1820,.T.);
#1840=EDGE_CURVE('',#1020,#1810,#1700,.T.);
#1850=ORIENTED_EDGE('',*,*,#1840,.T.);
#1860=ORIENTED_EDGE('',*,*,#1460,.T.);
#1870=EDGE_LOOP('',(#1860,#1850,#1830,#1740,#1660));
#1880=FACE_OUTER_BOUND('',#1870,.T.);
#1890=ADVANCED_FACE('',(#1880),#1620,.T.);
#1900=COLOUR_RGB('',0.823529481887817,0.823529481887817,
0.784313797950745);
#1910=FILL_AREA_STYLE_COLOUR('',#1900);
#1920=FILL_AREA_STYLE('',(#1910));
#1930=SURFACE_STYLE_FILL_AREA(#1920);
#1940=SURFACE_SIDE_STYLE('',(#1930));
#1950=SURFACE_STYLE_USAGE(.BOTH.,#1940);
#1960=PRESENTATION_STYLE_ASSIGNMENT((#1950));
#1970=CARTESIAN_POINT('',(-4.05,-0.623860182370965,3.99680288865056E-15)
);
#1980=DIRECTION('',(0.,1.,0.));
#1990=DIRECTION('',(0.707106781186548,0.,-0.707106781186547));
#2000=AXIS2_PLACEMENT_3D('',#1970,#1980,#1990);
#2010=CYLINDRICAL_SURFACE('',#2000,2.05);
#2020=CARTESIAN_POINT('',(-5.49956890143242,-0.623860182370965,
1.44956890143243));
#2030=DIRECTION('',(0.,1.,0.));
#2040=VECTOR('',#2030,1.);
#2050=LINE('',#2020,#2040);
#2060=CARTESIAN_POINT('',(-5.49956890143242,-9.12386018237097,
1.44956890143243));
#2070=VERTEX_POINT('',#2060);
#2080=CARTESIAN_POINT('',(-5.49956890143242,-1.12386018237097,
1.44956890143243));
#2090=VERTEX_POINT('',#2080);
#2100=EDGE_CURVE('',#2070,#2090,#2050,.T.);
#2110=ORIENTED_EDGE('',*,*,#2100,.F.);
#2120=CARTESIAN_POINT('',(-5.80934498254423,-1.12386018237097,
1.05223820135769));
#2130=VERTEX_POINT('',#2120);
#2140=EDGE_CURVE('',#2130,#2090,#750,.T.);
#2150=ORIENTED_EDGE('',*,*,#2140,.T.);
#2160=CARTESIAN_POINT('',(-5.80934498254423,-0.623860182370965,
1.05223820135769));
#2170=DIRECTION('',(0.,1.,0.));
#2180=VECTOR('',#2170,1.);
#2190=LINE('',#2160,#2180);
#2200=CARTESIAN_POINT('',(-5.80934498254423,0.876139817629035,
1.05223820135769));
#2210=VERTEX_POINT('',#2200);
#2220=EDGE_CURVE('',#2130,#2210,#2190,.T.);
#2230=ORIENTED_EDGE('',*,*,#2220,.F.);
#2240=EDGE_CURVE('',#2210,#110,#1790,.T.);
#2250=ORIENTED_EDGE('',*,*,#2240,.F.);
#2260=ORIENTED_EDGE('',*,*,#360,.T.);
#2270=ORIENTED_EDGE('',*,*,#800,.T.);
#2280=CARTESIAN_POINT('',(-2.60043109856758,-0.623860182370965,
-1.44956890143242));
#2290=DIRECTION('',(0.,1.,0.));
#2300=VECTOR('',#2290,1.);
#2310=LINE('',#2280,#2300);
#2320=CARTESIAN_POINT('',(-2.60043109856758,-9.12386018237097,
-1.44956890143242));
#2330=VERTEX_POINT('',#2320);
#2340=EDGE_CURVE('',#2330,#770,#2310,.T.);
#2350=ORIENTED_EDGE('',*,*,#2340,.T.);
#2360=CARTESIAN_POINT('',(-4.05,-9.12386018237097,6.66133814775094E-15))
;
#2370=DIRECTION('',(0.,1.,0.));
#2380=DIRECTION('',(0.707106781186548,0.,-0.707106781186547));
#2390=AXIS2_PLACEMENT_3D('',#2360,#2370,#2380);
#2400=CIRCLE('',#2390,2.05);
#2410=EDGE_CURVE('',#2330,#2070,#2400,.T.);
#2420=ORIENTED_EDGE('',*,*,#2410,.F.);
#2430=EDGE_LOOP('',(#2420,#2350,#2270,#2260,#2250,#2230,#2150,#2110));
#2440=FACE_OUTER_BOUND('',#2430,.T.);
#2450=ADVANCED_FACE('',(#2440),#2010,.F.);
#2460=COLOUR_RGB('',0.823529481887817,0.823529481887817,
0.784313797950745);
#2470=FILL_AREA_STYLE_COLOUR('',#2460);
#2480=FILL_AREA_STYLE('',(#2470));
#2490=SURFACE_STYLE_FILL_AREA(#2480);
#2500=SURFACE_SIDE_STYLE('',(#2490));
#2510=SURFACE_STYLE_USAGE(.BOTH.,#2500);
#2520=PRESENTATION_STYLE_ASSIGNMENT((#2510));
#2530=CARTESIAN_POINT('',(-5.05,-16.1238601823709,0.));
#2540=DIRECTION('',(7.65671051465625E-17,1.,0.));
#2550=DIRECTION('',(1.,-7.65671051465625E-17,0.));
#2560=AXIS2_PLACEMENT_3D('',#2530,#2540,#2550);
#2570=PLANE('',#2560);
#2580=ORIENTED_EDGE('',*,*,#1310,.T.);
#2590=EDGE_CURVE('',#1300,#1210,#1280,.T.);
#2600=ORIENTED_EDGE('',*,*,#2590,.T.);
#2610=EDGE_LOOP('',(#2600,#2580));
#2620=FACE_OUTER_BOUND('',#2610,.T.);
#2630=ADVANCED_FACE('',(#2620),#2570,.F.);
#2640=COLOUR_RGB('',0.823529481887817,0.823529481887817,
0.784313797950745);
#2650=FILL_AREA_STYLE_COLOUR('',#2640);
#2660=FILL_AREA_STYLE('',(#2650));
#2670=SURFACE_STYLE_FILL_AREA(#2660);
#2680=SURFACE_SIDE_STYLE('',(#2670));
#2690=SURFACE_STYLE_USAGE(.BOTH.,#2680);
#2700=PRESENTATION_STYLE_ASSIGNMENT((#2690));
#2710=ORIENTED_EDGE('',*,*,#2240,.T.);
#2720=CARTESIAN_POINT('',(-6.49520345692846,0.876139817629035,
1.73809667574192));
#2730=VERTEX_POINT('',#2720);
#2740=EDGE_CURVE('',#2730,#2210,#90,.T.);
#2750=ORIENTED_EDGE('',*,*,#2740,.T.);
#2760=EDGE_CURVE('',#1130,#2730,#1110,.T.);
#2770=ORIENTED_EDGE('',*,*,#2760,.T.);
#2780=ORIENTED_EDGE('',*,*,#1140,.T.);
#2790=ORIENTED_EDGE('',*,*,#140,.T.);
#2800=EDGE_LOOP('',(#2790,#2780,#2770,#2750,#2710));
#2810=FACE_OUTER_BOUND('',#2800,.T.);
#2820=ADVANCED_FACE('',(#2810),#1620,.T.);
#2830=COLOUR_RGB('',0.823529481887817,0.823529481887817,
0.784313797950745);
#2840=FILL_AREA_STYLE_COLOUR('',#2830);
#2850=FILL_AREA_STYLE('',(#2840));
#2860=SURFACE_STYLE_FILL_AREA(#2850);
#2870=SURFACE_SIDE_STYLE('',(#2860));
#2880=SURFACE_STYLE_USAGE(.BOTH.,#2870);
#2890=PRESENTATION_STYLE_ASSIGNMENT((#2880));
#2900=CARTESIAN_POINT('',(-5.81776695296637,0.876139817629035,
2.47487373415292));
#2910=DIRECTION('',(-0.707106781186547,0.,-0.707106781186548));
#2920=DIRECTION('',(0.,1.,0.));
#2930=AXIS2_PLACEMENT_3D('',#2900,#2910,#2920);
#2940=PLANE('',#2930);
#2950=CARTESIAN_POINT('',(-5.78809667574191,-1.12386018237097,
2.44520345692846));
#2960=VERTEX_POINT('',#2950);
#2970=CARTESIAN_POINT('',(-5.10223820135768,-1.12386018237097,
1.75934498254423));
#2980=VERTEX_POINT('',#2970);
#2990=EDGE_CURVE('',#2960,#2980,#660,.T.);
#3000=ORIENTED_EDGE('',*,*,#2990,.F.);
#3010=CARTESIAN_POINT('',(-5.10223820135768,-0.623860182370965,
1.75934498254423));
#3020=DIRECTION('',(0.,1.,0.));
#3030=VECTOR('',#3020,1.);
#3040=LINE('',#3010,#3030);
#3050=EDGE_CURVE('',#2980,#1720,#3040,.T.);
#3060=ORIENTED_EDGE('',*,*,#3050,.F.);
#3070=ORIENTED_EDGE('',*,*,#1730,.F.);
#3080=CARTESIAN_POINT('',(-5.78809667574191,-3.22386018237096,
2.44520345692846));
#3090=DIRECTION('',(0.,-1.,0.));
#3100=VECTOR('',#3090,1.);
#3110=LINE('',#3080,#3100);
#3120=EDGE_CURVE('',#1640,#2960,#3110,.T.);
#3130=ORIENTED_EDGE('',*,*,#3120,.F.);
#3140=EDGE_LOOP('',(#3130,#3070,#3060,#3000));
#3150=FACE_OUTER_BOUND('',#3140,.T.);
#3160=ADVANCED_FACE('',(#3150),#2940,.T.);
#3170=COLOUR_RGB('',0.823529481887817,0.823529481887817,
0.784313797950745);
#3180=FILL_AREA_STYLE_COLOUR('',#3170);
#3190=FILL_AREA_STYLE('',(#3180));
#3200=SURFACE_STYLE_FILL_AREA(#3190);
#3210=SURFACE_SIDE_STYLE('',(#3200));
#3220=SURFACE_STYLE_USAGE(.BOTH.,#3210);
#3230=PRESENTATION_STYLE_ASSIGNMENT((#3220));
#3240=ORIENTED_EDGE('',*,*,#2990,.T.);
#3250=CARTESIAN_POINT('',(-6.49520345692846,-1.12386018237097,
1.73809667574192));
#3260=VERTEX_POINT('',#3250);
#3270=EDGE_CURVE('',#2960,#3260,#580,.T.);
#3280=ORIENTED_EDGE('',*,*,#3270,.F.);
#3290=EDGE_CURVE('',#3260,#2130,#270,.T.);
#3300=ORIENTED_EDGE('',*,*,#3290,.F.);
#3310=ORIENTED_EDGE('',*,*,#2140,.F.);
#3320=EDGE_CURVE('',#2090,#2980,#750,.T.);
#3330=ORIENTED_EDGE('',*,*,#3320,.F.);
#3340=EDGE_LOOP('',(#3330,#3310,#3300,#3280,#3240));
#3350=FACE_OUTER_BOUND('',#3340,.T.);
#3360=ADVANCED_FACE('',(#3350),#520,.T.);
#3370=COLOUR_RGB('',0.823529481887817,0.823529481887817,
0.784313797950745);
#3380=FILL_AREA_STYLE_COLOUR('',#3370);
#3390=FILL_AREA_STYLE('',(#3380));
#3400=SURFACE_STYLE_FILL_AREA(#3390);
#3410=SURFACE_SIDE_STYLE('',(#3400));
#3420=SURFACE_STYLE_USAGE(.BOTH.,#3410);
#3430=PRESENTATION_STYLE_ASSIGNMENT((#3420));
#3440=ORIENTED_EDGE('',*,*,#2740,.F.);
#3450=ORIENTED_EDGE('',*,*,#2220,.T.);
#3460=ORIENTED_EDGE('',*,*,#3290,.T.);
#3470=CARTESIAN_POINT('',(-6.49520345692846,-3.22386018237096,
1.73809667574192));
#3480=DIRECTION('',(0.,-1.,0.));
#3490=VECTOR('',#3480,1.);
#3500=LINE('',#3470,#3490);
#3510=EDGE_CURVE('',#2730,#3260,#3500,.T.);
#3520=ORIENTED_EDGE('',*,*,#3510,.T.);
#3530=EDGE_LOOP('',(#3520,#3460,#3450,#3440));
#3540=FACE_OUTER_BOUND('',#3530,.T.);
#3550=ADVANCED_FACE('',(#3540),#50,.T.);
#3560=COLOUR_RGB('',0.823529481887817,0.823529481887817,
0.784313797950745);
#3570=FILL_AREA_STYLE_COLOUR('',#3560);
#3580=FILL_AREA_STYLE('',(#3570));
#3590=SURFACE_STYLE_FILL_AREA(#3580);
#3600=SURFACE_SIDE_STYLE('',(#3590));
#3610=SURFACE_STYLE_USAGE(.BOTH.,#3600);
#3620=PRESENTATION_STYLE_ASSIGNMENT((#3610));
#3630=ORIENTED_EDGE('',*,*,#1840,.F.);
#3640=CARTESIAN_POINT('',(-2.29065501745577,-0.623860182370965,
-1.05223820135768));
#3650=DIRECTION('',(0.,1.,0.));
#3660=VECTOR('',#3650,1.);
#3670=LINE('',#3640,#3660);
#3680=EDGE_CURVE('',#680,#1810,#3670,.T.);
#3690=ORIENTED_EDGE('',*,*,#3680,.T.);
#3700=ORIENTED_EDGE('',*,*,#690,.F.);
#3710=ORIENTED_EDGE('',*,*,#1030,.T.);
#3720=EDGE_LOOP('',(#3710,#3700,#3690,#3630));
#3730=FACE_OUTER_BOUND('',#3720,.T.);
#3740=ADVANCED_FACE('',(#3730),#2940,.T.);
#3750=COLOUR_RGB('',0.823529481887817,0.823529481887817,
0.784313797950745);
#3760=FILL_AREA_STYLE_COLOUR('',#3750);
#3770=FILL_AREA_STYLE('',(#3760));
#3780=SURFACE_STYLE_FILL_AREA(#3770);
#3790=SURFACE_SIDE_STYLE('',(#3780));
#3800=SURFACE_STYLE_USAGE(.BOTH.,#3790);
#3810=PRESENTATION_STYLE_ASSIGNMENT((#3800));
#3820=CARTESIAN_POINT('',(-4.05,-9.12386018237097,6.66133814775094E-15))
;
#3830=DIRECTION('',(0.,1.,0.));
#3840=DIRECTION('',(0.707106781186548,0.,-0.707106781186547));
#3850=AXIS2_PLACEMENT_3D('',#3820,#3830,#3840);
#3860=CONICAL_SURFACE('',#3850,2.05,1.04120672801282);
#3870=CARTESIAN_POINT('',(-2.60043109856758,-9.12386018237097,
-1.44956890143242));
#3880=DIRECTION('',(0.610243383537328,0.505179201568937,
-0.610243383537327));
#3890=VECTOR('',#3880,2.37539470404394);
#3900=LINE('',#3870,#3890);
#3910=CARTESIAN_POINT('',(-4.05,-10.323860182371,6.66133814775094E-15));
#3920=VERTEX_POINT('',#3910);
#3930=EDGE_CURVE('',#3920,#2330,#3900,.T.);
#3940=ORIENTED_EDGE('',*,*,#3930,.T.);
#3950=CARTESIAN_POINT('',(-5.49956890143242,-9.12386018237097,
1.44956890143243));
#3960=DIRECTION('',(-0.610243383537328,0.505179201568937,
0.610243383537327));
#3970=VECTOR('',#3960,2.37539470404394);
#3980=LINE('',#3950,#3970);
#3990=EDGE_CURVE('',#3920,#2070,#3980,.T.);
#4000=ORIENTED_EDGE('',*,*,#3990,.F.);
#4010=ORIENTED_EDGE('',*,*,#2410,.T.);
#4020=EDGE_LOOP('',(#4010,#4000,#3940));
#4030=FACE_OUTER_BOUND('',#4020,.T.);
#4040=ADVANCED_FACE('',(#4030),#3860,.F.);
#4050=COLOUR_RGB('',0.823529481887817,0.823529481887817,
0.784313797950745);
#4060=FILL_AREA_STYLE_COLOUR('',#4050);
#4070=FILL_AREA_STYLE('',(#4060));
#4080=SURFACE_STYLE_FILL_AREA(#4070);
#4090=SURFACE_SIDE_STYLE('',(#4080));
#4100=SURFACE_STYLE_USAGE(.BOTH.,#4090);
#4110=PRESENTATION_STYLE_ASSIGNMENT((#4100));
#4120=CARTESIAN_POINT('',(-4.05,-0.623860182370965,3.99680288865056E-15)
);
#4130=DIRECTION('',(0.,1.,0.));
#4140=DIRECTION('',(0.707106781186548,0.,-0.707106781186547));
#4150=AXIS2_PLACEMENT_3D('',#4120,#4130,#4140);
#4160=CYLINDRICAL_SURFACE('',#4150,2.05);
#4170=ORIENTED_EDGE('',*,*,#2100,.T.);
#4180=EDGE_CURVE('',#2070,#2330,#2400,.T.);
#4190=ORIENTED_EDGE('',*,*,#4180,.F.);
#4200=ORIENTED_EDGE('',*,*,#2340,.F.);
#4210=ORIENTED_EDGE('',*,*,#780,.T.);
#4220=ORIENTED_EDGE('',*,*,#3680,.F.);
#4230=ORIENTED_EDGE('',*,*,#1820,.F.);
#4240=ORIENTED_EDGE('',*,*,#3050,.T.);
#4250=ORIENTED_EDGE('',*,*,#3320,.T.);
#4260=EDGE_LOOP('',(#4250,#4240,#4230,#4220,#4210,#4200,#4190,#4170));
#4270=FACE_OUTER_BOUND('',#4260,.T.);
#4280=ADVANCED_FACE('',(#4270),#4160,.F.);
#4290=COLOUR_RGB('',0.823529481887817,0.823529481887817,
0.784313797950745);
#4300=FILL_AREA_STYLE_COLOUR('',#4290);
#4310=FILL_AREA_STYLE('',(#4300));
#4320=SURFACE_STYLE_FILL_AREA(#4310);
#4330=SURFACE_SIDE_STYLE('',(#4320));
#4340=SURFACE_STYLE_USAGE(.BOTH.,#4330);
#4350=PRESENTATION_STYLE_ASSIGNMENT((#4340));
#4360=CARTESIAN_POINT('',(-4.05,-9.12386018237097,6.66133814775094E-15))
;
#4370=DIRECTION('',(0.,1.,0.));
#4380=DIRECTION('',(0.707106781186548,0.,-0.707106781186547));
#4390=AXIS2_PLACEMENT_3D('',#4360,#4370,#4380);
#4400=CONICAL_SURFACE('',#4390,2.05,1.04120672801282);
#4410=ORIENTED_EDGE('',*,*,#3930,.F.);
#4420=ORIENTED_EDGE('',*,*,#4180,.T.);
#4430=ORIENTED_EDGE('',*,*,#3990,.T.);
#4440=EDGE_LOOP('',(#4430,#4420,#4410));
#4450=FACE_OUTER_BOUND('',#4440,.T.);
#4460=ADVANCED_FACE('',(#4450),#4400,.F.);
#4470=COLOUR_RGB('',0.823529481887817,0.823529481887817,
0.784313797950745);
#4480=FILL_AREA_STYLE_COLOUR('',#4470);
#4490=FILL_AREA_STYLE('',(#4480));
#4500=SURFACE_STYLE_FILL_AREA(#4490);
#4510=SURFACE_SIDE_STYLE('',(#4500));
#4520=SURFACE_STYLE_USAGE(.BOTH.,#4510);
#4530=PRESENTATION_STYLE_ASSIGNMENT((#4520));
#4540=CARTESIAN_POINT('',(-4.05,-3.22386018237096,0.));
#4550=DIRECTION('',(0.,-1.,0.));
#4560=DIRECTION('',(-1.,0.,0.));
#4570=AXIS2_PLACEMENT_3D('',#4540,#4550,#4560);
#4580=CYLINDRICAL_SURFACE('',#4570,3.);
#4590=ORIENTED_EDGE('',*,*,#1220,.T.);
#4600=ORIENTED_EDGE('',*,*,#2760,.F.);
#4610=ORIENTED_EDGE('',*,*,#3510,.F.);
#4620=ORIENTED_EDGE('',*,*,#3270,.T.);
#4630=ORIENTED_EDGE('',*,*,#3120,.T.);
#4640=ORIENTED_EDGE('',*,*,#1650,.F.);
#4650=ORIENTED_EDGE('',*,*,#1390,.F.);
#4660=ORIENTED_EDGE('',*,*,#2590,.F.);
#4670=EDGE_LOOP('',(#4660,#4650,#4640,#4630,#4620,#4610,#4600,#4590));
#4680=FACE_OUTER_BOUND('',#4670,.T.);
#4690=ADVANCED_FACE('',(#4680),#4580,.T.);
#4700=COLOUR_RGB('',0.823529481887817,0.823529481887817,
0.784313797950745);
#4710=FILL_AREA_STYLE_COLOUR('',#4700);
#4720=FILL_AREA_STYLE('',(#4710));
#4730=SURFACE_STYLE_FILL_AREA(#4720);
#4740=SURFACE_SIDE_STYLE('',(#4730));
#4750=SURFACE_STYLE_USAGE(.BOTH.,#4740);
#4760=PRESENTATION_STYLE_ASSIGNMENT((#4750));
#4770=CLOSED_SHELL('',(#400,#840,#1500,#1890,#2450,#2630,#2820,#3160,
#3360,#3550,#3740,#4040,#4280,#4460,#4690));
#4780=MANIFOLD_SOLID_BREP('',#4770);
#4790=CARTESIAN_POINT('',(0.,0.,0.));
#4800=DIRECTION('',(0.,0.,1.));
#4810=DIRECTION('',(1.,0.,0.));
#4820=AXIS2_PLACEMENT_3D('',#4790,#4800,#4810);
#4830=APPLICATION_CONTEXT(' ');
#4840=APPLICATION_PROTOCOL_DEFINITION(' ','automotive_design',1998,#4830
);
#4850=PRODUCT_CONTEXT('',#4830,'mechanical');
#4860=PRODUCT_DEFINITION_CONTEXT('part definition',#4830,'design');
#4870=PRODUCT('PSB_6_5_6-select','PSB_6_5_6-select','',(#4850));
#4880=PRODUCT_RELATED_PRODUCT_CATEGORY('part',' ',(#4870));
#4890=PRODUCT_DEFINITION_FORMATION_WITH_SPECIFIED_SOURCE('','',#4870,
.BOUGHT.);
#4900=PRODUCT_DEFINITION('',' ',#4890,#4860);
#4910=PRODUCT_DEFINITION_SHAPE('','',#4900);
#4920=DIMENSIONAL_EXPONENTS(1.,0.,0.,0.,0.,0.,0.);
#4930=DIMENSIONAL_EXPONENTS(0.,0.,0.,0.,0.,0.,0.);
#4940=DIMENSIONAL_EXPONENTS(0.,0.,0.,0.,0.,0.,0.);
#4950=(LENGTH_UNIT() NAMED_UNIT(*) SI_UNIT(.MILLI.,.METRE.));
#4960=(NAMED_UNIT(*) PLANE_ANGLE_UNIT() SI_UNIT($,.RADIAN.));
#4970=(NAMED_UNIT(*) SI_UNIT($,.STERADIAN.) SOLID_ANGLE_UNIT());
#4980=(GEOMETRIC_REPRESENTATION_CONTEXT(3) 
GLOBAL_UNCERTAINTY_ASSIGNED_CONTEXT((#4990)) 
GLOBAL_UNIT_ASSIGNED_CONTEXT((#4950,#4960,#4970)) REPRESENTATION_CONTEXT
('',''));
#4990=UNCERTAINTY_MEASURE_WITH_UNIT(LENGTH_MEASURE(1.E-6),#4950,
'distance_accuracy_value','maximum gap value');
#5000=ADVANCED_BREP_SHAPE_REPRESENTATION('',(#4820,#4780),#4980);
#5010=SHAPE_DEFINITION_REPRESENTATION(#4910,#5000);
#5020=COLOUR_RGB('',0.823529481887817,0.823529481887817,
0.784313797950745);
#5030=FILL_AREA_STYLE_COLOUR('',#5020);
#5040=FILL_AREA_STYLE('',(#5030));
#5050=SURFACE_STYLE_FILL_AREA(#5040);
#5060=SURFACE_SIDE_STYLE('',(#5050));
#5070=SURFACE_STYLE_USAGE(.BOTH.,#5060);
#5080=PRESENTATION_STYLE_ASSIGNMENT((#5070));
#5090=STYLED_ITEM('',(#5080),#4780);
#5100=OVER_RIDING_STYLED_ITEM('',(#470),#400,#5090);
#5110=OVER_RIDING_STYLED_ITEM('',(#910),#840,#5090);
#5120=OVER_RIDING_STYLED_ITEM('',(#1570),#1500,#5090);
#5130=OVER_RIDING_STYLED_ITEM('',(#1960),#1890,#5090);
#5140=OVER_RIDING_STYLED_ITEM('',(#2520),#2450,#5090);
#5150=OVER_RIDING_STYLED_ITEM('',(#2700),#2630,#5090);
#5160=OVER_RIDING_STYLED_ITEM('',(#2890),#2820,#5090);
#5170=OVER_RIDING_STYLED_ITEM('',(#3230),#3160,#5090);
#5180=OVER_RIDING_STYLED_ITEM('',(#3430),#3360,#5090);
#5190=OVER_RIDING_STYLED_ITEM('',(#3620),#3550,#5090);
#5200=OVER_RIDING_STYLED_ITEM('',(#3810),#3740,#5090);
#5210=OVER_RIDING_STYLED_ITEM('',(#4110),#4040,#5090);
#5220=OVER_RIDING_STYLED_ITEM('',(#4350),#4280,#5090);
#5230=OVER_RIDING_STYLED_ITEM('',(#4530),#4460,#5090);
#5240=OVER_RIDING_STYLED_ITEM('',(#4760),#4690,#5090);
#5250=DRAUGHTING_MODEL('',(#5090,#5100,#5110,#5120,#5130,#5140,#5150,
#5160,#5170,#5180,#5190,#5200,#5210,#5220,#5230,#5240),#4980);
#5260=CARTESIAN_POINT('',(7.05,3.,16.1238601823707));
#5270=DIRECTION('',(0.,-1.,0.));
#5280=DIRECTION('',(1.,0.,0.));
#5290=AXIS2_PLACEMENT_3D('',#5260,#5270,#5280);
#5300=ITEM_DEFINED_TRANSFORMATION('PSB_6_5_6-select','',#4820,#5290);
#5310=APPLICATION_CONTEXT(' ');
#5320=APPLICATION_PROTOCOL_DEFINITION(' ','automotive_design',1998,#5310
);
#5330=PRODUCT_CONTEXT('',#5310,'mechanical');
#5340=PRODUCT_DEFINITION_CONTEXT('part definition',#5310,'design');
#5350=PRODUCT('PSB_6_5_6-select','PSB_6_5_6-select','',(#5330));
#5360=PRODUCT_RELATED_PRODUCT_CATEGORY('part',' ',(#5350));
#5370=PRODUCT_DEFINITION_FORMATION_WITH_SPECIFIED_SOURCE('','',#5350,
.BOUGHT.);
#5380=PRODUCT_DEFINITION('',' ',#5370,#5340);
#5390=PRODUCT_DEFINITION_SHAPE('','',#5380);
#5400=DIMENSIONAL_EXPONENTS(1.,0.,0.,0.,0.,0.,0.);
#5410=DIMENSIONAL_EXPONENTS(0.,0.,0.,0.,0.,0.,0.);
#5420=DIMENSIONAL_EXPONENTS(0.,0.,0.,0.,0.,0.,0.);
#5430=(LENGTH_UNIT() NAMED_UNIT(*) SI_UNIT(.MILLI.,.METRE.));
#5440=(NAMED_UNIT(*) PLANE_ANGLE_UNIT() SI_UNIT($,.RADIAN.));
#5450=(NAMED_UNIT(*) SI_UNIT($,.STERADIAN.) SOLID_ANGLE_UNIT());
#5460=(GEOMETRIC_REPRESENTATION_CONTEXT(3) 
GLOBAL_UNCERTAINTY_ASSIGNED_CONTEXT((#5470)) 
GLOBAL_UNIT_ASSIGNED_CONTEXT((#5430,#5440,#5450)) REPRESENTATION_CONTEXT
('',''));
#5470=UNCERTAINTY_MEASURE_WITH_UNIT(LENGTH_MEASURE(1.E-6),#5430,
'distance_accuracy_value','maximum gap value');
#5480=SHAPE_REPRESENTATION('',(#4820,#5290),#5460);
#5490=SHAPE_DEFINITION_REPRESENTATION(#5390,#5480);
#5500=(REPRESENTATION_RELATIONSHIP('','',#5000,#5480) 
REPRESENTATION_RELATIONSHIP_WITH_TRANSFORMATION(#5300) 
SHAPE_REPRESENTATION_RELATIONSHIP());
#5510=NEXT_ASSEMBLY_USAGE_OCCURRENCE('1','','PSB_6_5_6-select',#5380,
#4900,'');
#5520=PRODUCT_DEFINITION_SHAPE('','',#5510);
#5530=CONTEXT_DEPENDENT_SHAPE_REPRESENTATION(#5500,#5520);
ENDSEC;
END-ISO-10303-21;
