ISO-10303-21;
HEADER;
FILE_DESCRIPTION(('Creo Elements/Direct Modeling STEP Export'),'2;1');
FILE_NAME(
'C:/temp/JobSpoolerServerData/JobServer Files/c8f5d6e4-78d7-40d8-a09c-88
0f5e74eee3/work/output/model.stp','2020-08-27T10:59:11',(''),(''),
'Creo Elements/Direct Modeling STEP processor for AP214 (Solid Model)',
'Creo Elements/Direct Modeling 20.1A  29-Sep-2018 (C) Parametric Technol
ogy GmbH','');
FILE_SCHEMA(('AUTOMOTIVE_DESIGN { 1 0 10303 214 1 1 1 1 }'));
ENDSEC;
DATA;
#10=CARTESIAN_POINT('',(0.,0.,0.));
#20=DIRECTION('',(0.,0.,1.));
#30=DIRECTION('',(1.,0.,0.));
#40=AXIS2_PLACEMENT_3D('',#10,#20,#30);
#50=PLANE('',#40);
#60=CARTESIAN_POINT('',(0.,-5.90000000000001,0.));
#70=DIRECTION('',(-1.,1.960117891752E-15,0.));
#80=VECTOR('',#70,1.);
#90=LINE('',#60,#80);
#100=CARTESIAN_POINT('',(-5.87830463590733E-16,-5.90000000000001,0.));
#110=VERTEX_POINT('',#100);
#120=CARTESIAN_POINT('',(-15.9,-5.89999999999997,0.));
#130=VERTEX_POINT('',#120);
#140=EDGE_CURVE('',#110,#130,#90,.T.);
#150=ORIENTED_EDGE('',*,*,#140,.T.);
#160=CARTESIAN_POINT('',(0.,-2.69999999999999,0.));
#170=DIRECTION('',(0.,0.,1.));
#180=DIRECTION('',(1.,0.,0.));
#190=AXIS2_PLACEMENT_3D('',#160,#170,#180);
#200=CIRCLE('',#190,3.20000000000002);
#210=CARTESIAN_POINT('',(3.18547580635788,-2.39546118948693,0.));
#220=VERTEX_POINT('',#210);
#230=EDGE_CURVE('',#110,#220,#200,.T.);
#240=ORIENTED_EDGE('',*,*,#230,.F.);
#250=CARTESIAN_POINT('',(0.,-1.40000000000009,0.));
#260=DIRECTION('',(0.95447997803503,-0.298274993135947,0.));
#270=VECTOR('',#260,1.);
#280=LINE('',#250,#270);
#290=CARTESIAN_POINT('',(-6.32155458861299E-17,-1.40000000000009,0.));
#300=VERTEX_POINT('',#290);
#310=EDGE_CURVE('',#300,#220,#280,.T.);
#320=ORIENTED_EDGE('',*,*,#310,.T.);
#330=CARTESIAN_POINT('',(0.,0.,0.));
#340=DIRECTION('',(0.,-1.,0.));
#350=VECTOR('',#340,1.);
#360=LINE('',#330,#350);
#370=CARTESIAN_POINT('',(0.,0.,0.));
#380=VERTEX_POINT('',#370);
#390=EDGE_CURVE('',#380,#300,#360,.T.);
#400=ORIENTED_EDGE('',*,*,#390,.T.);
#410=CARTESIAN_POINT('',(0.,0.,0.));
#420=DIRECTION('',(-0.70710678118655,-0.707106781186545,0.));
#430=VECTOR('',#420,1.);
#440=LINE('',#410,#430);
#450=CARTESIAN_POINT('',(7.5,7.49999999999994,0.));
#460=VERTEX_POINT('',#450);
#470=EDGE_CURVE('',#460,#380,#440,.T.);
#480=ORIENTED_EDGE('',*,*,#470,.T.);
#490=CARTESIAN_POINT('',(7.5,0.,0.));
#500=DIRECTION('',(0.,1.,0.));
#510=VECTOR('',#500,1.);
#520=LINE('',#490,#510);
#530=CARTESIAN_POINT('',(7.5,32.9,0.));
#540=VERTEX_POINT('',#530);
#550=EDGE_CURVE('',#460,#540,#520,.T.);
#560=ORIENTED_EDGE('',*,*,#550,.F.);
#570=CARTESIAN_POINT('',(40.3999999999995,0.,0.));
#580=DIRECTION('',(-0.707106781186543,0.707106781186552,0.));
#590=VECTOR('',#580,1.);
#600=LINE('',#570,#590);
#610=CARTESIAN_POINT('',(-0.899999999999949,41.3,0.));
#620=VERTEX_POINT('',#610);
#630=EDGE_CURVE('',#540,#620,#600,.T.);
#640=ORIENTED_EDGE('',*,*,#630,.F.);
#650=CARTESIAN_POINT('',(0.,41.3,0.));
#660=DIRECTION('',(-1.,0.,0.));
#670=VECTOR('',#660,1.);
#680=LINE('',#650,#670);
#690=CARTESIAN_POINT('',(-22.1000000000001,41.3000000000001,0.));
#700=VERTEX_POINT('',#690);
#710=EDGE_CURVE('',#620,#700,#680,.T.);
#720=ORIENTED_EDGE('',*,*,#710,.F.);
#730=CARTESIAN_POINT('',(-63.3999999999992,0.,0.));
#740=DIRECTION('',(-0.70710678118654,-0.707106781186555,0.));
#750=VECTOR('',#740,1.);
#760=LINE('',#730,#750);
#770=CARTESIAN_POINT('',(-30.5,32.9,0.));
#780=VERTEX_POINT('',#770);
#790=EDGE_CURVE('',#700,#780,#760,.T.);
#800=ORIENTED_EDGE('',*,*,#790,.F.);
#810=CARTESIAN_POINT('',(-30.5,0.,0.));
#820=DIRECTION('',(0.,-1.,0.));
#830=VECTOR('',#820,1.);
#840=LINE('',#810,#830);
#850=CARTESIAN_POINT('',(-30.5,10.5999999999999,0.));
#860=VERTEX_POINT('',#850);
#870=EDGE_CURVE('',#780,#860,#840,.T.);
#880=ORIENTED_EDGE('',*,*,#870,.F.);
#890=CARTESIAN_POINT('',(0.,-19.899999999999,0.));
#900=DIRECTION('',(0.70710678118656,-0.707106781186535,0.));
#910=VECTOR('',#900,1.);
#920=LINE('',#890,#910);
#930=CARTESIAN_POINT('',(-25.9999999999999,6.10000000000003,0.));
#940=VERTEX_POINT('',#930);
#950=EDGE_CURVE('',#860,#940,#920,.T.);
#960=ORIENTED_EDGE('',*,*,#950,.F.);
#970=CARTESIAN_POINT('',(0.,6.10000000000002,0.));
#980=DIRECTION('',(1.,0.,0.));
#990=VECTOR('',#980,1.);
#1000=LINE('',#970,#990);
#1010=CARTESIAN_POINT('',(-15.9,6.10000000000002,0.));
#1020=VERTEX_POINT('',#1010);
#1030=EDGE_CURVE('',#940,#1020,#1000,.T.);
#1040=ORIENTED_EDGE('',*,*,#1030,.F.);
#1050=CARTESIAN_POINT('',(-15.9,0.,0.));
#1060=DIRECTION('',(6.16297582203915E-32,1.,0.));
#1070=VECTOR('',#1060,1.);
#1080=LINE('',#1050,#1070);
#1090=EDGE_CURVE('',#130,#1020,#1080,.T.);
#1100=ORIENTED_EDGE('',*,*,#1090,.T.);
#1110=EDGE_LOOP('',(#1100,#1040,#960,#880,#800,#720,#640,#560,#480,#400,
#320,#240,#150));
#1120=FACE_OUTER_BOUND('',#1110,.T.);
#1130=ADVANCED_FACE('',(#1120),#50,.F.);
#1140=COLOUR_RGB('',0.560784339904785,0.588235318660736,
0.600000023841858);
#1150=FILL_AREA_STYLE_COLOUR('',#1140);
#1160=FILL_AREA_STYLE('',(#1150));
#1170=SURFACE_STYLE_FILL_AREA(#1160);
#1180=SURFACE_SIDE_STYLE('',(#1170));
#1190=SURFACE_STYLE_USAGE(.BOTH.,#1180);
#1200=PRESENTATION_STYLE_ASSIGNMENT((#1190));
#1210=CARTESIAN_POINT('',(0.,0.,4.));
#1220=DIRECTION('',(0.,0.,1.));
#1230=DIRECTION('',(1.,0.,0.));
#1240=AXIS2_PLACEMENT_3D('',#1210,#1220,#1230);
#1250=PLANE('',#1240);
#1260=CARTESIAN_POINT('',(-15.9,0.,4.));
#1270=DIRECTION('',(6.16297582203915E-32,1.,0.));
#1280=VECTOR('',#1270,1.);
#1290=LINE('',#1260,#1280);
#1300=CARTESIAN_POINT('',(-15.9,-5.89999999999997,4.));
#1310=VERTEX_POINT('',#1300);
#1320=CARTESIAN_POINT('',(-15.9,6.10000000000002,4.));
#1330=VERTEX_POINT('',#1320);
#1340=EDGE_CURVE('',#1310,#1330,#1290,.T.);
#1350=ORIENTED_EDGE('',*,*,#1340,.F.);
#1360=CARTESIAN_POINT('',(0.,6.10000000000002,4.));
#1370=DIRECTION('',(1.,0.,0.));
#1380=VECTOR('',#1370,1.);
#1390=LINE('',#1360,#1380);
#1400=CARTESIAN_POINT('',(-25.9999999999999,6.10000000000003,4.));
#1410=VERTEX_POINT('',#1400);
#1420=EDGE_CURVE('',#1410,#1330,#1390,.T.);
#1430=ORIENTED_EDGE('',*,*,#1420,.T.);
#1440=CARTESIAN_POINT('',(0.,-19.899999999999,4.));
#1450=DIRECTION('',(0.70710678118656,-0.707106781186535,0.));
#1460=VECTOR('',#1450,1.);
#1470=LINE('',#1440,#1460);
#1480=CARTESIAN_POINT('',(-30.5,10.5999999999999,4.));
#1490=VERTEX_POINT('',#1480);
#1500=EDGE_CURVE('',#1490,#1410,#1470,.T.);
#1510=ORIENTED_EDGE('',*,*,#1500,.T.);
#1520=CARTESIAN_POINT('',(-30.5,0.,4.));
#1530=DIRECTION('',(0.,-1.,0.));
#1540=VECTOR('',#1530,1.);
#1550=LINE('',#1520,#1540);
#1560=CARTESIAN_POINT('',(-30.5,32.9,4.));
#1570=VERTEX_POINT('',#1560);
#1580=EDGE_CURVE('',#1570,#1490,#1550,.T.);
#1590=ORIENTED_EDGE('',*,*,#1580,.T.);
#1600=CARTESIAN_POINT('',(-63.3999999999992,0.,4.));
#1610=DIRECTION('',(-0.70710678118654,-0.707106781186555,0.));
#1620=VECTOR('',#1610,1.);
#1630=LINE('',#1600,#1620);
#1640=CARTESIAN_POINT('',(-22.1000000000001,41.3,4.));
#1650=VERTEX_POINT('',#1640);
#1660=EDGE_CURVE('',#1650,#1570,#1630,.T.);
#1670=ORIENTED_EDGE('',*,*,#1660,.T.);
#1680=CARTESIAN_POINT('',(0.,41.3,4.));
#1690=DIRECTION('',(-1.,0.,0.));
#1700=VECTOR('',#1690,1.);
#1710=LINE('',#1680,#1700);
#1720=CARTESIAN_POINT('',(-0.899999999999949,41.3,4.));
#1730=VERTEX_POINT('',#1720);
#1740=EDGE_CURVE('',#1730,#1650,#1710,.T.);
#1750=ORIENTED_EDGE('',*,*,#1740,.T.);
#1760=CARTESIAN_POINT('',(40.3999999999995,0.,4.));
#1770=DIRECTION('',(-0.707106781186543,0.707106781186552,0.));
#1780=VECTOR('',#1770,1.);
#1790=LINE('',#1760,#1780);
#1800=CARTESIAN_POINT('',(7.5,32.9,4.));
#1810=VERTEX_POINT('',#1800);
#1820=EDGE_CURVE('',#1810,#1730,#1790,.T.);
#1830=ORIENTED_EDGE('',*,*,#1820,.T.);
#1840=CARTESIAN_POINT('',(7.5,0.,4.));
#1850=DIRECTION('',(0.,1.,0.));
#1860=VECTOR('',#1850,1.);
#1870=LINE('',#1840,#1860);
#1880=CARTESIAN_POINT('',(7.5,7.49999999999994,4.));
#1890=VERTEX_POINT('',#1880);
#1900=EDGE_CURVE('',#1890,#1810,#1870,.T.);
#1910=ORIENTED_EDGE('',*,*,#1900,.T.);
#1920=CARTESIAN_POINT('',(0.,0.,4.));
#1930=DIRECTION('',(-0.70710678118655,-0.707106781186545,0.));
#1940=VECTOR('',#1930,1.);
#1950=LINE('',#1920,#1940);
#1960=CARTESIAN_POINT('',(0.,0.,4.));
#1970=VERTEX_POINT('',#1960);
#1980=EDGE_CURVE('',#1890,#1970,#1950,.T.);
#1990=ORIENTED_EDGE('',*,*,#1980,.F.);
#2000=CARTESIAN_POINT('',(0.,0.,4.));
#2010=DIRECTION('',(0.,-1.,0.));
#2020=VECTOR('',#2010,1.);
#2030=LINE('',#2000,#2020);
#2040=CARTESIAN_POINT('',(-6.32155458861299E-17,-1.40000000000009,4.));
#2050=VERTEX_POINT('',#2040);
#2060=EDGE_CURVE('',#1970,#2050,#2030,.T.);
#2070=ORIENTED_EDGE('',*,*,#2060,.F.);
#2080=CARTESIAN_POINT('',(0.,-1.40000000000009,4.));
#2090=DIRECTION('',(0.95447997803503,-0.298274993135947,0.));
#2100=VECTOR('',#2090,1.);
#2110=LINE('',#2080,#2100);
#2120=CARTESIAN_POINT('',(3.18547580635788,-2.39546118948693,4.));
#2130=VERTEX_POINT('',#2120);
#2140=EDGE_CURVE('',#2050,#2130,#2110,.T.);
#2150=ORIENTED_EDGE('',*,*,#2140,.F.);
#2160=CARTESIAN_POINT('',(0.,-2.69999999999999,4.));
#2170=DIRECTION('',(0.,0.,1.));
#2180=DIRECTION('',(1.,0.,0.));
#2190=AXIS2_PLACEMENT_3D('',#2160,#2170,#2180);
#2200=CIRCLE('',#2190,3.20000000000002);
#2210=CARTESIAN_POINT('',(-5.87830463590733E-16,-5.90000000000001,4.));
#2220=VERTEX_POINT('',#2210);
#2230=EDGE_CURVE('',#2220,#2130,#2200,.T.);
#2240=ORIENTED_EDGE('',*,*,#2230,.T.);
#2250=CARTESIAN_POINT('',(0.,-5.90000000000001,4.));
#2260=DIRECTION('',(-1.,1.960117891752E-15,0.));
#2270=VECTOR('',#2260,1.);
#2280=LINE('',#2250,#2270);
#2290=EDGE_CURVE('',#2220,#1310,#2280,.T.);
#2300=ORIENTED_EDGE('',*,*,#2290,.F.);
#2310=EDGE_LOOP('',(#2300,#2240,#2150,#2070,#1990,#1910,#1830,#1750,
#1670,#1590,#1510,#1430,#1350));
#2320=FACE_OUTER_BOUND('',#2310,.T.);
#2330=ADVANCED_FACE('',(#2320),#1250,.T.);
#2340=COLOUR_RGB('',0.560784339904785,0.588235318660736,
0.600000023841858);
#2350=FILL_AREA_STYLE_COLOUR('',#2340);
#2360=FILL_AREA_STYLE('',(#2350));
#2370=SURFACE_STYLE_FILL_AREA(#2360);
#2380=SURFACE_SIDE_STYLE('',(#2370));
#2390=SURFACE_STYLE_USAGE(.BOTH.,#2380);
#2400=PRESENTATION_STYLE_ASSIGNMENT((#2390));
#2410=CARTESIAN_POINT('',(0.,-2.69999999999999,0.));
#2420=DIRECTION('',(0.,0.,1.));
#2430=DIRECTION('',(1.,0.,0.));
#2440=AXIS2_PLACEMENT_3D('',#2410,#2420,#2430);
#2450=CYLINDRICAL_SURFACE('',#2440,3.20000000000002);
#2460=CARTESIAN_POINT('',(0.,-5.90000000000001,0.));
#2470=DIRECTION('',(0.,0.,1.));
#2480=VECTOR('',#2470,1.);
#2490=LINE('',#2460,#2480);
#2500=EDGE_CURVE('',#110,#2220,#2490,.T.);
#2510=ORIENTED_EDGE('',*,*,#2500,.F.);
#2520=ORIENTED_EDGE('',*,*,#2230,.F.);
#2530=CARTESIAN_POINT('',(3.18547580635788,-2.39546118948693,0.));
#2540=DIRECTION('',(0.,0.,1.));
#2550=VECTOR('',#2540,1.);
#2560=LINE('',#2530,#2550);
#2570=EDGE_CURVE('',#220,#2130,#2560,.T.);
#2580=ORIENTED_EDGE('',*,*,#2570,.T.);
#2590=ORIENTED_EDGE('',*,*,#230,.T.);
#2600=EDGE_LOOP('',(#2590,#2580,#2520,#2510));
#2610=FACE_OUTER_BOUND('',#2600,.T.);
#2620=ADVANCED_FACE('',(#2610),#2450,.T.);
#2630=COLOUR_RGB('',0.560784339904785,0.588235318660736,
0.600000023841858);
#2640=FILL_AREA_STYLE_COLOUR('',#2630);
#2650=FILL_AREA_STYLE('',(#2640));
#2660=SURFACE_STYLE_FILL_AREA(#2650);
#2670=SURFACE_SIDE_STYLE('',(#2660));
#2680=SURFACE_STYLE_USAGE(.BOTH.,#2670);
#2690=PRESENTATION_STYLE_ASSIGNMENT((#2680));
#2700=CARTESIAN_POINT('',(3.20000000000002,-2.40000000000009,
-8.19999999999999));
#2710=DIRECTION('',(-0.298274993135947,-0.95447997803503,
-2.78167482641528E-16));
#2720=DIRECTION('',(0.95447997803503,-0.298274993135947,
1.45706776621753E-16));
#2730=AXIS2_PLACEMENT_3D('',#2700,#2710,#2720);
#2740=PLANE('',#2730);
#2750=ORIENTED_EDGE('',*,*,#2570,.F.);
#2760=ORIENTED_EDGE('',*,*,#2140,.T.);
#2770=CARTESIAN_POINT('',(0.,-1.40000000000001,0.));
#2780=DIRECTION('',(0.,0.,1.));
#2790=VECTOR('',#2780,1.);
#2800=LINE('',#2770,#2790);
#2810=EDGE_CURVE('',#300,#2050,#2800,.T.);
#2820=ORIENTED_EDGE('',*,*,#2810,.T.);
#2830=ORIENTED_EDGE('',*,*,#310,.F.);
#2840=EDGE_LOOP('',(#2830,#2820,#2760,#2750));
#2850=FACE_OUTER_BOUND('',#2840,.T.);
#2860=ADVANCED_FACE('',(#2850),#2740,.F.);
#2870=COLOUR_RGB('',0.560784339904785,0.588235318660736,
0.600000023841858);
#2880=FILL_AREA_STYLE_COLOUR('',#2870);
#2890=FILL_AREA_STYLE('',(#2880));
#2900=SURFACE_STYLE_FILL_AREA(#2890);
#2910=SURFACE_SIDE_STYLE('',(#2900));
#2920=SURFACE_STYLE_USAGE(.BOTH.,#2910);
#2930=PRESENTATION_STYLE_ASSIGNMENT((#2920));
#2940=CARTESIAN_POINT('',(-30.5,11.0142135623731,0.));
#2950=DIRECTION('',(-1.,0.,0.));
#2960=DIRECTION('',(0.,1.,0.));
#2970=AXIS2_PLACEMENT_3D('',#2940,#2950,#2960);
#2980=PLANE('',#2970);
#2990=ORIENTED_EDGE('',*,*,#870,.T.);
#3000=CARTESIAN_POINT('',(-30.5,32.8999999999999,0.));
#3010=DIRECTION('',(0.,0.,-1.));
#3020=VECTOR('',#3010,1.);
#3030=LINE('',#3000,#3020);
#3040=EDGE_CURVE('',#1570,#780,#3030,.T.);
#3050=ORIENTED_EDGE('',*,*,#3040,.T.);
#3060=ORIENTED_EDGE('',*,*,#1580,.F.);
#3070=CARTESIAN_POINT('',(-30.5,10.5999999999999,0.));
#3080=DIRECTION('',(0.,0.,-1.));
#3090=VECTOR('',#3080,1.);
#3100=LINE('',#3070,#3090);
#3110=EDGE_CURVE('',#1490,#860,#3100,.T.);
#3120=ORIENTED_EDGE('',*,*,#3110,.F.);
#3130=EDGE_LOOP('',(#3120,#3060,#3050,#2990));
#3140=FACE_OUTER_BOUND('',#3130,.T.);
#3150=ADVANCED_FACE('',(#3140),#2980,.T.);
#3160=COLOUR_RGB('',0.560784339904785,0.588235318660736,
0.600000023841858);
#3170=FILL_AREA_STYLE_COLOUR('',#3160);
#3180=FILL_AREA_STYLE('',(#3170));
#3190=SURFACE_STYLE_FILL_AREA(#3180);
#3200=SURFACE_SIDE_STYLE('',(#3190));
#3210=SURFACE_STYLE_USAGE(.BOTH.,#3200);
#3220=PRESENTATION_STYLE_ASSIGNMENT((#3210));
#3230=CARTESIAN_POINT('',(0.,0.,0.));
#3240=DIRECTION('',(1.,0.,0.));
#3250=DIRECTION('',(0.,-1.,0.));
#3260=AXIS2_PLACEMENT_3D('',#3230,#3240,#3250);
#3270=PLANE('',#3260);
#3280=ORIENTED_EDGE('',*,*,#2810,.F.);
#3290=ORIENTED_EDGE('',*,*,#2060,.T.);
#3300=CARTESIAN_POINT('',(0.,0.,0.));
#3310=DIRECTION('',(0.,0.,1.));
#3320=VECTOR('',#3310,1.);
#3330=LINE('',#3300,#3320);
#3340=EDGE_CURVE('',#380,#1970,#3330,.T.);
#3350=ORIENTED_EDGE('',*,*,#3340,.T.);
#3360=ORIENTED_EDGE('',*,*,#390,.F.);
#3370=EDGE_LOOP('',(#3360,#3350,#3290,#3280));
#3380=FACE_OUTER_BOUND('',#3370,.T.);
#3390=ADVANCED_FACE('',(#3380),#3270,.T.);
#3400=COLOUR_RGB('',0.560784339904785,0.588235318660736,
0.600000023841858);
#3410=FILL_AREA_STYLE_COLOUR('',#3400);
#3420=FILL_AREA_STYLE('',(#3410));
#3430=SURFACE_STYLE_FILL_AREA(#3420);
#3440=SURFACE_SIDE_STYLE('',(#3430));
#3450=SURFACE_STYLE_USAGE(.BOTH.,#3440);
#3460=PRESENTATION_STYLE_ASSIGNMENT((#3450));
#3470=CARTESIAN_POINT('',(7.20710678118661,7.20710678118655,0.));
#3480=DIRECTION('',(0.707106781186545,-0.70710678118655,0.));
#3490=DIRECTION('',(-0.70710678118655,-0.707106781186545,0.));
#3500=AXIS2_PLACEMENT_3D('',#3470,#3480,#3490);
#3510=PLANE('',#3500);
#3520=ORIENTED_EDGE('',*,*,#470,.F.);
#3530=ORIENTED_EDGE('',*,*,#3340,.F.);
#3540=ORIENTED_EDGE('',*,*,#1980,.T.);
#3550=CARTESIAN_POINT('',(7.5,7.49999999999994,0.));
#3560=DIRECTION('',(0.,0.,-1.));
#3570=VECTOR('',#3560,1.);
#3580=LINE('',#3550,#3570);
#3590=EDGE_CURVE('',#1890,#460,#3580,.T.);
#3600=ORIENTED_EDGE('',*,*,#3590,.F.);
#3610=EDGE_LOOP('',(#3600,#3540,#3530,#3520));
#3620=FACE_OUTER_BOUND('',#3610,.T.);
#3630=ADVANCED_FACE('',(#3620),#3510,.T.);
#3640=COLOUR_RGB('',0.560784339904785,0.588235318660736,
0.600000023841858);
#3650=FILL_AREA_STYLE_COLOUR('',#3640);
#3660=FILL_AREA_STYLE('',(#3650));
#3670=SURFACE_STYLE_FILL_AREA(#3660);
#3680=SURFACE_SIDE_STYLE('',(#3670));
#3690=SURFACE_STYLE_USAGE(.BOTH.,#3680);
#3700=PRESENTATION_STYLE_ASSIGNMENT((#3690));
#3710=CARTESIAN_POINT('',(-26.2928932188134,6.39289321881347,0.));
#3720=DIRECTION('',(-0.707106781186535,-0.70710678118656,-0.));
#3730=DIRECTION('',(-0.70710678118656,0.707106781186535,0.));
#3740=AXIS2_PLACEMENT_3D('',#3710,#3720,#3730);
#3750=PLANE('',#3740);
#3760=ORIENTED_EDGE('',*,*,#950,.T.);
#3770=ORIENTED_EDGE('',*,*,#3110,.T.);
#3780=ORIENTED_EDGE('',*,*,#1500,.F.);
#3790=CARTESIAN_POINT('',(-25.9999999999999,6.10000000000002,0.));
#3800=DIRECTION('',(0.,0.,-1.));
#3810=VECTOR('',#3800,1.);
#3820=LINE('',#3790,#3810);
#3830=EDGE_CURVE('',#1410,#940,#3820,.T.);
#3840=ORIENTED_EDGE('',*,*,#3830,.F.);
#3850=EDGE_LOOP('',(#3840,#3780,#3770,#3760));
#3860=FACE_OUTER_BOUND('',#3850,.T.);
#3870=ADVANCED_FACE('',(#3860),#3750,.T.);
#3880=COLOUR_RGB('',0.560784339904785,0.588235318660736,
0.600000023841858);
#3890=FILL_AREA_STYLE_COLOUR('',#3880);
#3900=FILL_AREA_STYLE('',(#3890));
#3910=SURFACE_STYLE_FILL_AREA(#3900);
#3920=SURFACE_SIDE_STYLE('',(#3910));
#3930=SURFACE_STYLE_USAGE(.BOTH.,#3920);
#3940=PRESENTATION_STYLE_ASSIGNMENT((#3930));
#3950=CARTESIAN_POINT('',(7.5,32.2786796564404,0.));
#3960=DIRECTION('',(1.,0.,0.));
#3970=DIRECTION('',(0.,-1.,0.));
#3980=AXIS2_PLACEMENT_3D('',#3950,#3960,#3970);
#3990=PLANE('',#3980);
#4000=ORIENTED_EDGE('',*,*,#3590,.T.);
#4010=ORIENTED_EDGE('',*,*,#1900,.F.);
#4020=CARTESIAN_POINT('',(7.5,32.9,0.));
#4030=DIRECTION('',(0.,0.,-1.));
#4040=VECTOR('',#4030,1.);
#4050=LINE('',#4020,#4040);
#4060=EDGE_CURVE('',#1810,#540,#4050,.T.);
#4070=ORIENTED_EDGE('',*,*,#4060,.F.);
#4080=ORIENTED_EDGE('',*,*,#550,.T.);
#4090=EDGE_LOOP('',(#4080,#4070,#4010,#4000));
#4100=FACE_OUTER_BOUND('',#4090,.T.);
#4110=ADVANCED_FACE('',(#4100),#3990,.T.);
#4120=COLOUR_RGB('',0.560784339904785,0.588235318660736,
0.600000023841858);
#4130=FILL_AREA_STYLE_COLOUR('',#4120);
#4140=FILL_AREA_STYLE('',(#4130));
#4150=SURFACE_STYLE_FILL_AREA(#4140);
#4160=SURFACE_SIDE_STYLE('',(#4150));
#4170=SURFACE_STYLE_USAGE(.BOTH.,#4160);
#4180=PRESENTATION_STYLE_ASSIGNMENT((#4170));
#4190=CARTESIAN_POINT('',(-15.9,-0.139463796000769,-8.2));
#4200=DIRECTION('',(1.,-6.16297582203915E-32,2.22044604925031E-16));
#4210=DIRECTION('',(1.23259516440783E-32,1.,2.22044604925031E-16));
#4220=AXIS2_PLACEMENT_3D('',#4190,#4200,#4210);
#4230=PLANE('',#4220);
#4240=ORIENTED_EDGE('',*,*,#1090,.F.);
#4250=CARTESIAN_POINT('',(-15.9,6.10000000000002,0.));
#4260=DIRECTION('',(-2.22044604925031E-16,0.,1.));
#4270=VECTOR('',#4260,1.);
#4280=LINE('',#4250,#4270);
#4290=EDGE_CURVE('',#1020,#1330,#4280,.T.);
#4300=ORIENTED_EDGE('',*,*,#4290,.F.);
#4310=ORIENTED_EDGE('',*,*,#1340,.T.);
#4320=CARTESIAN_POINT('',(-15.9,-5.89999999999997,0.));
#4330=DIRECTION('',(2.22044604925031E-16,-4.43734259186819E-31,-1.));
#4340=VECTOR('',#4330,1.);
#4350=LINE('',#4320,#4340);
#4360=EDGE_CURVE('',#1310,#130,#4350,.T.);
#4370=ORIENTED_EDGE('',*,*,#4360,.F.);
#4380=EDGE_LOOP('',(#4370,#4310,#4300,#4240));
#4390=FACE_OUTER_BOUND('',#4380,.T.);
#4400=ADVANCED_FACE('',(#4390),#4230,.F.);
#4410=COLOUR_RGB('',0.560784339904785,0.588235318660736,
0.600000023841858);
#4420=FILL_AREA_STYLE_COLOUR('',#4410);
#4430=FILL_AREA_STYLE('',(#4420));
#4440=SURFACE_STYLE_FILL_AREA(#4430);
#4450=SURFACE_SIDE_STYLE('',(#4440));
#4460=SURFACE_STYLE_USAGE(.BOTH.,#4450);
#4470=PRESENTATION_STYLE_ASSIGNMENT((#4460));
#4480=CARTESIAN_POINT('',(-0.607106781186502,41.0071067811866,0.));
#4490=DIRECTION('',(0.707106781186552,0.707106781186543,0.));
#4500=DIRECTION('',(0.707106781186543,-0.707106781186552,0.));
#4510=AXIS2_PLACEMENT_3D('',#4480,#4490,#4500);
#4520=PLANE('',#4510);
#4530=ORIENTED_EDGE('',*,*,#630,.T.);
#4540=ORIENTED_EDGE('',*,*,#4060,.T.);
#4550=ORIENTED_EDGE('',*,*,#1820,.F.);
#4560=CARTESIAN_POINT('',(-0.899999999999947,41.3,0.));
#4570=DIRECTION('',(0.,0.,-1.));
#4580=VECTOR('',#4570,1.);
#4590=LINE('',#4560,#4580);
#4600=EDGE_CURVE('',#1730,#620,#4590,.T.);
#4610=ORIENTED_EDGE('',*,*,#4600,.F.);
#4620=EDGE_LOOP('',(#4610,#4550,#4540,#4530));
#4630=FACE_OUTER_BOUND('',#4620,.T.);
#4640=ADVANCED_FACE('',(#4630),#4520,.T.);
#4650=COLOUR_RGB('',0.560784339904785,0.588235318660736,
0.600000023841858);
#4660=FILL_AREA_STYLE_COLOUR('',#4650);
#4670=FILL_AREA_STYLE('',(#4660));
#4680=SURFACE_STYLE_FILL_AREA(#4670);
#4690=SURFACE_SIDE_STYLE('',(#4680));
#4700=SURFACE_STYLE_USAGE(.BOTH.,#4690);
#4710=PRESENTATION_STYLE_ASSIGNMENT((#4700));
#4720=CARTESIAN_POINT('',(-16.,6.10000000000002,0.));
#4730=DIRECTION('',(-0.,-1.,-0.));
#4740=DIRECTION('',(-1.,0.,0.));
#4750=AXIS2_PLACEMENT_3D('',#4720,#4730,#4740);
#4760=PLANE('',#4750);
#4770=ORIENTED_EDGE('',*,*,#3830,.T.);
#4780=ORIENTED_EDGE('',*,*,#1420,.F.);
#4790=ORIENTED_EDGE('',*,*,#4290,.T.);
#4800=ORIENTED_EDGE('',*,*,#1030,.T.);
#4810=EDGE_LOOP('',(#4800,#4790,#4780,#4770));
#4820=FACE_OUTER_BOUND('',#4810,.T.);
#4830=ADVANCED_FACE('',(#4820),#4760,.T.);
#4840=COLOUR_RGB('',0.560784339904785,0.588235318660736,
0.600000023841858);
#4850=FILL_AREA_STYLE_COLOUR('',#4840);
#4860=FILL_AREA_STYLE('',(#4850));
#4870=SURFACE_STYLE_FILL_AREA(#4860);
#4880=SURFACE_SIDE_STYLE('',(#4870));
#4890=SURFACE_STYLE_USAGE(.BOTH.,#4880);
#4900=PRESENTATION_STYLE_ASSIGNMENT((#4890));
#4910=CARTESIAN_POINT('',(-21.6857864376269,41.3,0.));
#4920=DIRECTION('',(-0.,1.,0.));
#4930=DIRECTION('',(1.,0.,0.));
#4940=AXIS2_PLACEMENT_3D('',#4910,#4920,#4930);
#4950=PLANE('',#4940);
#4960=ORIENTED_EDGE('',*,*,#4600,.T.);
#4970=ORIENTED_EDGE('',*,*,#1740,.F.);
#4980=CARTESIAN_POINT('',(-22.1000000000001,41.3,0.));
#4990=DIRECTION('',(0.,0.,-1.));
#5000=VECTOR('',#4990,1.);
#5010=LINE('',#4980,#5000);
#5020=EDGE_CURVE('',#1650,#700,#5010,.T.);
#5030=ORIENTED_EDGE('',*,*,#5020,.F.);
#5040=ORIENTED_EDGE('',*,*,#710,.T.);
#5050=EDGE_LOOP('',(#5040,#5030,#4970,#4960));
#5060=FACE_OUTER_BOUND('',#5050,.T.);
#5070=ADVANCED_FACE('',(#5060),#4950,.T.);
#5080=COLOUR_RGB('',0.560784339904785,0.588235318660736,
0.600000023841858);
#5090=FILL_AREA_STYLE_COLOUR('',#5080);
#5100=FILL_AREA_STYLE('',(#5090));
#5110=SURFACE_STYLE_FILL_AREA(#5100);
#5120=SURFACE_SIDE_STYLE('',(#5110));
#5130=SURFACE_STYLE_USAGE(.BOTH.,#5120);
#5140=PRESENTATION_STYLE_ASSIGNMENT((#5130));
#5150=CARTESIAN_POINT('',(0.,-5.90000000000001,0.));
#5160=DIRECTION('',(-1.960117891752E-15,-1.,-0.));
#5170=DIRECTION('',(-1.,1.960117891752E-15,0.));
#5180=AXIS2_PLACEMENT_3D('',#5150,#5160,#5170);
#5190=PLANE('',#5180);
#5200=ORIENTED_EDGE('',*,*,#4360,.T.);
#5210=ORIENTED_EDGE('',*,*,#2290,.T.);
#5220=ORIENTED_EDGE('',*,*,#2500,.T.);
#5230=ORIENTED_EDGE('',*,*,#140,.F.);
#5240=EDGE_LOOP('',(#5230,#5220,#5210,#5200));
#5250=FACE_OUTER_BOUND('',#5240,.T.);
#5260=ADVANCED_FACE('',(#5250),#5190,.T.);
#5270=COLOUR_RGB('',0.560784339904785,0.588235318660736,
0.600000023841858);
#5280=FILL_AREA_STYLE_COLOUR('',#5270);
#5290=FILL_AREA_STYLE('',(#5280));
#5300=SURFACE_STYLE_FILL_AREA(#5290);
#5310=SURFACE_SIDE_STYLE('',(#5300));
#5320=SURFACE_STYLE_USAGE(.BOTH.,#5310);
#5330=PRESENTATION_STYLE_ASSIGNMENT((#5320));
#5340=CARTESIAN_POINT('',(-30.0606601717798,33.3393398282202,0.));
#5350=DIRECTION('',(-0.707106781186555,0.70710678118654,0.));
#5360=DIRECTION('',(0.70710678118654,0.707106781186555,0.));
#5370=AXIS2_PLACEMENT_3D('',#5340,#5350,#5360);
#5380=PLANE('',#5370);
#5390=ORIENTED_EDGE('',*,*,#790,.T.);
#5400=ORIENTED_EDGE('',*,*,#5020,.T.);
#5410=ORIENTED_EDGE('',*,*,#1660,.F.);
#5420=ORIENTED_EDGE('',*,*,#3040,.F.);
#5430=EDGE_LOOP('',(#5420,#5410,#5400,#5390));
#5440=FACE_OUTER_BOUND('',#5430,.T.);
#5450=ADVANCED_FACE('',(#5440),#5380,.T.);
#5460=COLOUR_RGB('',0.560784339904785,0.588235318660736,
0.600000023841858);
#5470=FILL_AREA_STYLE_COLOUR('',#5460);
#5480=FILL_AREA_STYLE('',(#5470));
#5490=SURFACE_STYLE_FILL_AREA(#5480);
#5500=SURFACE_SIDE_STYLE('',(#5490));
#5510=SURFACE_STYLE_USAGE(.BOTH.,#5500);
#5520=PRESENTATION_STYLE_ASSIGNMENT((#5510));
#5530=CLOSED_SHELL('',(#2620,#2860,#3150,#3390,#3630,#3870,#4110,#4400,
#4640,#4830,#5070,#5260,#5450,#2330,#1130));
#5540=MANIFOLD_SOLID_BREP('',#5530);
#5550=CARTESIAN_POINT('',(0.,0.,0.));
#5560=DIRECTION('',(0.,0.,1.));
#5570=DIRECTION('',(1.,0.,0.));
#5580=AXIS2_PLACEMENT_3D('',#5550,#5560,#5570);
#5590=APPLICATION_CONTEXT(' ');
#5600=APPLICATION_PROTOCOL_DEFINITION(' ','automotive_design',1998,#5590
);
#5610=PRODUCT_CONTEXT('',#5590,'mechanical');
#5620=PRODUCT_DEFINITION_CONTEXT('part definition',#5590,'design');
#5630=PRODUCT('D-SSK_110_KER-select','D-SSK_110_KER-select','',(#5610));
#5640=PRODUCT_RELATED_PRODUCT_CATEGORY('part',' ',(#5630));
#5650=PRODUCT_DEFINITION_FORMATION_WITH_SPECIFIED_SOURCE('','',#5630,
.BOUGHT.);
#5660=PRODUCT_DEFINITION('',' ',#5650,#5620);
#5670=PRODUCT_DEFINITION_SHAPE('','',#5660);
#5680=DIMENSIONAL_EXPONENTS(1.,0.,0.,0.,0.,0.,0.);
#5690=DIMENSIONAL_EXPONENTS(0.,0.,0.,0.,0.,0.,0.);
#5700=DIMENSIONAL_EXPONENTS(0.,0.,0.,0.,0.,0.,0.);
#5710=(LENGTH_UNIT() NAMED_UNIT(*) SI_UNIT(.MILLI.,.METRE.));
#5720=(NAMED_UNIT(*) PLANE_ANGLE_UNIT() SI_UNIT($,.RADIAN.));
#5730=(NAMED_UNIT(*) SI_UNIT($,.STERADIAN.) SOLID_ANGLE_UNIT());
#5740=(GEOMETRIC_REPRESENTATION_CONTEXT(3) 
GLOBAL_UNCERTAINTY_ASSIGNED_CONTEXT((#5750)) 
GLOBAL_UNIT_ASSIGNED_CONTEXT((#5710,#5720,#5730)) REPRESENTATION_CONTEXT
('',''));
#5750=UNCERTAINTY_MEASURE_WITH_UNIT(LENGTH_MEASURE(1.E-6),#5710,
'distance_accuracy_value','maximum gap value');
#5760=ADVANCED_BREP_SHAPE_REPRESENTATION('',(#5580,#5540),#5740);
#5770=SHAPE_DEFINITION_REPRESENTATION(#5670,#5760);
#5780=COLOUR_RGB('',0.560784339904785,0.588235318660736,
0.600000023841858);
#5790=FILL_AREA_STYLE_COLOUR('',#5780);
#5800=FILL_AREA_STYLE('',(#5790));
#5810=SURFACE_STYLE_FILL_AREA(#5800);
#5820=SURFACE_SIDE_STYLE('',(#5810));
#5830=SURFACE_STYLE_USAGE(.BOTH.,#5820);
#5840=PRESENTATION_STYLE_ASSIGNMENT((#5830));
#5850=STYLED_ITEM('',(#5840),#5540);
#5860=OVER_RIDING_STYLED_ITEM('',(#1200),#1130,#5850);
#5870=OVER_RIDING_STYLED_ITEM('',(#2400),#2330,#5850);
#5880=OVER_RIDING_STYLED_ITEM('',(#2690),#2620,#5850);
#5890=OVER_RIDING_STYLED_ITEM('',(#2930),#2860,#5850);
#5900=OVER_RIDING_STYLED_ITEM('',(#3220),#3150,#5850);
#5910=OVER_RIDING_STYLED_ITEM('',(#3460),#3390,#5850);
#5920=OVER_RIDING_STYLED_ITEM('',(#3700),#3630,#5850);
#5930=OVER_RIDING_STYLED_ITEM('',(#3940),#3870,#5850);
#5940=OVER_RIDING_STYLED_ITEM('',(#4180),#4110,#5850);
#5950=OVER_RIDING_STYLED_ITEM('',(#4470),#4400,#5850);
#5960=OVER_RIDING_STYLED_ITEM('',(#4710),#4640,#5850);
#5970=OVER_RIDING_STYLED_ITEM('',(#4900),#4830,#5850);
#5980=OVER_RIDING_STYLED_ITEM('',(#5140),#5070,#5850);
#5990=OVER_RIDING_STYLED_ITEM('',(#5330),#5260,#5850);
#6000=OVER_RIDING_STYLED_ITEM('',(#5520),#5450,#5850);
#6010=DRAUGHTING_MODEL('',(#5850,#5860,#5870,#5880,#5890,#5900,#5910,
#5920,#5930,#5940,#5950,#5960,#5970,#5980,#5990,#6000),#5740);
#6020=CARTESIAN_POINT('',(7.105427357601E-15,30.5,5.89999999999976));
#6030=DIRECTION('',(1.,-4.92661467177413E-16,-4.0253892345327E-16));
#6040=DIRECTION('',(4.92661467177413E-16,1.,1.67734491903637E-18));
#6050=AXIS2_PLACEMENT_3D('',#6020,#6030,#6040);
#6060=ITEM_DEFINED_TRANSFORMATION('D-SSK_110_KER-select','',#5580,#6050)
;
#6070=APPLICATION_CONTEXT(' ');
#6080=APPLICATION_PROTOCOL_DEFINITION(' ','automotive_design',1998,#6070
);
#6090=PRODUCT_CONTEXT('',#6070,'mechanical');
#6100=PRODUCT_DEFINITION_CONTEXT('part definition',#6070,'design');
#6110=PRODUCT('D-SSK_110_KER-select','D-SSK_110_KER-select','',(#6090));
#6120=PRODUCT_RELATED_PRODUCT_CATEGORY('part',' ',(#6110));
#6130=PRODUCT_DEFINITION_FORMATION_WITH_SPECIFIED_SOURCE('','',#6110,
.BOUGHT.);
#6140=PRODUCT_DEFINITION('',' ',#6130,#6100);
#6150=PRODUCT_DEFINITION_SHAPE('','',#6140);
#6160=DIMENSIONAL_EXPONENTS(1.,0.,0.,0.,0.,0.,0.);
#6170=DIMENSIONAL_EXPONENTS(0.,0.,0.,0.,0.,0.,0.);
#6180=DIMENSIONAL_EXPONENTS(0.,0.,0.,0.,0.,0.,0.);
#6190=(LENGTH_UNIT() NAMED_UNIT(*) SI_UNIT(.MILLI.,.METRE.));
#6200=(NAMED_UNIT(*) PLANE_ANGLE_UNIT() SI_UNIT($,.RADIAN.));
#6210=(NAMED_UNIT(*) SI_UNIT($,.STERADIAN.) SOLID_ANGLE_UNIT());
#6220=(GEOMETRIC_REPRESENTATION_CONTEXT(3) 
GLOBAL_UNCERTAINTY_ASSIGNED_CONTEXT((#6230)) 
GLOBAL_UNIT_ASSIGNED_CONTEXT((#6190,#6200,#6210)) REPRESENTATION_CONTEXT
('',''));
#6230=UNCERTAINTY_MEASURE_WITH_UNIT(LENGTH_MEASURE(1.E-6),#6190,
'distance_accuracy_value','maximum gap value');
#6240=SHAPE_REPRESENTATION('',(#5580,#6050),#6220);
#6250=SHAPE_DEFINITION_REPRESENTATION(#6150,#6240);
#6260=(REPRESENTATION_RELATIONSHIP('','',#5760,#6240) 
REPRESENTATION_RELATIONSHIP_WITH_TRANSFORMATION(#6060) 
SHAPE_REPRESENTATION_RELATIONSHIP());
#6270=NEXT_ASSEMBLY_USAGE_OCCURRENCE('1','','D-SSK_110_KER-select',#6140
,#5660,'');
#6280=PRODUCT_DEFINITION_SHAPE('','',#6270);
#6290=CONTEXT_DEPENDENT_SHAPE_REPRESENTATION(#6260,#6280);
ENDSEC;
END-ISO-10303-21;
