ISO-10303-21;
HEADER;
FILE_DESCRIPTION(('Creo Elements/Direct Modeling STEP Export'),'2;1');
FILE_NAME(
'C:/temp/JobSpoolerServerData/JobServer Files/14cf5142-aac9-4991-80d8-c6
a2381843e7/work/output/model.stp','2020-03-03T 0:06:30',(''),(''),
'Creo Elements/Direct Modeling STEP processor for AP214 (Solid Model)',
'Creo Elements/Direct Modeling 20.1A  29-Sep-2018 (C) Parametric Technol
ogy GmbH','');
FILE_SCHEMA(('AUTOMOTIVE_DESIGN { 1 0 10303 214 1 1 1 1 }'));
ENDSEC;
DATA;
#10=CARTESIAN_POINT('',(47.9183180398275,65.7970180907559,
7.105427357601E-15));
#20=DIRECTION('',(1.91052250483214E-31,-1.,2.74122250617291E-17));
#30=DIRECTION('',(1.,-1.14503107314641E-17,1.88737914186277E-15));
#40=AXIS2_PLACEMENT_3D('',#10,#20,#30);
#50=CYLINDRICAL_SURFACE('',#40,2.0875);
#60=CARTESIAN_POINT('',(47.9183180398275,67.1970180907559,0.));
#70=DIRECTION('',(-2.46519032881566E-32,-1.,2.74122250617295E-17));
#80=DIRECTION('',(1.,-1.14503107314641E-17,1.88737914186277E-15));
#90=AXIS2_PLACEMENT_3D('',#60,#70,#80);
#100=CIRCLE('',#90,2.0875);
#110=CARTESIAN_POINT('',(46.1654707337581,67.1970180907559,
-1.13365893089824));
#120=VERTEX_POINT('',#110);
#130=CARTESIAN_POINT('',(50.0058180398275,67.1970180907559,
1.10069542011531E-14));
#140=VERTEX_POINT('',#130);
#150=EDGE_CURVE('',#120,#140,#100,.T.);
#160=ORIENTED_EDGE('',*,*,#150,.F.);
#170=CARTESIAN_POINT('',(50.0058180398275,65.7970180907559,
1.10453313162395E-14));
#180=DIRECTION('',(1.91052250483214E-31,-1.,2.74122250617291E-17));
#190=VECTOR('',#180,1.);
#200=LINE('',#170,#190);
#210=CARTESIAN_POINT('',(50.0058180398275,65.7970180907559,
1.10453313162395E-14));
#220=VERTEX_POINT('',#210);
#230=EDGE_CURVE('',#140,#220,#200,.T.);
#240=ORIENTED_EDGE('',*,*,#230,.F.);
#250=CARTESIAN_POINT('',(47.9183180398275,65.7970180907559,0.));
#260=DIRECTION('',(-2.46519032881566E-32,-1.,2.74122250617295E-17));
#270=DIRECTION('',(1.,-1.14503107314641E-17,1.88737914186277E-15));
#280=AXIS2_PLACEMENT_3D('',#250,#260,#270);
#290=CIRCLE('',#280,2.0875);
#300=CARTESIAN_POINT('',(45.8308180398275,65.7970180907559,
3.42116841828449E-15));
#310=VERTEX_POINT('',#300);
#320=EDGE_CURVE('',#310,#220,#290,.T.);
#330=ORIENTED_EDGE('',*,*,#320,.T.);
#340=CARTESIAN_POINT('',(45.8308180398275,65.7970180907559,
3.42116841828449E-15));
#350=DIRECTION('',(1.91052250483214E-31,-1.,2.74122250617291E-17));
#360=VECTOR('',#350,1.);
#370=LINE('',#340,#360);
#380=CARTESIAN_POINT('',(45.8308180398275,67.1970180907559,
3.38279130319807E-15));
#390=VERTEX_POINT('',#380);
#400=EDGE_CURVE('',#390,#310,#370,.T.);
#410=ORIENTED_EDGE('',*,*,#400,.T.);
#420=EDGE_CURVE('',#390,#120,#100,.T.);
#430=ORIENTED_EDGE('',*,*,#420,.F.);
#440=EDGE_LOOP('',(#430,#410,#330,#240,#160));
#450=FACE_OUTER_BOUND('',#440,.T.);
#460=ADVANCED_FACE('',(#450),#50,.F.);
#470=COLOUR_RGB('',1.,0.839215755462646,0.301960796117783);
#480=FILL_AREA_STYLE_COLOUR('',#470);
#490=FILL_AREA_STYLE('',(#480));
#500=SURFACE_STYLE_FILL_AREA(#490);
#510=SURFACE_SIDE_STYLE('',(#500));
#520=SURFACE_STYLE_USAGE(.BOTH.,#510);
#530=PRESENTATION_STYLE_ASSIGNMENT((#520));
#540=CARTESIAN_POINT('',(47.9183180398275,65.7970180907559,0.));
#550=DIRECTION('',(-2.46519032881566E-32,-1.,2.74122250617295E-17));
#560=DIRECTION('',(1.,-1.14503107314641E-17,1.88737914186277E-15));
#570=AXIS2_PLACEMENT_3D('',#540,#550,#560);
#580=CYLINDRICAL_SURFACE('',#570,1.62);
#590=CARTESIAN_POINT('',(46.2983180398275,65.7970180907559,
-2.85916142835581E-15));
#600=DIRECTION('',(-2.46519032881566E-32,-1.,2.74122250617294E-17));
#610=VECTOR('',#600,1.);
#620=LINE('',#590,#610);
#630=CARTESIAN_POINT('',(46.2983180398275,70.4970180907559,
-2.98799888614594E-15));
#640=VERTEX_POINT('',#630);
#650=CARTESIAN_POINT('',(46.2983180398275,67.1970180907559,
-2.89753854344223E-15));
#660=VERTEX_POINT('',#650);
#670=EDGE_CURVE('',#640,#660,#620,.T.);
#680=ORIENTED_EDGE('',*,*,#670,.T.);
#690=CARTESIAN_POINT('',(47.9183180398275,70.4970180907559,0.));
#700=DIRECTION('',(-2.46519032881566E-32,-1.,2.74122250617295E-17));
#710=DIRECTION('',(1.,-1.14503107314641E-17,1.88737914186277E-15));
#720=AXIS2_PLACEMENT_3D('',#690,#700,#710);
#730=CIRCLE('',#720,1.62);
#740=CARTESIAN_POINT('',(49.5383180398275,70.4970180907559,
2.92871675202756E-15));
#750=VERTEX_POINT('',#740);
#760=EDGE_CURVE('',#640,#750,#730,.T.);
#770=ORIENTED_EDGE('',*,*,#760,.F.);
#780=CARTESIAN_POINT('',(49.5383180398275,65.7970180907559,
3.05755420981769E-15));
#790=DIRECTION('',(-2.46519032881566E-32,-1.,2.74122250617294E-17));
#800=VECTOR('',#790,1.);
#810=LINE('',#780,#800);
#820=CARTESIAN_POINT('',(49.5383180398275,67.1970180907559,
3.01917709473127E-15));
#830=VERTEX_POINT('',#820);
#840=EDGE_CURVE('',#750,#830,#810,.T.);
#850=ORIENTED_EDGE('',*,*,#840,.F.);
#860=CARTESIAN_POINT('',(47.9183180398275,67.1970180907559,0.));
#870=DIRECTION('',(-2.46519032881566E-32,-1.,2.74122250617295E-17));
#880=DIRECTION('',(1.,-1.14503107314641E-17,1.88737914186277E-15));
#890=AXIS2_PLACEMENT_3D('',#860,#870,#880);
#900=CIRCLE('',#890,1.62);
#910=EDGE_CURVE('',#660,#830,#900,.T.);
#920=ORIENTED_EDGE('',*,*,#910,.T.);
#930=EDGE_LOOP('',(#920,#850,#770,#680));
#940=FACE_OUTER_BOUND('',#930,.T.);
#950=ADVANCED_FACE('',(#940),#580,.F.);
#960=COLOUR_RGB('',1.,0.839215755462646,0.301960796117783);
#970=FILL_AREA_STYLE_COLOUR('',#960);
#980=FILL_AREA_STYLE('',(#970));
#990=SURFACE_STYLE_FILL_AREA(#980);
#1000=SURFACE_SIDE_STYLE('',(#990));
#1010=SURFACE_STYLE_USAGE(.BOTH.,#1000);
#1020=PRESENTATION_STYLE_ASSIGNMENT((#1010));
#1030=CARTESIAN_POINT('',(48.9865537492937,93.2970180907559,
-0.44247771867213));
#1040=DIRECTION('',(1.4648342812113E-17,1.,-2.55557704473121E-17));
#1050=DIRECTION('',(0.923879532511287,-2.33130740608317E-17,
-0.382683432365088));
#1060=AXIS2_PLACEMENT_3D('',#1030,#1040,#1050);
#1070=PLANE('',#1060);
#1080=CARTESIAN_POINT('',(47.9183180398275,93.2970180907559,0.));
#1090=DIRECTION('',(-2.46519032881566E-32,-1.,2.74122250617295E-17));
#1100=DIRECTION('',(1.,-2.53280985392786E-17,1.77635683940025E-15));
#1110=AXIS2_PLACEMENT_3D('',#1080,#1090,#1100);
#1120=CIRCLE('',#1110,1.5375);
#1130=CARTESIAN_POINT('',(49.4558180398275,93.2970180907559,
-4.1281982422779E-15));
#1140=VERTEX_POINT('',#1130);
#1150=CARTESIAN_POINT('',(46.3808180398275,93.2970180907559,
-9.743599658137E-15));
#1160=VERTEX_POINT('',#1150);
#1170=EDGE_CURVE('',#1140,#1160,#1120,.T.);
#1180=ORIENTED_EDGE('',*,*,#1170,.T.);
#1190=EDGE_CURVE('',#1160,#1140,#1120,.T.);
#1200=ORIENTED_EDGE('',*,*,#1190,.T.);
#1210=EDGE_LOOP('',(#1200,#1180));
#1220=FACE_BOUND('',#1210,.T.);
#1230=CARTESIAN_POINT('',(47.9183180398275,93.2970180907559,
-4.44089209850063E-16));
#1240=DIRECTION('',(-2.46519032881566E-32,-1.,2.74122250617295E-17));
#1250=DIRECTION('',(0.608761429008723,2.17475803175381E-17,
0.793353340291233));
#1260=AXIS2_PLACEMENT_3D('',#1230,#1240,#1250);
#1270=CIRCLE('',#1260,2.3125);
#1280=CARTESIAN_POINT('',(48.7931052386913,93.2970180907559,
2.14065494807175));
#1290=VERTEX_POINT('',#1280);
#1300=CARTESIAN_POINT('',(45.6256017979006,93.2970180907559,
0.301841819508864));
#1310=VERTEX_POINT('',#1300);
#1320=EDGE_CURVE('',#1290,#1310,#1270,.T.);
#1330=ORIENTED_EDGE('',*,*,#1320,.F.);
#1340=CARTESIAN_POINT('',(50.2110342817544,93.2970180907559,
-0.301841819508867));
#1350=VERTEX_POINT('',#1340);
#1360=EDGE_CURVE('',#1310,#1350,#1270,.T.);
#1370=ORIENTED_EDGE('',*,*,#1360,.F.);
#1380=EDGE_CURVE('',#1350,#1290,#1270,.T.);
#1390=ORIENTED_EDGE('',*,*,#1380,.F.);
#1400=EDGE_LOOP('',(#1390,#1370,#1330));
#1410=FACE_OUTER_BOUND('',#1400,.T.);
#1420=ADVANCED_FACE('',(#1220,#1410),#1070,.T.);
#1430=COLOUR_RGB('',1.,0.839215755462646,0.301960796117783);
#1440=FILL_AREA_STYLE_COLOUR('',#1430);
#1450=FILL_AREA_STYLE('',(#1440));
#1460=SURFACE_STYLE_FILL_AREA(#1450);
#1470=SURFACE_SIDE_STYLE('',(#1460));
#1480=SURFACE_STYLE_USAGE(.BOTH.,#1470);
#1490=PRESENTATION_STYLE_ASSIGNMENT((#1480));
#1500=CARTESIAN_POINT('',(48.9149681735684,65.7970180907559,
-0.764756545192206));
#1510=DIRECTION('',(3.15298636638278E-18,1.,-2.51938482398112E-17));
#1520=DIRECTION('',(-0.793353340291236,1.78384753223588E-17,
0.608761429008719));
#1530=AXIS2_PLACEMENT_3D('',#1500,#1510,#1520);
#1540=PLANE('',#1530);
#1550=CARTESIAN_POINT('',(48.3701357339233,65.7970180907559,
2.03801791486287));
#1560=VERTEX_POINT('',#1550);
#1570=EDGE_CURVE('',#1560,#310,#290,.T.);
#1580=ORIENTED_EDGE('',*,*,#1570,.F.);
#1590=ORIENTED_EDGE('',*,*,#320,.F.);
#1600=EDGE_CURVE('',#220,#1560,#290,.T.);
#1610=ORIENTED_EDGE('',*,*,#1600,.F.);
#1620=EDGE_LOOP('',(#1610,#1590,#1580));
#1630=FACE_BOUND('',#1620,.T.);
#1640=CARTESIAN_POINT('',(47.9183180398275,65.7970180907559,0.));
#1650=DIRECTION('',(-2.46519032881566E-32,-1.,2.74122250617295E-17));
#1660=DIRECTION('',(0.99144486137381,-2.18447627427156E-17,
0.130526192220054));
#1670=AXIS2_PLACEMENT_3D('',#1640,#1650,#1660);
#1680=CIRCLE('',#1670,2.5125);
#1690=CARTESIAN_POINT('',(50.4093232540292,65.7970180907559,
-0.327947057952876));
#1700=VERTEX_POINT('',#1690);
#1710=CARTESIAN_POINT('',(45.4273128256258,65.7970180907559,
0.327947057952875));
#1720=VERTEX_POINT('',#1710);
#1730=EDGE_CURVE('',#1700,#1720,#1680,.T.);
#1740=ORIENTED_EDGE('',*,*,#1730,.T.);
#1750=CARTESIAN_POINT('',(50.3712617577163,65.7970180907559,
-0.543804530019484));
#1760=VERTEX_POINT('',#1750);
#1770=EDGE_CURVE('',#1760,#1700,#1680,.T.);
#1780=ORIENTED_EDGE('',*,*,#1770,.T.);
#1790=EDGE_CURVE('',#1720,#1760,#1680,.T.);
#1800=ORIENTED_EDGE('',*,*,#1790,.T.);
#1810=EDGE_LOOP('',(#1800,#1780,#1740));
#1820=FACE_OUTER_BOUND('',#1810,.T.);
#1830=ADVANCED_FACE('',(#1630,#1820),#1540,.F.);
#1840=COLOUR_RGB('',1.,0.839215755462646,0.301960796117783);
#1850=FILL_AREA_STYLE_COLOUR('',#1840);
#1860=FILL_AREA_STYLE('',(#1850));
#1870=SURFACE_STYLE_FILL_AREA(#1860);
#1880=SURFACE_SIDE_STYLE('',(#1870));
#1890=SURFACE_STYLE_USAGE(.BOTH.,#1880);
#1900=PRESENTATION_STYLE_ASSIGNMENT((#1890));
#1910=CARTESIAN_POINT('',(47.9183180398275,65.7970180907559,0.));
#1920=DIRECTION('',(0.,-1.,4.11349932959262E-17));
#1930=DIRECTION('',(0.991444861373811,-1.3348463230542E-18,
-0.13052619222005));
#1940=AXIS2_PLACEMENT_3D('',#1910,#1920,#1930);
#1950=CONICAL_SURFACE('',#1940,2.5125,0.00727259905240371);
#1960=CARTESIAN_POINT('',(50.4093232540292,65.7970180907559,
-0.327947057952876));
#1970=DIRECTION('',(0.00721031739916005,-0.999973554768071,
-0.000949256293997225));
#1980=VECTOR('',#1970,345.477886242828);
#1990=LINE('',#1960,#1980);
#2000=EDGE_CURVE('',#1350,#1700,#1990,.T.);
#2010=ORIENTED_EDGE('',*,*,#2000,.F.);
#2020=ORIENTED_EDGE('',*,*,#1730,.F.);
#2030=CARTESIAN_POINT('',(45.4273128256258,65.7970180907559,
0.327947057952875));
#2040=DIRECTION('',(-0.00721031739916005,-0.999973554768071,
0.000949256293997305));
#2050=VECTOR('',#2040,345.477886242828);
#2060=LINE('',#2030,#2050);
#2070=EDGE_CURVE('',#1310,#1720,#2060,.T.);
#2080=ORIENTED_EDGE('',*,*,#2070,.T.);
#2090=ORIENTED_EDGE('',*,*,#1320,.T.);
#2100=ORIENTED_EDGE('',*,*,#1380,.T.);
#2110=EDGE_LOOP('',(#2100,#2090,#2080,#2020,#2010));
#2120=FACE_OUTER_BOUND('',#2110,.T.);
#2130=ADVANCED_FACE('',(#2120),#1950,.T.);
#2140=COLOUR_RGB('',1.,0.839215755462646,0.301960796117783);
#2150=FILL_AREA_STYLE_COLOUR('',#2140);
#2160=FILL_AREA_STYLE('',(#2150));
#2170=SURFACE_STYLE_FILL_AREA(#2160);
#2180=SURFACE_SIDE_STYLE('',(#2170));
#2190=SURFACE_STYLE_USAGE(.BOTH.,#2180);
#2200=PRESENTATION_STYLE_ASSIGNMENT((#2190));
#2210=CARTESIAN_POINT('',(47.328728622368,67.1970180907559,
-0.775994539892032));
#2220=DIRECTION('',(-1.14503107314642E-17,-1.,2.08166817117216E-17));
#2230=DIRECTION('',(1.,-1.14503107314641E-17,1.88737914186277E-15));
#2240=AXIS2_PLACEMENT_3D('',#2210,#2220,#2230);
#2250=PLANE('',#2240);
#2260=EDGE_CURVE('',#830,#660,#900,.T.);
#2270=ORIENTED_EDGE('',*,*,#2260,.F.);
#2280=ORIENTED_EDGE('',*,*,#910,.F.);
#2290=EDGE_LOOP('',(#2280,#2270));
#2300=FACE_BOUND('',#2290,.T.);
#2310=EDGE_CURVE('',#140,#390,#100,.T.);
#2320=ORIENTED_EDGE('',*,*,#2310,.T.);
#2330=ORIENTED_EDGE('',*,*,#150,.T.);
#2340=ORIENTED_EDGE('',*,*,#420,.T.);
#2350=EDGE_LOOP('',(#2340,#2330,#2320));
#2360=FACE_OUTER_BOUND('',#2350,.T.);
#2370=ADVANCED_FACE('',(#2300,#2360),#2250,.T.);
#2380=COLOUR_RGB('',1.,0.839215755462646,0.301960796117783);
#2390=FILL_AREA_STYLE_COLOUR('',#2380);
#2400=FILL_AREA_STYLE('',(#2390));
#2410=SURFACE_STYLE_FILL_AREA(#2400);
#2420=SURFACE_SIDE_STYLE('',(#2410));
#2430=SURFACE_STYLE_USAGE(.BOTH.,#2420);
#2440=PRESENTATION_STYLE_ASSIGNMENT((#2430));
#2450=CARTESIAN_POINT('',(47.328728622368,70.4970180907559,
-0.775994539892032));
#2460=DIRECTION('',(-1.14503107314642E-17,-1.,2.08166817117216E-17));
#2470=DIRECTION('',(1.,-1.14503107314641E-17,1.88737914186277E-15));
#2480=AXIS2_PLACEMENT_3D('',#2450,#2460,#2470);
#2490=PLANE('',#2480);
#2500=CARTESIAN_POINT('',(47.9183180398275,70.4970180907559,0.));
#2510=DIRECTION('',(-2.46519032881566E-32,-1.,2.74122250617295E-17));
#2520=DIRECTION('',(1.,-1.14503107314641E-17,1.88737914186277E-15));
#2530=AXIS2_PLACEMENT_3D('',#2500,#2510,#2520);
#2540=CIRCLE('',#2530,1.5375);
#2550=CARTESIAN_POINT('',(49.4558180398275,70.4970180907559,
-3.50319951087047E-15));
#2560=VERTEX_POINT('',#2550);
#2570=CARTESIAN_POINT('',(46.3808180398275,70.4970180907559,
-9.11860092672957E-15));
#2580=VERTEX_POINT('',#2570);
#2590=EDGE_CURVE('',#2560,#2580,#2540,.T.);
#2600=ORIENTED_EDGE('',*,*,#2590,.F.);
#2610=EDGE_CURVE('',#2580,#2560,#2540,.T.);
#2620=ORIENTED_EDGE('',*,*,#2610,.F.);
#2630=EDGE_LOOP('',(#2620,#2600));
#2640=FACE_BOUND('',#2630,.T.);
#2650=EDGE_CURVE('',#750,#640,#730,.T.);
#2660=ORIENTED_EDGE('',*,*,#2650,.T.);
#2670=ORIENTED_EDGE('',*,*,#760,.T.);
#2680=EDGE_LOOP('',(#2670,#2660));
#2690=FACE_OUTER_BOUND('',#2680,.T.);
#2700=ADVANCED_FACE('',(#2640,#2690),#2490,.T.);
#2710=COLOUR_RGB('',1.,0.839215755462646,0.301960796117783);
#2720=FILL_AREA_STYLE_COLOUR('',#2710);
#2730=FILL_AREA_STYLE('',(#2720));
#2740=SURFACE_STYLE_FILL_AREA(#2730);
#2750=SURFACE_SIDE_STYLE('',(#2740));
#2760=SURFACE_STYLE_USAGE(.BOTH.,#2750);
#2770=PRESENTATION_STYLE_ASSIGNMENT((#2760));
#2780=CARTESIAN_POINT('',(47.9183180398275,96.0470204907559,
-7.105427357601E-15));
#2790=DIRECTION('',(-2.46519032881566E-32,-1.,2.74122250617295E-17));
#2800=DIRECTION('',(1.,-1.14503107314641E-17,1.88737914186277E-15));
#2810=AXIS2_PLACEMENT_3D('',#2780,#2790,#2800);
#2820=CYLINDRICAL_SURFACE('',#2810,1.5375);
#2830=CARTESIAN_POINT('',(49.4558180398275,96.0470204907559,
-4.203581926987E-15));
#2840=DIRECTION('',(-2.46519032881566E-32,-1.,2.74122250617294E-17));
#2850=VECTOR('',#2840,1.);
#2860=LINE('',#2830,#2850);
#2870=EDGE_CURVE('',#1140,#2560,#2860,.T.);
#2880=ORIENTED_EDGE('',*,*,#2870,.F.);
#2890=ORIENTED_EDGE('',*,*,#2610,.T.);
#2900=CARTESIAN_POINT('',(46.3808180398275,96.0470204907559,
-9.8189833428461E-15));
#2910=DIRECTION('',(-2.46519032881566E-32,-1.,2.74122250617294E-17));
#2920=VECTOR('',#2910,1.);
#2930=LINE('',#2900,#2920);
#2940=EDGE_CURVE('',#1160,#2580,#2930,.T.);
#2950=ORIENTED_EDGE('',*,*,#2940,.T.);
#2960=ORIENTED_EDGE('',*,*,#1190,.F.);
#2970=EDGE_LOOP('',(#2960,#2950,#2890,#2880));
#2980=FACE_OUTER_BOUND('',#2970,.T.);
#2990=ADVANCED_FACE('',(#2980),#2820,.F.);
#3000=COLOUR_RGB('',1.,0.839215755462646,0.301960796117783);
#3010=FILL_AREA_STYLE_COLOUR('',#3000);
#3020=FILL_AREA_STYLE('',(#3010));
#3030=SURFACE_STYLE_FILL_AREA(#3020);
#3040=SURFACE_SIDE_STYLE('',(#3030));
#3050=SURFACE_STYLE_USAGE(.BOTH.,#3040);
#3060=PRESENTATION_STYLE_ASSIGNMENT((#3050));
#3070=CARTESIAN_POINT('',(47.9183180398275,96.0470204907559,
-7.105427357601E-15));
#3080=DIRECTION('',(-2.46519032881566E-32,-1.,2.74122250617295E-17));
#3090=DIRECTION('',(1.,-1.14503107314641E-17,1.88737914186277E-15));
#3100=AXIS2_PLACEMENT_3D('',#3070,#3080,#3090);
#3110=CYLINDRICAL_SURFACE('',#3100,1.5375);
#3120=ORIENTED_EDGE('',*,*,#1170,.F.);
#3130=ORIENTED_EDGE('',*,*,#2940,.F.);
#3140=ORIENTED_EDGE('',*,*,#2590,.T.);
#3150=ORIENTED_EDGE('',*,*,#2870,.T.);
#3160=EDGE_LOOP('',(#3150,#3140,#3130,#3120));
#3170=FACE_OUTER_BOUND('',#3160,.T.);
#3180=ADVANCED_FACE('',(#3170),#3110,.F.);
#3190=COLOUR_RGB('',1.,0.839215755462646,0.301960796117783);
#3200=FILL_AREA_STYLE_COLOUR('',#3190);
#3210=FILL_AREA_STYLE('',(#3200));
#3220=SURFACE_STYLE_FILL_AREA(#3210);
#3230=SURFACE_SIDE_STYLE('',(#3220));
#3240=SURFACE_STYLE_USAGE(.BOTH.,#3230);
#3250=PRESENTATION_STYLE_ASSIGNMENT((#3240));
#3260=CARTESIAN_POINT('',(47.9183180398275,65.7970180907559,
7.105427357601E-15));
#3270=DIRECTION('',(1.91052250483214E-31,-1.,2.74122250617291E-17));
#3280=DIRECTION('',(1.,-1.14503107314641E-17,1.88737914186277E-15));
#3290=AXIS2_PLACEMENT_3D('',#3260,#3270,#3280);
#3300=CYLINDRICAL_SURFACE('',#3290,2.0875);
#3310=ORIENTED_EDGE('',*,*,#230,.T.);
#3320=ORIENTED_EDGE('',*,*,#2310,.F.);
#3330=ORIENTED_EDGE('',*,*,#400,.F.);
#3340=ORIENTED_EDGE('',*,*,#1570,.T.);
#3350=ORIENTED_EDGE('',*,*,#1600,.T.);
#3360=EDGE_LOOP('',(#3350,#3340,#3330,#3320,#3310));
#3370=FACE_OUTER_BOUND('',#3360,.T.);
#3380=ADVANCED_FACE('',(#3370),#3300,.F.);
#3390=COLOUR_RGB('',1.,0.839215755462646,0.301960796117783);
#3400=FILL_AREA_STYLE_COLOUR('',#3390);
#3410=FILL_AREA_STYLE('',(#3400));
#3420=SURFACE_STYLE_FILL_AREA(#3410);
#3430=SURFACE_SIDE_STYLE('',(#3420));
#3440=SURFACE_STYLE_USAGE(.BOTH.,#3430);
#3450=PRESENTATION_STYLE_ASSIGNMENT((#3440));
#3460=CARTESIAN_POINT('',(47.9183180398275,65.7970180907559,0.));
#3470=DIRECTION('',(-2.46519032881566E-32,-1.,2.74122250617295E-17));
#3480=DIRECTION('',(1.,-1.14503107314641E-17,1.88737914186277E-15));
#3490=AXIS2_PLACEMENT_3D('',#3460,#3470,#3480);
#3500=CYLINDRICAL_SURFACE('',#3490,1.62);
#3510=ORIENTED_EDGE('',*,*,#2650,.F.);
#3520=ORIENTED_EDGE('',*,*,#670,.F.);
#3530=ORIENTED_EDGE('',*,*,#2260,.T.);
#3540=ORIENTED_EDGE('',*,*,#840,.T.);
#3550=EDGE_LOOP('',(#3540,#3530,#3520,#3510));
#3560=FACE_OUTER_BOUND('',#3550,.T.);
#3570=ADVANCED_FACE('',(#3560),#3500,.F.);
#3580=COLOUR_RGB('',1.,0.839215755462646,0.301960796117783);
#3590=FILL_AREA_STYLE_COLOUR('',#3580);
#3600=FILL_AREA_STYLE('',(#3590));
#3610=SURFACE_STYLE_FILL_AREA(#3600);
#3620=SURFACE_SIDE_STYLE('',(#3610));
#3630=SURFACE_STYLE_USAGE(.BOTH.,#3620);
#3640=PRESENTATION_STYLE_ASSIGNMENT((#3630));
#3650=CARTESIAN_POINT('',(47.9183180398275,65.7970180907559,0.));
#3660=DIRECTION('',(0.,-1.,4.11349932959262E-17));
#3670=DIRECTION('',(0.991444861373811,-1.3348463230542E-18,
-0.13052619222005));
#3680=AXIS2_PLACEMENT_3D('',#3650,#3660,#3670);
#3690=CONICAL_SURFACE('',#3680,2.5125,0.00727259905240371);
#3700=ORIENTED_EDGE('',*,*,#1770,.F.);
#3710=ORIENTED_EDGE('',*,*,#2000,.T.);
#3720=ORIENTED_EDGE('',*,*,#1360,.T.);
#3730=ORIENTED_EDGE('',*,*,#2070,.F.);
#3740=ORIENTED_EDGE('',*,*,#1790,.F.);
#3750=EDGE_LOOP('',(#3740,#3730,#3720,#3710,#3700));
#3760=FACE_OUTER_BOUND('',#3750,.T.);
#3770=ADVANCED_FACE('',(#3760),#3690,.T.);
#3780=COLOUR_RGB('',1.,0.839215755462646,0.301960796117783);
#3790=FILL_AREA_STYLE_COLOUR('',#3780);
#3800=FILL_AREA_STYLE('',(#3790));
#3810=SURFACE_STYLE_FILL_AREA(#3800);
#3820=SURFACE_SIDE_STYLE('',(#3810));
#3830=SURFACE_STYLE_USAGE(.BOTH.,#3820);
#3840=PRESENTATION_STYLE_ASSIGNMENT((#3830));
#3850=CLOSED_SHELL('',(#460,#950,#1420,#1830,#2130,#2370,#2700,#2990,
#3180,#3380,#3570,#3770));
#3860=MANIFOLD_SOLID_BREP('',#3850);
#3870=CARTESIAN_POINT('',(0.,0.,0.));
#3880=DIRECTION('',(0.,0.,1.));
#3890=DIRECTION('',(1.,0.,0.));
#3900=AXIS2_PLACEMENT_3D('',#3870,#3880,#3890);
#3910=APPLICATION_CONTEXT(' ');
#3920=APPLICATION_PROTOCOL_DEFINITION(' ','automotive_design',1998,#3910
);
#3930=PRODUCT_CONTEXT('',#3910,'mechanical');
#3940=PRODUCT_DEFINITION_CONTEXT('part definition',#3910,'design');
#3950=PRODUCT('MPS-IH-YE-select','MPS-IH-YE-select','',(#3930));
#3960=PRODUCT_RELATED_PRODUCT_CATEGORY('part',' ',(#3950));
#3970=PRODUCT_DEFINITION_FORMATION_WITH_SPECIFIED_SOURCE('','',#3950,
.BOUGHT.);
#3980=PRODUCT_DEFINITION('',' ',#3970,#3940);
#3990=PRODUCT_DEFINITION_SHAPE('','',#3980);
#4000=DIMENSIONAL_EXPONENTS(1.,0.,0.,0.,0.,0.,0.);
#4010=DIMENSIONAL_EXPONENTS(0.,0.,0.,0.,0.,0.,0.);
#4020=DIMENSIONAL_EXPONENTS(0.,0.,0.,0.,0.,0.,0.);
#4030=(LENGTH_UNIT() NAMED_UNIT(*) SI_UNIT(.MILLI.,.METRE.));
#4040=(NAMED_UNIT(*) PLANE_ANGLE_UNIT() SI_UNIT($,.RADIAN.));
#4050=(NAMED_UNIT(*) SI_UNIT($,.STERADIAN.) SOLID_ANGLE_UNIT());
#4060=(GEOMETRIC_REPRESENTATION_CONTEXT(3) 
GLOBAL_UNCERTAINTY_ASSIGNED_CONTEXT((#4070)) 
GLOBAL_UNIT_ASSIGNED_CONTEXT((#4030,#4040,#4050)) REPRESENTATION_CONTEXT
('',''));
#4070=UNCERTAINTY_MEASURE_WITH_UNIT(LENGTH_MEASURE(1.E-6),#4030,
'distance_accuracy_value','maximum gap value');
#4080=ADVANCED_BREP_SHAPE_REPRESENTATION('',(#3900,#3860),#4060);
#4090=SHAPE_DEFINITION_REPRESENTATION(#3990,#4080);
#4100=COLOUR_RGB('',1.,0.839215755462646,0.301960796117783);
#4110=FILL_AREA_STYLE_COLOUR('',#4100);
#4120=FILL_AREA_STYLE('',(#4110));
#4130=SURFACE_STYLE_FILL_AREA(#4120);
#4140=SURFACE_SIDE_STYLE('',(#4130));
#4150=SURFACE_STYLE_USAGE(.BOTH.,#4140);
#4160=PRESENTATION_STYLE_ASSIGNMENT((#4150));
#4170=STYLED_ITEM('',(#4160),#3860);
#4180=OVER_RIDING_STYLED_ITEM('',(#530),#460,#4170);
#4190=OVER_RIDING_STYLED_ITEM('',(#1020),#950,#4170);
#4200=OVER_RIDING_STYLED_ITEM('',(#1490),#1420,#4170);
#4210=OVER_RIDING_STYLED_ITEM('',(#1900),#1830,#4170);
#4220=OVER_RIDING_STYLED_ITEM('',(#2200),#2130,#4170);
#4230=OVER_RIDING_STYLED_ITEM('',(#2440),#2370,#4170);
#4240=OVER_RIDING_STYLED_ITEM('',(#2770),#2700,#4170);
#4250=OVER_RIDING_STYLED_ITEM('',(#3060),#2990,#4170);
#4260=OVER_RIDING_STYLED_ITEM('',(#3250),#3180,#4170);
#4270=OVER_RIDING_STYLED_ITEM('',(#3450),#3380,#4170);
#4280=OVER_RIDING_STYLED_ITEM('',(#3640),#3570,#4170);
#4290=OVER_RIDING_STYLED_ITEM('',(#3840),#3770,#4170);
#4300=DRAUGHTING_MODEL('',(#4170,#4180,#4190,#4200,#4210,#4220,#4230,
#4240,#4250,#4260,#4270,#4280,#4290),#4060);
#4310=CARTESIAN_POINT('',(-45.4058180398275,2.51249999999998,
-65.7970180907562));
#4320=DIRECTION('',(3.92058863470931E-17,-1.,1.53710152426118E-33));
#4330=DIRECTION('',(1.,3.92058863470931E-17,3.92058863470931E-17));
#4340=AXIS2_PLACEMENT_3D('',#4310,#4320,#4330);
#4350=ITEM_DEFINED_TRANSFORMATION('MPS-IH-YE-select','',#3900,#4340);
#4360=APPLICATION_CONTEXT(' ');
#4370=APPLICATION_PROTOCOL_DEFINITION(' ','automotive_design',1998,#4360
);
#4380=PRODUCT_CONTEXT('',#4360,'mechanical');
#4390=PRODUCT_DEFINITION_CONTEXT('part definition',#4360,'design');
#4400=PRODUCT('MPS-IH-YE-select','MPS-IH-YE-select','',(#4380));
#4410=PRODUCT_RELATED_PRODUCT_CATEGORY('part',' ',(#4400));
#4420=PRODUCT_DEFINITION_FORMATION_WITH_SPECIFIED_SOURCE('','',#4400,
.BOUGHT.);
#4430=PRODUCT_DEFINITION('',' ',#4420,#4390);
#4440=PRODUCT_DEFINITION_SHAPE('','',#4430);
#4450=DIMENSIONAL_EXPONENTS(1.,0.,0.,0.,0.,0.,0.);
#4460=DIMENSIONAL_EXPONENTS(0.,0.,0.,0.,0.,0.,0.);
#4470=DIMENSIONAL_EXPONENTS(0.,0.,0.,0.,0.,0.,0.);
#4480=(LENGTH_UNIT() NAMED_UNIT(*) SI_UNIT(.MILLI.,.METRE.));
#4490=(NAMED_UNIT(*) PLANE_ANGLE_UNIT() SI_UNIT($,.RADIAN.));
#4500=(NAMED_UNIT(*) SI_UNIT($,.STERADIAN.) SOLID_ANGLE_UNIT());
#4510=(GEOMETRIC_REPRESENTATION_CONTEXT(3) 
GLOBAL_UNCERTAINTY_ASSIGNED_CONTEXT((#4520)) 
GLOBAL_UNIT_ASSIGNED_CONTEXT((#4480,#4490,#4500)) REPRESENTATION_CONTEXT
('',''));
#4520=UNCERTAINTY_MEASURE_WITH_UNIT(LENGTH_MEASURE(1.E-6),#4480,
'distance_accuracy_value','maximum gap value');
#4530=SHAPE_REPRESENTATION('',(#3900,#4340),#4510);
#4540=SHAPE_DEFINITION_REPRESENTATION(#4440,#4530);
#4550=(REPRESENTATION_RELATIONSHIP('','',#4080,#4530) 
REPRESENTATION_RELATIONSHIP_WITH_TRANSFORMATION(#4350) 
SHAPE_REPRESENTATION_RELATIONSHIP());
#4560=NEXT_ASSEMBLY_USAGE_OCCURRENCE('1','','MPS-IH-YE-select',#4430,
#3980,'');
#4570=PRODUCT_DEFINITION_SHAPE('','',#4560);
#4580=CONTEXT_DEPENDENT_SHAPE_REPRESENTATION(#4550,#4570);
ENDSEC;
END-ISO-10303-21;
