  0
SECTION
  2
HEADER
  9
$ACADVER
  1
AC1009
  9
$INSBASE
 10
0
 20
0
  9
$EXTMIN
 10
0
 20
-62
  9
$EXTMAX
 10
112
 20
31
  9
$LIMMIN
 10
0
 20
-62
  9
$LIMMAX
 10
112
 20
31
  9
$VIEWCTR
 10
10
 20
10
  9
$VIEWSIZE
 40
10
  9
$SNAPMODE
 70
0
  9
$SNAPUNIT
 10
1
 20
1
  9
$SNAPBASE
 10
0
 20
0
  9
$SNAPANG
 50
0
  9
$SNAPSTYLE
 70
0
  9
$SNAPISOPAIR
 70
0
  9
$GRIDMODE
 70
0
  9
$GRIDUNIT
 10
0
 20
0
  9
$ORTHOMODE
 70
0
  9
$REGENMODE
 70
1
  9
$FILLMODE
 70
1
  9
$QTEXTMODE
 70
0
  9
$DRAGMODE
 70
2
  9
$LTSCALE
 40
1
  9
$OSMODE
 70
0
  9
$ATTMODE
 70
1
  9
$TEXTSIZE
 40
3.5
  9
$TRACEWID
 40
0.5
  9
$TEXTSTYLE
  7
STANDARD
  9
$CLAYER
  8
0
  9
$CELTYPE
  6
BYLAYER
  9
$CECOLOR
 62
256
  9
$DIMSCALE
 40
1
  9
$DIMASZ
 40
0.18
  9
$DIMEXO
 40
0.0625
  9
$DIMDLI
 40
0.38
  9
$DIMRND
 40
0
  9
$DIMDLE
 40
0
  9
$DIMEXE
 40
0.18
  9
$DIMTP
 40
0
  9
$DIMTM
 40
0
  9
$DIMTXT
 40
0.18
  9
$DIMCEN
 40
0.09
  9
$DIMTSZ
 40
0
  9
$DIMTOL
 70
0
  9
$DIMLIM
 70
0
  9
$DIMTIH
 70
1
  9
$DIMTOH
 70
1
  9
$DIMSE1
 70
0
  9
$DIMSE2
 70
0
  9
$DIMTAD
 70
0
  9
$DIMZIN
 70
0
  9
$DIMBLK
  1

  9
$DIMASO
 70
1
  9
$DIMSHO
 70
1
  9
$DIMPOST
  1

  9
$DIMAPOST
  1

  9
$DIMALT
 70
0
  9
$DIMALTD
 70
2
  9
$DIMALTF
 40
25.4
  9
$DIMLFAC
 40
1
  9
$DIMTOFL
 70
0
  9
$DIMTVP
 40
0
  9
$DIMTIX
 70
0
  9
$DIMSOXD
 70
0
  9
$DIMSAH
 70
0
  9
$DIMBLK1
  1

  9
$DIMBLK2
  1

  9
$DIMSTYLE
  2
*UNNAMED
  9
$DIMCLRD
 70
0
  9
$DIMCLRE
 70
0
  9
$DIMCLRT
 70
0
  9
$DIMTFAC
 40
1
  9
$DIMGAP
 40
0.09
  9
$LUNITS
 70
2
  9
$LUPREC
 70
4
  9
$AXISMODE
 70
0
  9
$AXISUNIT
 10
0
 20
0
  9
$SKETCHINC
 40
0.1
  9
$FILLETRAD
 40
2
  9
$AUNITS
 70
0
  9
$AUPREC
 70
0
  9
$MENU
  1
ACAD
  9
$ELEVATION
 40
0
  9
$THICKNESS
 40
0
  9
$VIEWDIR
 10
0
 20
0
 30
1
  9
$LIMCHECK
 70
0
  9
$BLIPMODE
 70
1
  9
$CHAMFERA
 40
0
  9
$CHAMFERB
 40
0
  9
$FASTZOOM
 70
1
  9
$SKPOLY
 70
0
  9
$ANGBASE
 50
0
  9
$ANGDIR
 70
0
  9
$PDMODE
 70
0
  9
$PDSIZE
 40
0
  9
$PLINEWID
 40
0
  9
$COORDS
 70
2
  0
ENDSEC
  0
SECTION
  2
TABLES
  0
TABLE
  2
DIMSTYLE
 70
0
  0
ENDTAB
  0
TABLE
  2
LTYPE
 70
9
  0
LTYPE
  2
CONTINUOUS
 70
64
  3
Solid line
 72
65
 73
0
 40
0
  0
LTYPE
  2
BORDER
 70
64
  3
__ __ . __ __ .
 72
65
 73
6
 40
5.157894736842105
 49
1.473684210526316
 49
-0.7368421052631579
 49
1.473684210526316
 49
-0.7368421052631579
 49
0
 49
-0.7368421052631579
  0
LTYPE
  2
CENTER
 70
64
  3
____ _ ____ _
 72
65
 73
4
 40
5.894736842105263
 49
3.684210526315789
 49
-0.7368421052631579
 49
0.7368421052631579
 49
-0.7368421052631579
  0
LTYPE
  2
DASHDOT
 70
64
  3
__ . __ . __ .
 72
65
 73
4
 40
2.947368421052631
 49
1.473684210526316
 49
-0.7368421052631579
 49
0
 49
-0.7368421052631579
  0
LTYPE
  2
DASHED
 70
64
  3
__ __ __ __ __
 72
65
 73
2
 40
2.210526315789473
 49
1.473684210526316
 49
-0.7368421052631579
  0
LTYPE
  2
DIVIDE
 70
64
  3
__ . . __ . . 
 72
65
 73
6
 40
3.684210526315789
 49
1.473684210526316
 49
-0.7368421052631579
 49
0
 49
-0.7368421052631579
 49
0
 49
-0.7368421052631579
  0
LTYPE
  2
DOT
 70
64
  3
..............
 72
65
 73
4
 40
1.473684210526316
 49
0
 49
-0.7368421052631579
 49
0
 49
-0.7368421052631579
  0
LTYPE
  2
HIDDEN
 70
64
  3
_ _ _ _ _ _ _
 72
65
 73
2
 40
1.105263157894737
 49
0.7368421052631579
 49
-0.3684210526315789
  0
LTYPE
  2
PHANTOM
 70
64
  3
_____ _ _ _____ _ _ 
 72
65
 73
6
 40
7.368421052631579
 49
3.684210526315789
 49
-0.7368421052631579
 49
0.7368421052631579
 49
-0.7368421052631579
 49
0.7368421052631579
 49
-0.7368421052631579
  0
ENDTAB
  0
TABLE
  2
LAYER
 70
4
  0
LAYER
  2
1
 70
0
 62
7
  6
CONTINUOUS
  0
LAYER
  2
CYAN
 70
0
 62
7
  6
CONTINUOUS
  0
LAYER
  2
0
 70
0
 62
7
  6
CONTINUOUS
  0
ENDTAB
  0
TABLE
  2
STYLE
 70
4
  0
STYLE
  2
STANDARD
 70
0
 40
0
 41
1
 50
0
 71
0
 42
3.5
  3
txt
  4

  0
STYLE
  2
SIMPLEX
 70
0
 40
0
 41
1
 50
0
 71
0
 42
3.5
  3
simplex
  4

  0
STYLE
  2
COMPLEX
 70
0
 40
0
 41
1
 50
0
 71
0
 42
3.5
  3
complex
  4

  0
STYLE
  2
ITALIC
 70
0
 40
0
 41
1
 50
0
 71
0
 42
3.5
  3
italic
  4

  0
ENDTAB
  0
TABLE
  2
VIEW
 70
0
  0
ENDTAB
  0
ENDSEC
  0
SECTION
  2
BLOCKS
  0
BLOCK
  8
1
  2
*X0
 70
1
 10
0
 20
0
 30
0
  0
LINE
  8
1
 62
2
 10
82.39554233019589
 20
11.9
 30
0
 11
82.59554233029485
 21
11.9
 31
0
  0
LINE
  8
1
 62
2
 10
82.39554233019589
 20
11.8
 30
0
 11
82.59554233029485
 21
11.8
 31
0
  0
LINE
  8
1
 62
2
 10
82.39554233019589
 20
11.7
 30
0
 11
82.59554233029485
 21
11.7
 31
0
  0
LINE
  8
1
 62
2
 10
82.39554233019589
 20
11.6
 30
0
 11
82.59554233029485
 21
11.6
 31
0
  0
LINE
  8
1
 62
2
 10
82.39554233019589
 20
11.5
 30
0
 11
82.59554233029485
 21
11.5
 31
0
  0
LINE
  8
1
 62
2
 10
82.39554233019589
 20
11.4
 30
0
 11
82.59554233029485
 21
11.4
 31
0
  0
LINE
  8
1
 62
2
 10
82.39554233019589
 20
11.3
 30
0
 11
82.59554233029485
 21
11.3
 31
0
  0
LINE
  8
1
 62
2
 10
82.39554233019589
 20
11.2
 30
0
 11
82.59554233029485
 21
11.2
 31
0
  0
LINE
  8
1
 62
2
 10
82.39554233019589
 20
11.1
 30
0
 11
82.59554233029485
 21
11.1
 31
0
  0
LINE
  8
1
 62
2
 10
82.39554233019589
 20
11
 30
0
 11
82.59554233029485
 21
11
 31
0
  0
LINE
  8
1
 62
2
 10
82.39554233019589
 20
10.9
 30
0
 11
82.59554233029485
 21
10.9
 31
0
  0
LINE
  8
1
 62
2
 10
82.39554233019589
 20
10.8
 30
0
 11
82.59554233029485
 21
10.8
 31
0
  0
LINE
  8
1
 62
2
 10
82.39554233019589
 20
10.7
 30
0
 11
82.59554233029485
 21
10.7
 31
0
  0
LINE
  8
1
 62
2
 10
82.39554233019589
 20
10.6
 30
0
 11
82.59554233029485
 21
10.6
 31
0
  0
LINE
  8
1
 62
2
 10
82.39554233019589
 20
10.5
 30
0
 11
82.59554233029485
 21
10.5
 31
0
  0
LINE
  8
1
 62
2
 10
81.28104889509268
 20
10.4
 30
0
 11
83.71003576519432
 21
10.4
 31
0
  0
LINE
  8
1
 62
2
 10
81.28104889509268
 20
10.3
 30
0
 11
83.71003576519432
 21
10.3
 31
0
  0
ENDBLK
  8
0
  0
BLOCK
  8
1
  2
*X1
 70
1
 10
0
 20
0
 30
0
  0
LINE
  8
1
 62
2
 10
25.14603341720067
 20
11.2
 30
0
 11
25.34603341729962
 21
11.2
 31
0
  0
LINE
  8
1
 62
2
 10
25.14603341720067
 20
11.1
 30
0
 11
25.34603341729962
 21
11.1
 31
0
  0
LINE
  8
1
 62
2
 10
25.14603341720067
 20
11
 30
0
 11
25.34603341729962
 21
11
 31
0
  0
LINE
  8
1
 62
2
 10
25.14603341720067
 20
10.9
 30
0
 11
25.34603341729962
 21
10.9
 31
0
  0
LINE
  8
1
 62
2
 10
25.14603341720067
 20
10.8
 30
0
 11
25.34603341729962
 21
10.8
 31
0
  0
LINE
  8
1
 62
2
 10
25.14603341720067
 20
10.7
 30
0
 11
25.34603341729962
 21
10.7
 31
0
  0
LINE
  8
1
 62
2
 10
25.14603341720067
 20
10.6
 30
0
 11
25.34603341729962
 21
10.6
 31
0
  0
LINE
  8
1
 62
2
 10
25.14603341720067
 20
10.5
 30
0
 11
25.34603341729962
 21
10.5
 31
0
  0
LINE
  8
1
 62
2
 10
25.14603341720067
 20
10.4
 30
0
 11
25.34603341729962
 21
10.4
 31
0
  0
LINE
  8
1
 62
2
 10
25.14603341720067
 20
10.3
 30
0
 11
25.34603341729962
 21
10.3
 31
0
  0
LINE
  8
1
 62
2
 10
25.14603341720067
 20
10.2
 30
0
 11
25.34603341729962
 21
10.2
 31
0
  0
LINE
  8
1
 62
2
 10
25.14603341720067
 20
10.1
 30
0
 11
25.34603341729962
 21
10.1
 31
0
  0
LINE
  8
1
 62
2
 10
25.14603341720067
 20
10
 30
0
 11
25.34603341729962
 21
10
 31
0
  0
LINE
  8
1
 62
2
 10
25.14603341720067
 20
9.9
 30
0
 11
25.34603341729962
 21
9.9
 31
0
  0
LINE
  8
1
 62
2
 10
25.14603341720067
 20
9.800000000000001
 30
0
 11
25.34603341729962
 21
9.800000000000001
 31
0
  0
LINE
  8
1
 62
2
 10
24.03153998218477
 20
9.699999999999999
 30
0
 11
26.46052685219911
 21
9.699999999999999
 31
0
  0
LINE
  8
1
 62
2
 10
24.03153998218477
 20
9.6
 30
0
 11
26.46052685219911
 21
9.6
 31
0
  0
ENDBLK
  8
0
  0
ENDSEC
  0
SECTION
  2
ENTITIES
  0
INSERT
  8
1
  2
*X0
 10
0
 20
0
 30
0
  0
INSERT
  8
1
  2
*X1
 10
0
 20
0
 30
0
  0
SOLID
  8
1
 62
2
 10
82.95803452609107
 20
9.158284581964836
 30
0
 11
82.03305013419595
 21
9.158284581964836
 31
0
 12
82.95803452609107
 22
8.958284581080079
 32
0
 13
82.03305013419595
 23
8.958284581080079
 33
0
  0
SOLID
  8
1
 62
2
 10
83.37450906689628
 20
9.823211611947045
 30
0
 11
81.61657559339073
 21
9.823211611947045
 31
0
 12
83.37450906689628
 22
9.623211611993611
 32
0
 13
81.61657559339073
 23
9.623211611993611
 33
0
  0
SOLID
  8
1
 62
2
 10
25.70852561309584
 20
8.260736709926277
 30
0
 11
25.70852561309584
 21
8.460736710112542
 31
0
 12
24.78354122128803
 22
8.260736709926277
 32
0
 13
24.78354122128803
 23
8.460736710112542
 33
0
  0
SOLID
  8
1
 62
2
 10
26.12500015390106
 20
8.92566374107264
 30
0
 11
26.12500015390106
 21
9.125663741026074
 31
0
 12
24.36706668039551
 22
8.92566374107264
 32
0
 13
24.36706668039551
 23
9.125663741026074
 33
0
  0
POINT
  8
1
 62
7
  6
CENTER
 10
0
 20
0
 30
0
  0
LINE
  8
1
 62
7
 10
62.31818048140849
 20
26.42503852327354
 30
0
 11
61.05812390925712
 21
27.89707609498873
 31
0
  0
LINE
  8
1
 62
7
 10
61.9220800481271
 20
26.09344143443741
 30
0
 11
62.31818048140849
 21
26.42503852327354
 31
0
  0
LINE
  8
1
 62
7
 10
60.63208116029273
 20
27.4967060375493
 30
0
 11
61.9220800481271
 21
26.09344143443741
 31
0
  0
LINE
  8
1
 62
7
 10
56.82103074292536
 20
26.42911601928063
 30
0
 11
55.59258365310961
 21
27.91324253100902
 31
0
  0
LINE
  8
1
 62
7
 10
56.41967861921876
 20
26.09232723037712
 30
0
 11
56.82103074292536
 21
26.42911601928063
 31
0
  0
LINE
  8
1
 62
7
 10
55.17513744300231
 20
27.56533331936225
 30
0
 11
56.41967861921876
 21
26.09232723037712
 31
0
  0
LINE
  8
1
 62
7
 10
51.26188475554227
 20
26.35228739446029
 30
0
 11
50.04394049409893
 21
27.8899492835626
 31
0
  0
LINE
  8
1
 62
7
 10
50.85977014372475
 20
26.06695903418586
 30
0
 11
51.26188475554227
 21
26.35228739446029
 31
0
  0
LINE
  8
1
 62
7
 10
49.64084434031975
 20
27.51171432691626
 30
0
 11
50.85977014372475
 21
26.06695903418586
 31
0
  0
LINE
  8
1
 62
7
 10
63
 20
27
 30
0
 11
63.5
 21
27
 31
0
  0
LINE
  8
1
 62
7
 10
57.5
 20
27
 30
0
 11
60
 21
27
 31
0
  0
LINE
  8
1
 62
7
 10
52
 20
27
 30
0
 11
54.5
 21
27
 31
0
  0
LINE
  8
1
 62
7
 10
48.5
 20
27
 30
0
 11
49.00000006906339
 21
26.99954480887391
 31
0
  0
LINE
  8
1
 62
7
 10
48.5
 20
30
 30
0
 11
48.5
 21
31
 31
0
  0
LINE
  8
1
 62
7
 10
63.5
 20
30
 30
0
 11
63.5
 21
27
 31
0
  0
LINE
  8
1
 62
7
 10
48.5
 20
30
 30
0
 11
63.5
 21
30
 31
0
  0
LINE
  8
1
 62
7
 10
48.5
 20
27
 30
0
 11
48.5
 21
30
 31
0
  0
LINE
  8
1
 62
7
 10
40
 20
27
 30
0
 11
48.5
 21
27
 31
0
  0
LINE
  8
1
 62
7
 10
63.5
 20
27
 30
0
 11
63.5
 21
24
 31
0
  0
LINE
  8
CYAN
 62
7
 10
63.5
 20
27
 30
0
 11
72
 21
27
 31
0
  0
LINE
  8
1
 62
7
 10
63.5
 20
24
 30
0
 11
93
 21
24
 31
0
  0
LINE
  8
1
 62
7
 10
63.5
 20
31
 30
0
 11
63.5
 21
30
 31
0
  0
LINE
  8
1
 62
7
 10
48.5
 20
31
 30
0
 11
63.5
 21
31
 31
0
  0
LINE
  8
1
 62
7
 10
48.5
 20
24
 30
0
 11
63.5
 21
24
 31
0
  0
LINE
  8
1
 62
7
 10
48.5
 20
24
 30
0
 11
48.5
 21
27
 31
0
  0
LINE
  8
1
 62
7
 10
0
 20
0
 30
0
 11
0
 21
-59.30000000004657
 31
0
  0
LINE
  8
1
 62
7
 10
81.28104889509268
 20
10.48813864309341
 30
0
 11
82.39554233019589
 21
10.48813864309341
 31
0
  0
LINE
  8
1
 62
7
 10
81.28104889509268
 20
10.28813864313997
 30
0
 11
81.28104889509268
 21
10.48813864309341
 31
0
  0
LINE
  8
1
 62
7
 10
82.03305013419595
 20
8.958284581080079
 30
0
 11
82.03305013419595
 21
9.158284581964836
 31
0
  0
LINE
  8
1
 62
7
 10
81.61657559339073
 20
9.623211611993611
 30
0
 11
81.61657559339073
 21
9.823211611947045
 31
0
  0
LINE
  8
1
 62
7
 10
81.61657559339073
 20
9.823211611947045
 30
0
 11
83.37450906689628
 21
9.823211611947045
 31
0
  0
LINE
  8
1
 62
7
 10
81.61657559339073
 20
9.623211611993611
 30
0
 11
83.37450906689628
 21
9.623211611993611
 31
0
  0
LINE
  8
1
 62
7
 10
81.28104889509268
 20
10.28813864313997
 30
0
 11
83.71003576519433
 21
10.28813864313997
 31
0
  0
LINE
  8
1
 62
7
 10
82.39554233019589
 20
10.48813864309341
 30
0
 11
82.39554233019589
 21
11.94535800814629
 31
0
  0
LINE
  8
1
 62
7
 10
82.59554233029485
 20
10.48813864309341
 30
0
 11
83.71003576519433
 21
10.48813864309341
 31
0
  0
LINE
  8
1
 62
7
 10
82.59554233029485
 20
11.94535800814629
 30
0
 11
82.59554233029485
 21
10.48813864309341
 31
0
  0
LINE
  8
1
 62
7
 10
82.59554233029485
 20
11.94535800814629
 30
0
 11
82.39554233019589
 21
11.94535800814629
 31
0
  0
LINE
  8
1
 62
7
 10
83.71003576519433
 20
10.48813864309341
 30
0
 11
83.71003576519433
 21
10.28813864313997
 31
0
  0
LINE
  8
1
 62
7
 10
82.95803452609107
 20
9.158284581964836
 30
0
 11
82.95803452609107
 21
8.958284581080079
 31
0
  0
LINE
  8
1
 62
7
 10
83.37450906689628
 20
9.823211611947045
 30
0
 11
83.37450906689628
 21
9.623211611993611
 31
0
  0
LINE
  8
1
 62
7
 10
82.95803452609107
 20
8.958284581080079
 30
0
 11
82.03305013419595
 21
8.958284581080079
 31
0
  0
LINE
  8
1
 62
7
 10
82.95803452609107
 20
9.158284581964836
 30
0
 11
82.03305013419595
 21
9.158284581964836
 31
0
  0
LINE
  8
1
 62
7
 10
26.12500015390106
 20
9.125663741026074
 30
0
 11
26.12500015390106
 21
8.92566374107264
 31
0
  0
LINE
  8
1
 62
7
 10
25.70852561309584
 20
8.460736710112542
 30
0
 11
25.70852561309584
 21
8.260736709926277
 31
0
  0
LINE
  8
1
 62
7
 10
26.46052685219911
 20
9.790590771939605
 30
0
 11
26.46052685219911
 21
9.590590771986172
 31
0
  0
LINE
  8
1
 62
7
 10
25.34603341729962
 20
11.24781013792381
 30
0
 11
25.14603341720067
 21
11.24781013792381
 31
0
  0
LINE
  8
1
 62
7
 10
25.34603341729962
 20
11.24781013792381
 30
0
 11
25.34603341729962
 21
9.790590771939605
 31
0
  0
LINE
  8
1
 62
7
 10
25.34603341729962
 20
9.790590771939605
 30
0
 11
26.46052685219911
 21
9.790590771939605
 31
0
  0
LINE
  8
1
 62
7
 10
25.14603341720067
 20
9.790590771939605
 30
0
 11
25.14603341720067
 21
11.24781013792381
 31
0
  0
LINE
  8
1
 62
7
 10
24.36706668039551
 20
9.125663741026074
 30
0
 11
26.12500015390106
 21
9.125663741026074
 31
0
  0
LINE
  8
1
 62
7
 10
24.36706668039551
 20
8.92566374107264
 30
0
 11
26.12500015390106
 21
8.92566374107264
 31
0
  0
LINE
  8
1
 62
7
 10
24.36706668039551
 20
8.92566374107264
 30
0
 11
24.36706668039551
 21
9.125663741026074
 31
0
  0
LINE
  8
1
 62
7
 10
24.78354122128803
 20
8.260736709926277
 30
0
 11
24.78354122128803
 21
8.460736710112542
 31
0
  0
LINE
  8
1
 62
7
 10
25.70852561309584
 20
8.260736709926277
 30
0
 11
24.78354122128803
 21
8.260736709926277
 31
0
  0
LINE
  8
1
 62
7
 10
25.70852561309584
 20
8.460736710112542
 30
0
 11
24.78354122128803
 21
8.460736710112542
 31
0
  0
LINE
  8
1
 62
7
 10
24.03153998218477
 20
9.590590771986172
 30
0
 11
26.46052685219911
 21
9.590590771986172
 31
0
  0
LINE
  8
1
 62
7
 10
24.03153998218477
 20
9.590590771986172
 30
0
 11
24.03153998218477
 21
9.790590771939605
 31
0
  0
LINE
  8
1
 62
7
 10
24.03153998218477
 20
9.790590771939605
 30
0
 11
25.14603341720067
 21
9.790590771939605
 31
0
  0
LINE
  8
1
 62
7
 10
72.1876851033885
 20
17.6500000001397
 30
0
 11
74.31231489669881
 21
17.6500000001397
 31
0
  0
LINE
  8
1
 62
7
 10
79.6876851033885
 20
17.6500000001397
 30
0
 11
81.81231489669881
 21
17.6500000001397
 31
0
  0
LINE
  8
1
 62
7
 10
72.1876851033885
 20
14.6500000001397
 30
0
 11
74.31231489669881
 21
14.6500000001397
 31
0
  0
LINE
  8
1
 62
7
 10
79.6876851033885
 20
14.6500000001397
 30
0
 11
81.81231489669881
 21
14.6500000001397
 31
0
  0
LINE
  8
1
 62
7
 10
87.1876851033885
 20
17.6500000001397
 30
0
 11
88.23349817379494
 21
17.6500000001397
 31
0
  0
LINE
  8
1
 62
7
 10
87.1876851033885
 20
14.6500000001397
 30
0
 11
88.23349817379494
 21
14.6500000001397
 31
0
  0
LINE
  8
1
 62
7
 10
88.23349817379494
 20
17.6500000001397
 30
0
 11
88.23349817379494
 21
14.6500000001397
 31
0
  0
LINE
  8
1
 62
7
 10
65.76650182629237
 20
14.6500000001397
 30
0
 11
65.76650182629237
 21
17.6500000001397
 31
0
  0
LINE
  8
1
 62
7
 10
65.76650182629237
 20
17.6500000001397
 30
0
 11
66.81231489669881
 21
17.6500000001397
 31
0
  0
LINE
  8
1
 62
7
 10
65.76650182629237
 20
14.6500000001397
 30
0
 11
66.81231489669881
 21
14.6500000001397
 31
0
  0
LINE
  8
1
 62
7
 10
78.03047563429573
 20
18.02900377102196
 30
0
 11
75.12099622839014
 21
15.11952436598949
 31
0
  0
LINE
  8
1
 62
7
 10
75.96952436599531
 20
14.27099622809328
 30
0
 11
78.87900377169717
 21
17.18047563405707
 31
0
  0
LINE
  8
1
 62
7
 10
85.53047563429573
 20
18.02900377102196
 30
0
 11
82.62099622839014
 21
15.11952436598949
 31
0
  0
LINE
  8
1
 62
7
 10
83.46952436599531
 20
14.27099622809328
 30
0
 11
86.37900377169717
 21
17.18047563405707
 31
0
  0
LINE
  8
1
 62
7
 10
70.53047563429573
 20
18.02900377102196
 30
0
 11
67.62099622839014
 21
15.11952436598949
 31
0
  0
LINE
  8
1
 62
7
 10
68.46952436599531
 20
14.27099622809328
 30
0
 11
71.37900377169717
 21
17.18047563405707
 31
0
  0
LINE
  8
1
 62
7
 10
26.46952436599531
 20
14.27099622809328
 30
0
 11
29.37900377169717
 21
17.18047563405707
 31
0
  0
LINE
  8
1
 62
7
 10
28.53047563429573
 20
18.02900377102196
 30
0
 11
25.62099622839014
 21
15.11952436598949
 31
0
  0
LINE
  8
1
 62
7
 10
41.46952436599531
 20
14.27099622809328
 30
0
 11
44.37900377169717
 21
17.18047563405707
 31
0
  0
LINE
  8
1
 62
7
 10
43.53047563429573
 20
18.02900377102196
 30
0
 11
40.62099622839014
 21
15.11952436598949
 31
0
  0
LINE
  8
1
 62
7
 10
33.96952436599531
 20
14.27099622809328
 30
0
 11
36.87900377169717
 21
17.18047563405707
 31
0
  0
LINE
  8
1
 62
7
 10
36.03047563429573
 20
18.02900377102196
 30
0
 11
33.12099622839014
 21
15.11952436598949
 31
0
  0
LINE
  8
1
 62
7
 10
23.76650182629237
 20
14.6500000001397
 30
0
 11
24.81231489669881
 21
14.6500000001397
 31
0
  0
LINE
  8
1
 62
7
 10
23.76650182629237
 20
17.6500000001397
 30
0
 11
24.81231489669881
 21
17.6500000001397
 31
0
  0
LINE
  8
1
 62
7
 10
23.76650182629237
 20
14.6500000001397
 30
0
 11
23.76650182629237
 21
17.6500000001397
 31
0
  0
LINE
  8
1
 62
7
 10
46.23349817379494
 20
17.6500000001397
 30
0
 11
46.23349817379494
 21
14.6500000001397
 31
0
  0
LINE
  8
1
 62
7
 10
45.1876851033885
 20
14.6500000001397
 30
0
 11
46.23349817379494
 21
14.6500000001397
 31
0
  0
LINE
  8
1
 62
7
 10
45.1876851033885
 20
17.6500000001397
 30
0
 11
46.23349817379494
 21
17.6500000001397
 31
0
  0
LINE
  8
1
 62
7
 10
37.6876851033885
 20
14.6500000001397
 30
0
 11
39.81231489669881
 21
14.6500000001397
 31
0
  0
LINE
  8
1
 62
7
 10
30.1876851033885
 20
14.6500000001397
 30
0
 11
32.31231489669881
 21
14.6500000001397
 31
0
  0
LINE
  8
1
 62
7
 10
37.6876851033885
 20
17.6500000001397
 30
0
 11
39.81231489669881
 21
17.6500000001397
 31
0
  0
LINE
  8
1
 62
7
 10
30.1876851033885
 20
17.6500000001397
 30
0
 11
32.31231489669881
 21
17.6500000001397
 31
0
  0
LINE
  8
1
 62
7
 10
35.25
 20
-62
 30
0
 11
30
 21
-59
 31
0
  0
LINE
  8
1
 62
7
 10
76.75
 20
-62
 30
0
 11
82
 21
-59
 31
0
  0
LINE
  8
1
 62
7
 10
35.25
 20
-62
 30
0
 11
76.75
 21
-62
 31
0
  0
LINE
  8
1
 62
7
 10
10
 20
-59
 30
0
 11
102
 21
-59
 31
0
  0
LINE
  8
1
 62
7
 10
10
 20
24
 30
0
 11
48.5
 21
24
 31
0
  0
LINE
  8
1
 62
7
 10
1.5
 20
-51.5999999998603
 30
0
 11
10
 21
-51.5999999998603
 31
0
  0
LINE
  8
1
 62
7
 10
102
 20
-51.5999999998603
 30
0
 11
110.5
 21
-51.5999999998603
 31
0
  0
LINE
  8
1
 62
7
 10
10
 20
25.80000000004657
 30
0
 11
1.5
 21
25.80000000004657
 31
0
  0
LINE
  8
1
 62
7
 10
10
 20
-60.80000000004657
 30
0
 11
10
 21
25.80000000004657
 31
0
  0
LINE
  8
1
 62
7
 10
10
 20
-60.80000000004657
 30
0
 11
1.5
 21
-60.80000000004657
 31
0
  0
LINE
  8
1
 62
7
 10
0
 20
24.30000000004657
 30
0
 11
0
 21
0
 31
0
  0
LINE
  8
1
 62
7
 10
93
 20
-6.699999999953434
 30
0
 11
102
 21
-12.69999999995343
 31
0
  0
LINE
  8
1
 62
7
 10
93
 20
25.80000000004657
 30
0
 11
93
 21
-6.699999999953434
 31
0
  0
LINE
  8
1
 62
7
 10
102
 20
-60.80000000004657
 30
0
 11
102
 21
-12.69999999995343
 31
0
  0
LINE
  8
1
 62
7
 10
110.5
 20
-60.80000000004657
 30
0
 11
102
 21
-60.80000000004657
 31
0
  0
LINE
  8
1
 62
7
 10
110.5
 20
25.80000000004657
 30
0
 11
93
 21
25.80000000004657
 31
0
  0
LINE
  8
1
 62
7
 10
112
 20
-59.30000000004657
 30
0
 11
112
 21
24.30000000004657
 31
0
  0
LINE
  8
1
 62
7
 10
10
 20
-49.80000000004657
 30
0
 11
102
 21
-49.80000000004657
 31
0
  0
LINE
  8
1
 62
7
 10
23.40000000019791
 20
19.6500000001397
 30
0
 11
23.40000000019791
 21
12.6500000001397
 31
0
  0
LINE
  8
1
 62
7
 10
46.59999999997672
 20
19.6500000001397
 30
0
 11
23.40000000019791
 21
19.6500000001397
 31
0
  0
LINE
  8
1
 62
7
 10
46.59999999997672
 20
12.6500000001397
 30
0
 11
46.59999999997672
 21
19.6500000001397
 31
0
  0
LINE
  8
1
 62
7
 10
23.40000000019791
 20
12.6500000001397
 30
0
 11
46.59999999997672
 21
12.6500000001397
 31
0
  0
LINE
  8
1
 62
7
 10
65.40000000019791
 20
12.6500000001397
 30
0
 11
88.59999999997672
 21
12.6500000001397
 31
0
  0
LINE
  8
1
 62
7
 10
65.40000000019791
 20
19.6500000001397
 30
0
 11
65.40000000019791
 21
12.6500000001397
 31
0
  0
LINE
  8
1
 62
7
 10
88.59999999997672
 20
19.6500000001397
 30
0
 11
65.40000000019791
 21
19.6500000001397
 31
0
  0
LINE
  8
1
 62
7
 10
88.59999999997672
 20
12.6500000001397
 30
0
 11
88.59999999997672
 21
19.6500000001397
 31
0
  0
LINE
  8
CYAN
 62
7
 10
37.00000000052387
 20
24
 30
0
 11
40
 21
27
 31
0
  0
LINE
  8
CYAN
 62
7
 10
72
 20
27
 30
0
 11
74.99999999941792
 21
24
 31
0
  0
ARC
  8
1
 62
7
 10
61.5
 20
27
 30
0
 40
0.9999999999386505
 50
324.903065565716
 51
116.2236445044523
  0
ARC
  8
1
 62
7
 10
61.5
 20
27
 30
0
 40
0.9999999998852196
 50
116.2236445044523
 51
294.9659794386604
  0
ARC
  8
1
 62
7
 10
61.5
 20
27
 30
0
 40
0.9999999999109387
 50
294.9659794386604
 51
324.903065565716
  0
ARC
  8
1
 62
7
 10
56
 20
27
 30
0
 40
1.000000000078636
 50
114.0426367553387
 51
294.8142990414477
  0
ARC
  8
1
 62
7
 10
56
 20
27
 30
0
 40
1.000000000072117
 50
294.8142990414477
 51
114.0426367553387
  0
ARC
  8
1
 62
7
 10
50.5
 20
27
 30
0
 40
1.000000000118155
 50
117.1331254418714
 51
291.0860804356687
  0
ARC
  8
1
 62
7
 10
50.5
 20
27
 30
0
 40
1.000000000101556
 50
291.0860804356687
 51
117.1331254418714
  0
ARC
  8
1
 62
7
 10
61.5
 20
27
 30
0
 40
1.5
 50
0
 51
180
  0
ARC
  8
1
 62
7
 10
61.5
 20
27
 30
0
 40
1.5
 50
180
 51
0
  0
ARC
  8
1
 62
7
 10
56
 20
27
 30
0
 40
1.5
 50
0
 51
180
  0
ARC
  8
1
 62
7
 10
56
 20
27
 30
0
 40
1.5
 50
180
 51
0
  0
ARC
  8
1
 62
7
 10
50.5
 20
27
 30
0
 40
1.5
 50
0
 51
180.0173870205313
  0
ARC
  8
1
 62
7
 10
50.5
 20
27
 30
0
 40
1.500000000002933
 50
180.0173870205313
 51
0
  0
ARC
  8
1
 62
7
 10
77
 20
16.1500000001397
 30
0
 40
3.077929696236818
 50
29.16593405874383
 51
150.8340659404641
  0
ARC
  8
1
 62
7
 10
69.5
 20
16.1500000001397
 30
0
 40
3.077929696160576
 50
209.1659340595359
 51
330.8340659412562
  0
ARC
  8
1
 62
7
 10
84.5
 20
16.1500000001397
 30
0
 40
3.077929696236818
 50
29.16593405874383
 51
150.8340659404641
  0
ARC
  8
1
 62
7
 10
77
 20
16.1500000001397
 30
0
 40
3.077929696160576
 50
209.1659340595359
 51
330.8340659412562
  0
ARC
  8
1
 62
7
 10
84.5
 20
16.1500000001397
 30
0
 40
3.077929696160576
 50
209.1659340595359
 51
330.8340659412562
  0
ARC
  8
1
 62
7
 10
69.5
 20
16.1500000001397
 30
0
 40
3.077929696236818
 50
29.16593405874383
 51
150.8340659404641
  0
ARC
  8
1
 62
7
 10
27.5
 20
16.1500000001397
 30
0
 40
3.077929696236815
 50
29.16593405874386
 51
150.8340659404641
  0
ARC
  8
1
 62
7
 10
42.5
 20
16.1500000001397
 30
0
 40
3.077929696160576
 50
209.1659340595359
 51
330.8340659412562
  0
ARC
  8
1
 62
7
 10
35
 20
16.1500000001397
 30
0
 40
3.077929696160576
 50
209.1659340595359
 51
330.8340659412562
  0
ARC
  8
1
 62
7
 10
42.5
 20
16.1500000001397
 30
0
 40
3.077929696236818
 50
29.16593405874383
 51
150.8340659404641
  0
ARC
  8
1
 62
7
 10
27.5
 20
16.1500000001397
 30
0
 40
3.077929696160576
 50
209.1659340595359
 51
330.8340659412562
  0
ARC
  8
1
 62
7
 10
35
 20
16.1500000001397
 30
0
 40
3.077929696236818
 50
29.16593405874383
 51
150.8340659404641
  0
CIRCLE
  8
1
 62
7
 10
77
 20
16.1500000001397
 30
0
 40
2.143020112800375
  0
CIRCLE
  8
1
 62
7
 10
84.5
 20
16.1500000001397
 30
0
 40
2.143020113332958
  0
CIRCLE
  8
1
 62
7
 10
69.5
 20
16.1500000001397
 30
0
 40
2.143020113332958
  0
CIRCLE
  8
1
 62
7
 10
27.5
 20
16.1500000001397
 30
0
 40
2.143020113681167
  0
CIRCLE
  8
1
 62
7
 10
42.5
 20
16.1500000001397
 30
0
 40
2.143020113681165
  0
CIRCLE
  8
1
 62
7
 10
35
 20
16.1500000001397
 30
0
 40
2.143020113681165
  0
CIRCLE
  8
1
 62
7
 10
18.6987270184909
 20
-26.44641999993473
 30
0
 40
1.5
  0
CIRCLE
  8
1
 62
7
 10
18.6987270184909
 20
-26.44641999993473
 30
0
 40
1.5
  0
CIRCLE
  8
1
 62
7
 10
18.6987270184909
 20
-26.44641999993473
 30
0
 40
0.9615518229838891
  0
CIRCLE
  8
1
 62
7
 10
77
 20
16.1500000001397
 30
0
 40
2.5
  0
CIRCLE
  8
1
 62
7
 10
84.5
 20
16.1500000001397
 30
0
 40
2.5
  0
CIRCLE
  8
1
 62
7
 10
69.5
 20
16.1500000001397
 30
0
 40
2.5
  0
CIRCLE
  8
1
 62
7
 10
27.5
 20
16.1500000001397
 30
0
 40
2.5
  0
CIRCLE
  8
1
 62
7
 10
42.5
 20
16.1500000001397
 30
0
 40
2.5
  0
CIRCLE
  8
1
 62
7
 10
35
 20
16.1500000001397
 30
0
 40
2.5
  0
ARC
  8
1
 62
7
 10
1.5
 20
-50.0999999998603
 30
0
 40
1.5
 50
180
 51
270
  0
ARC
  8
1
 62
7
 10
110.5
 20
-50.0999999998603
 30
0
 40
1.5
 50
270
 51
0
  0
ARC
  8
1
 62
7
 10
1.5
 20
24.30000000004657
 30
0
 40
1.5
 50
90
 51
180
  0
ARC
  8
1
 62
7
 10
1.5
 20
-59.30000000004657
 30
0
 40
1.5
 50
180
 51
270
  0
ARC
  8
1
 62
7
 10
110.5
 20
-59.30000000004657
 30
0
 40
1.5
 50
270
 51
0
  0
ARC
  8
1
 62
7
 10
110.5
 20
24.30000000004657
 30
0
 40
1.5
 50
0
 51
90
  0
TEXT
  8
1
 62
7
 10
62
 20
13.92161724693142
 30
0
 40
2.5
  1
NO
 50
90
 41
0.9
  7
COMPLEX
 72
1
 73
2
 11
60.75
 21
16.17161724693142
 31
0
  0
TEXT
  8
1
 62
7
 10
52.5
 20
13.92161724693142
 30
0
 40
2.5
  1
NC
 50
90
 41
0.9
  7
COMPLEX
 72
1
 73
2
 11
51.25
 21
16.17161724693142
 31
0
  0
TEXT
  8
1
 62
7
 10
57.25
 20
12.79661724693142
 30
0
 40
2.5
  1
COM
 50
90
 41
0.9
  7
COMPLEX
 72
1
 73
2
 11
56
 21
16.17161724693142
 31
0
  0
TEXT
  8
1
 62
7
 10
34.1016313204891
 20
8.260736709926277
 30
0
 40
2.5
  1
N
 41
0.9
  7
COMPLEX
  0
TEXT
  8
1
 62
7
 10
42.0880150141893
 20
8.260736709926277
 30
0
 40
2.5
  1
L
 41
0.9
  7
COMPLEX
  0
TEXT
  8
1
 62
7
 10
68.63037874639849
 20
8.958284581080079
 30
0
 40
2.5
  1
L
 41
0.9
  7
COMPLEX
  0
TEXT
  8
1
 62
7
 10
76.0986417629756
 20
8.958284581080079
 30
0
 40
2.5
  1
N
 41
0.9
  7
COMPLEX
  0
TEXT
  8
1
 62
7
 10
84.38306144857779
 20
8.958284581080079
 30
0
 40
2.5
  1
/G
 41
0.9
  7
COMPLEX
  0
TEXT
  8
1
 62
7
 10
26.94082912578597
 20
8.260736709926277
 30
0
 40
2.5
  1
/G
 41
0.9
  7
COMPLEX
  0
ENDSEC
  0
EOF
