  0
SECTION
  2
HEADER
  9
$ACADVER
  1
AC1009
  9
$DWGCODEPAGE
  3
ansi_1252
  9
$INSBASE
 10
0.0
 20
0.0
 30
0.0
  9
$EXTMIN
 10
0.0
 20
-80.34999999999988
 30
0.0
  9
$EXTMAX
 10
52.00000000000043
 20
103.6500000000004
 30
0.0
  9
$LIMMIN
 10
0.0
 20
0.0
  9
$LIMMAX
 10
12.0
 20
9.0
  9
$ORTHOMODE
 70
     0
  9
$REGENMODE
 70
     1
  9
$FILLMODE
 70
     1
  9
$QTEXTMODE
 70
     0
  9
$MIRRTEXT
 70
     1
  9
$DRAGMODE
 70
     2
  9
$LTSCALE
 40
1.0
  9
$OSMODE
 70
    37
  9
$ATTMODE
 70
     1
  9
$TEXTSIZE
 40
0.2
  9
$TRACEWID
 40
0.05
  9
$TEXTSTYLE
  7
STANDARD
  9
$CLAYER
  8
0
  9
$CELTYPE
  6
BYLAYER
  9
$CECOLOR
 62
   256
  9
$DIMSCALE
 40
1.0
  9
$DIMASZ
 40
0.18
  9
$DIMEXO
 40
0.0625
  9
$DIMDLI
 40
0.38
  9
$DIMRND
 40
0.0
  9
$DIMDLE
 40
0.0
  9
$DIMEXE
 40
0.18
  9
$DIMTP
 40
0.0
  9
$DIMTM
 40
0.0
  9
$DIMTXT
 40
0.18
  9
$DIMCEN
 40
0.09
  9
$DIMTSZ
 40
0.0
  9
$DIMTOL
 70
     0
  9
$DIMLIM
 70
     0
  9
$DIMTIH
 70
     1
  9
$DIMTOH
 70
     1
  9
$DIMSE1
 70
     0
  9
$DIMSE2
 70
     0
  9
$DIMTAD
 70
     0
  9
$DIMZIN
 70
     0
  9
$DIMBLK
  1

  9
$DIMASO
 70
     1
  9
$DIMSHO
 70
     1
  9
$DIMPOST
  1

  9
$DIMAPOST
  1

  9
$DIMALT
 70
     0
  9
$DIMALTD
 70
     2
  9
$DIMALTF
 40
25.4
  9
$DIMLFAC
 40
1.0
  9
$DIMTOFL
 70
     0
  9
$DIMTVP
 40
0.0
  9
$DIMTIX
 70
     0
  9
$DIMSOXD
 70
     0
  9
$DIMSAH
 70
     0
  9
$DIMBLK1
  1

  9
$DIMBLK2
  1

  9
$DIMSTYLE
  2
STANDARD
  9
$DIMCLRD
 70
     0
  9
$DIMCLRE
 70
     0
  9
$DIMCLRT
 70
     0
  9
$DIMTFAC
 40
1.0
  9
$DIMGAP
 40
0.09
  9
$LUNITS
 70
     2
  9
$LUPREC
 70
     4
  9
$SKETCHINC
 40
0.1
  9
$FILLETRAD
 40
0.5
  9
$AUNITS
 70
     0
  9
$AUPREC
 70
     0
  9
$MENU
  1
.
  9
$ELEVATION
 40
0.0
  9
$PELEVATION
 40
0.0
  9
$THICKNESS
 40
0.0
  9
$LIMCHECK
 70
     0
  9
$CHAMFERA
 40
0.5
  9
$CHAMFERB
 40
0.5
  9
$SKPOLY
 70
     0
  9
$TDCREATE
 40
2455520.376488831
  9
$TDUPDATE
 40
2455520.376488843
  9
$TDINDWG
 40
0.0000000116
  9
$TDUSRTIMER
 40
0.0000000116
  9
$USRTIMER
 70
     1
  9
$ANGBASE
 50
0.0
  9
$ANGDIR
 70
     0
  9
$PDMODE
 70
     0
  9
$PDSIZE
 40
0.0
  9
$PLINEWID
 40
0.0
  9
$COORDS
 70
     1
  9
$SPLFRAME
 70
     0
  9
$SPLINETYPE
 70
     6
  9
$SPLINESEGS
 70
     8
  9
$ATTDIA
 70
     0
  9
$ATTREQ
 70
     1
  9
$HANDLING
 70
     1
  9
$HANDSEED
  5
5EA
  9
$SURFTAB1
 70
     6
  9
$SURFTAB2
 70
     6
  9
$SURFTYPE
 70
     6
  9
$SURFU
 70
     6
  9
$SURFV
 70
     6
  9
$UCSNAME
  2

  9
$UCSORG
 10
0.0
 20
0.0
 30
0.0
  9
$UCSXDIR
 10
1.0
 20
0.0
 30
0.0
  9
$UCSYDIR
 10
0.0
 20
1.0
 30
0.0
  9
$PUCSNAME
  2

  9
$PUCSORG
 10
0.0
 20
0.0
 30
0.0
  9
$PUCSXDIR
 10
1.0
 20
0.0
 30
0.0
  9
$PUCSYDIR
 10
0.0
 20
1.0
 30
0.0
  9
$USERI1
 70
     0
  9
$USERI2
 70
     0
  9
$USERI3
 70
     0
  9
$USERI4
 70
     0
  9
$USERI5
 70
     0
  9
$USERR1
 40
16.0
  9
$USERR2
 40
0.0
  9
$USERR3
 40
0.0
  9
$USERR4
 40
0.0
  9
$USERR5
 40
0.0
  9
$WORLDVIEW
 70
     1
  9
$SHADEDGE
 70
     3
  9
$SHADEDIF
 70
    70
  9
$TILEMODE
 70
     1
  9
$MAXACTVP
 70
    64
  9
$PLIMCHECK
 70
     0
  9
$PEXTMIN
 10
1.00000000000000E+20
 20
1.00000000000000E+20
 30
1.00000000000000E+20
  9
$PEXTMAX
 10
-1.00000000000000E+20
 20
-1.00000000000000E+20
 30
-1.00000000000000E+20
  9
$PLIMMIN
 10
0.0
 20
0.0
  9
$PLIMMAX
 10
12.0
 20
9.0
  9
$UNITMODE
 70
     0
  9
$VISRETAIN
 70
     1
  9
$PLINEGEN
 70
     0
  9
$PSLTSCALE
 70
     1
  0
ENDSEC
  0
SECTION
  2
TABLES
  0
TABLE
  2
VPORT
 70
     1
  0
VPORT
  2
*ACTIVE
 70
     0
 10
0.0
 20
0.0
 11
1.0
 21
1.0
 12
26.00000000000022
 22
11.65000000000026
 13
0.0
 23
0.0
 14
0.5
 24
0.5
 15
0.5
 25
0.5
 16
0.0
 26
0.0
 36
1.0
 17
0.0
 27
0.0
 37
0.0
 40
202.4000000000003
 41
1.60267857142857
 42
50.0
 43
0.0
 44
0.0
 50
0.0
 51
0.0
 71
     0
 72
   100
 73
     1
 74
     3
 75
     0
 76
     0
 77
     0
 78
     0
  0
ENDTAB
  0
TABLE
  2
LTYPE
 70
     8
  0
LTYPE
  2
CONTINUOUS
 70
     0
  3
Solid line
 72
    65
 73
     0
 40
0.0
  0
LTYPE
  2
DASHED
 70
     0
  3
Dashed
 72
    65
 73
     2
 40
15.0
 49
7.0
 49
-8.0
  0
LTYPE
  2
DOTTED
 70
     0
  3
Dotted
 72
    65
 73
     2
 40
1.0
 49
0.0
 49
-1.0
  0
LTYPE
  2
DOT_CENTER
 70
     0
  3
Dot_Center
 72
    65
 73
     4
 40
14.0
 49
12.0
 49
-1.0
 49
0.0
 49
-1.0
  0
LTYPE
  2
LONG_DASHED
 70
     0
  3
Long_Dashed
 72
    65
 73
     2
 40
15.0
 49
10.0
 49
-5.0
  0
LTYPE
  2
DASH_CENTER
 70
     0
  3
Dash_Center
 72
    65
 73
     4
 40
14.0
 49
11.0
 49
-1.0
 49
1.0
 49
-1.0
  0
LTYPE
  2
PHANTOM
 70
     0
  3
Phantom
 72
    65
 73
     6
 40
13.0
 49
10.0
 49
-1.0
 49
0.0
 49
-1.0
 49
0.0
 49
-1.0
  0
LTYPE
  2
CENTER_DASH_DASH
 70
     0
  3
Center_Dash_Dash
 72
    65
 73
     6
 40
14.0
 49
9.0
 49
-1.0
 49
1.0
 49
-1.0
 49
1.0
 49
-1.0
  0
ENDTAB
  0
TABLE
  2
LAYER
 70
     2
  0
LAYER
  2
0
 70
     0
 62
     7
  6
CONTINUOUS
  0
LAYER
  2
1
 70
     0
 62
     7
  6
CONTINUOUS
  0
ENDTAB
  0
TABLE
  2
STYLE
 70
     1
  0
STYLE
  2
STANDARD
 70
     0
 40
0.0
 41
1.0
 50
0.0
 71
     0
 42
0.2
  3
txt
  4

  0
ENDTAB
  0
TABLE
  2
VIEW
 70
     0
  0
ENDTAB
  0
TABLE
  2
UCS
 70
     0
  0
ENDTAB
  0
TABLE
  2
APPID
 70
     1
  0
APPID
  2
ACAD
 70
     0
  0
ENDTAB
  0
TABLE
  2
DIMSTYLE
 70
     1
  0
DIMSTYLE
  2
STANDARD
 70
     0
  3

  4

  5

  6

  7

 40
1.0
 41
0.18
 42
0.0625
 43
0.38
 44
0.18
 45
0.0
 46
0.0
 47
0.0
 48
0.0
140
0.18
141
0.09
142
0.0
143
25.4
144
1.0
145
0.0
146
1.0
147
0.09
 71
     0
 72
     0
 73
     1
 74
     1
 75
     0
 76
     0
 77
     0
 78
     0
170
     0
171
     2
172
     0
173
     0
174
     0
175
     0
176
     0
177
     0
178
     0
  0
ENDTAB
  0
ENDSEC
  0
SECTION
  2
BLOCKS
  0
BLOCK
  8
0
  2
$MODEL_SPACE
 70
     0
 10
0.0
 20
0.0
 30
0.0
  3
$MODEL_SPACE
  1

  0
ENDBLK
  5
21
  8
0
  0
BLOCK
 67
     1
  8
0
  2
$PAPER_SPACE
 70
     0
 10
0.0
 20
0.0
 30
0.0
  3
$PAPER_SPACE
  1

  0
ENDBLK
  5
1D
 67
     1
  8
0
  0
ENDSEC
  0
SECTION
  2
ENTITIES
  0
POINT
  5
43
  8
1
 62
     3
 10
0.0
 20
0.0
 30
0.0
  0
POINT
  5
44
  8
1
 62
     7
 10
0.0
 20
0.0
 30
0.0
  0
LINE
  5
45
  8
0
  6
CONTINUOUS
 62
     7
 10
0.0
 20
0.0
 30
0.0
 11
0.0
 21
-70.3499999999996
 31
0.0
  0
LINE
  5
46
  8
0
  6
CONTINUOUS
 62
     7
 10
18.40000000000009
 20
-41.89999999999998
 30
0.0
 11
18.40000000000009
 21
-40.35000000000019
 31
0.0
  0
LINE
  5
47
  8
0
  6
CONTINUOUS
 62
     7
 10
18.40000000000009
 20
-40.35000000000019
 30
0.0
 11
18.2000000000001
 21
-40.35000000000019
 31
0.0
  0
LINE
  5
48
  8
0
  6
CONTINUOUS
 62
     7
 10
18.2000000000001
 20
-40.35000000000019
 30
0.0
 11
16.00000000000011
 21
-40.35000000000008
 31
0.0
  0
LINE
  5
49
  8
0
  6
CONTINUOUS
 62
     7
 10
16.00000000000011
 20
-40.35000000000008
 30
0.0
 11
16.00000000000011
 21
-35.5
 31
0.0
  0
LINE
  5
4A
  8
0
  6
CONTINUOUS
 62
     7
 10
16.00000000000011
 20
-35.5
 30
0.0
 11
16.00000000000011
 21
-35.0000000000002
 31
0.0
  0
LINE
  5
4B
  8
0
  6
CONTINUOUS
 62
     7
 10
33.60000000000011
 20
-40.35000000000008
 30
0.0
 11
33.60000000000011
 21
-41.89999999999998
 31
0.0
  0
LINE
  5
4C
  8
0
  6
CONTINUOUS
 62
     7
 10
33.80000000000004
 20
-40.35000000000008
 30
0.0
 11
33.60000000000011
 21
-40.35000000000008
 31
0.0
  0
LINE
  5
4D
  8
0
  6
CONTINUOUS
 62
     7
 10
36.00000000000009
 20
-40.35000000000008
 30
0.0
 11
33.80000000000004
 21
-40.35000000000008
 31
0.0
  0
LINE
  5
4E
  8
0
  6
CONTINUOUS
 62
     7
 10
36.00000000000009
 20
-35.0000000000002
 30
0.0
 11
36.00000000000009
 21
-35.5
 31
0.0
  0
LINE
  5
4F
  8
0
  6
CONTINUOUS
 62
     7
 10
36.00000000000009
 20
-35.5
 30
0.0
 11
36.00000000000009
 21
-40.35000000000008
 31
0.0
  0
LINE
  5
50
  8
0
  6
CONTINUOUS
 62
     7
 10
18.40000000000009
 20
-59.70000000000019
 30
0.0
 11
18.40000000000009
 21
-57.7999999999999
 31
0.0
  0
LINE
  5
51
  8
0
  6
CONTINUOUS
 62
     7
 10
18.40000000000009
 20
-57.7999999999999
 30
0.0
 11
18.2000000000001
 21
-57.7999999999999
 31
0.0
  0
LINE
  5
52
  8
0
  6
CONTINUOUS
 62
     7
 10
18.2000000000001
 20
-57.7999999999999
 30
0.0
 11
16.09999999999999
 21
-57.7999999999999
 31
0.0
  0
LINE
  5
53
  8
0
  6
CONTINUOUS
 62
     7
 10
16.09999999999999
 20
-57.7999999999999
 30
0.0
 11
16.09999999999999
 21
-51.8000000000001
 31
0.0
  0
LINE
  5
54
  8
0
  6
CONTINUOUS
 62
     7
 10
33.60000000000011
 20
-57.7999999999999
 30
0.0
 11
33.60000000000011
 21
-59.70000000000019
 31
0.0
  0
LINE
  5
55
  8
0
  6
CONTINUOUS
 62
     7
 10
33.60000000000011
 20
-57.7999999999999
 30
0.0
 11
33.79999999999993
 21
-57.7999999999999
 31
0.0
  0
LINE
  5
56
  8
0
  6
CONTINUOUS
 62
     7
 10
33.79999999999993
 20
-57.7999999999999
 30
0.0
 11
35.90000000000006
 21
-57.7999999999999
 31
0.0
  0
LINE
  5
57
  8
0
  6
CONTINUOUS
 62
     7
 10
35.90000000000006
 20
-51.8000000000001
 30
0.0
 11
35.90000000000006
 21
-57.7999999999999
 31
0.0
  0
LINE
  5
58
  8
0
  6
CONTINUOUS
 62
     7
 10
33.60000000000011
 20
-75.7999999999999
 30
0.0
 11
33.60000000000011
 21
-77.54999999999919
 31
0.0
  0
LINE
  5
59
  8
0
  6
CONTINUOUS
 62
     7
 10
33.60000000000011
 20
-75.7999999999999
 30
0.0
 11
33.79999999999993
 21
-75.7999999999999
 31
0.0
  0
LINE
  5
5A
  8
0
  6
CONTINUOUS
 62
     7
 10
33.79999999999993
 20
-75.7999999999999
 30
0.0
 11
35.90000000000006
 21
-75.7999999999999
 31
0.0
  0
LINE
  5
5B
  8
0
  6
CONTINUOUS
 62
     7
 10
35.90000000000006
 20
-69.99999999999858
 30
0.0
 11
35.90000000000006
 21
-75.7999999999999
 31
0.0
  0
LINE
  5
5C
  8
0
  6
CONTINUOUS
 62
     7
 10
35.90000000000006
 20
-69.8000000000001
 30
0.0
 11
35.90000000000006
 21
-69.99999999999858
 31
0.0
  0
LINE
  5
5D
  8
0
  6
CONTINUOUS
 62
     7
 10
33.60000000000011
 20
-69.8000000000001
 30
0.0
 11
35.90000000000006
 21
-69.8000000000001
 31
0.0
  0
LINE
  5
5E
  8
0
  6
CONTINUOUS
 62
     7
 10
33.60000000000011
 20
-69.1499999999991
 30
0.0
 11
33.60000000000011
 21
-69.8000000000001
 31
0.0
  0
LINE
  5
5F
  8
0
  6
CONTINUOUS
 62
     7
 10
18.40000000000009
 20
-75.7999999999999
 30
0.0
 11
18.19999999999999
 21
-75.7999999999999
 31
0.0
  0
LINE
  5
60
  8
0
  6
CONTINUOUS
 62
     7
 10
18.19999999999999
 20
-75.7999999999999
 30
0.0
 11
16.09999999999999
 21
-75.7999999999999
 31
0.0
  0
LINE
  5
61
  8
0
  6
CONTINUOUS
 62
     7
 10
18.40000000000009
 20
-77.54999999999919
 30
0.0
 11
18.40000000000009
 21
-75.7999999999999
 31
0.0
  0
LINE
  5
62
  8
0
  6
CONTINUOUS
 62
     7
 10
18.40000000000009
 20
-69.8000000000001
 30
0.0
 11
18.40000000000009
 21
-69.1499999999991
 31
0.0
  0
LINE
  5
63
  8
0
  6
CONTINUOUS
 62
     7
 10
16.09999999999999
 20
-69.99999999999898
 30
0.0
 11
16.09999999999999
 21
-69.8000000000001
 31
0.0
  0
LINE
  5
64
  8
0
  6
CONTINUOUS
 62
     7
 10
16.09999999999999
 20
-69.8000000000001
 30
0.0
 11
18.40000000000009
 21
-69.8000000000001
 31
0.0
  0
LINE
  5
65
  8
0
  6
CONTINUOUS
 62
     7
 10
16.09999999999999
 20
-75.7999999999999
 30
0.0
 11
16.09999999999999
 21
-69.99999999999898
 31
0.0
  0
LINE
  5
66
  8
0
  6
CONTINUOUS
 62
     7
 10
3.020946077914
 20
0.0
 30
0.0
 11
11.97905392208619
 21
0.0
 31
0.0
  0
LINE
  5
67
  8
0
  6
CONTINUOUS
 62
     7
 10
11.97905392208619
 20
0.0
 30
0.0
 11
12.65000000000009
 21
0.0
 31
0.0
  0
LINE
  5
68
  8
0
  6
CONTINUOUS
 62
     7
 10
33.14999999999995
 20
-75.7999999999999
 30
0.0
 11
33.14999999999995
 21
-77.54999999999919
 31
0.0
  0
LINE
  5
69
  8
0
  6
CONTINUOUS
 62
     7
 10
33.60000000000011
 20
-51.8000000000001
 30
0.0
 11
33.15000000000006
 21
-51.8000000000001
 31
0.0
  0
LINE
  5
6A
  8
0
  6
CONTINUOUS
 62
     7
 10
36.1999999999999
 20
-77.54999999999919
 30
0.0
 11
36.19999999999996
 21
-77.65476230847449
 31
0.0
  0
LINE
  5
6B
  8
0
  6
CONTINUOUS
 62
     7
 10
33.60000000000011
 20
-77.54999999999919
 30
0.0
 11
36.1999999999999
 21
-77.54999999999919
 31
0.0
  0
LINE
  5
6C
  8
0
  6
CONTINUOUS
 62
     7
 10
14.5
 20
-80.3499999999996
 30
0.0
 11
37.49999999999986
 21
-80.34999999999988
 31
0.0
  0
LINE
  5
6D
  8
0
  6
CONTINUOUS
 62
     7
 10
36.19999999999996
 20
-76.69999999999928
 30
0.0
 11
36.1999999999999
 21
-77.54999999999919
 31
0.0
  0
LINE
  5
6E
  8
0
  6
CONTINUOUS
 62
     7
 10
36.19999999999996
 20
-69.99999999999898
 30
0.0
 11
36.19999999999996
 21
-76.69999999999928
 31
0.0
  0
LINE
  5
6F
  8
0
  6
CONTINUOUS
 62
     7
 10
15.7999999999999
 20
-69.99999999999898
 30
0.0
 11
15.7999999999999
 21
-76.69999999999928
 31
0.0
  0
LINE
  5
70
  8
0
  6
CONTINUOUS
 62
     7
 10
15.7999999999999
 20
-69.1499999999991
 30
0.0
 11
15.7999999999999
 21
-69.99999999999898
 31
0.0
  0
LINE
  5
71
  8
0
  6
CONTINUOUS
 62
     7
 10
15.7999999999999
 20
-77.54999999999919
 30
0.0
 11
15.7999999999999
 21
-77.65476230847449
 31
0.0
  0
LINE
  5
72
  8
0
  6
CONTINUOUS
 62
     7
 10
15.7999999999999
 20
-76.69999999999928
 30
0.0
 11
15.7999999999999
 21
-77.54999999999919
 31
0.0
  0
LINE
  5
73
  8
0
  6
CONTINUOUS
 62
     7
 10
18.84999999999999
 20
-75.7999999999999
 30
0.0
 11
18.84999999999999
 21
-77.54999999999919
 31
0.0
  0
LINE
  5
74
  8
0
  6
CONTINUOUS
 62
     7
 10
33.15000000000006
 20
-51.8000000000001
 30
0.0
 11
33.04523769152476
 21
-51.8000000000001
 31
0.0
  0
LINE
  5
75
  8
0
  6
CONTINUOUS
 62
     7
 10
35.90000000000006
 20
-51.8000000000001
 30
0.0
 11
33.60000000000011
 21
-51.8000000000001
 31
0.0
  0
LINE
  5
76
  8
0
  6
CONTINUOUS
 62
     7
 10
33.60000000000011
 20
-59.70000000000019
 30
0.0
 11
36.19999999999996
 21
-59.70000000000019
 31
0.0
  0
LINE
  5
77
  8
0
  6
CONTINUOUS
 62
     7
 10
36.19999999999996
 20
-59.70000000000019
 30
0.0
 11
36.20000000000013
 21
-59.80476230847549
 31
0.0
  0
LINE
  5
78
  8
0
  6
CONTINUOUS
 62
     7
 10
33.60000000000011
 20
-69.1499999999991
 30
0.0
 11
33.14999999999995
 21
-69.1499999999991
 31
0.0
  0
LINE
  5
79
  8
0
  6
CONTINUOUS
 62
     7
 10
33.60000000000011
 20
-41.89999999999998
 30
0.0
 11
36.20000000000007
 21
-41.89999999999998
 31
0.0
  0
LINE
  5
7A
  8
0
  6
CONTINUOUS
 62
     7
 10
36.20000000000007
 20
-41.89999999999998
 30
0.0
 11
36.20000000000007
 21
-40.84999999999988
 31
0.0
  0
LINE
  5
7B
  8
0
  6
CONTINUOUS
 62
     7
 10
36.00000000000009
 20
-35.0000000000002
 30
0.0
 11
33.15000000000006
 21
-35.0000000000002
 31
0.0
  0
LINE
  5
7C
  8
0
  6
CONTINUOUS
 62
     7
 10
36.20000000000007
 20
-35.0000000000002
 30
0.0
 11
36.20000000000007
 21
-34.8952376915249
 31
0.0
  0
LINE
  5
7D
  8
0
  6
CONTINUOUS
 62
     7
 10
15.80000000000001
 20
-40.84999999999988
 30
0.0
 11
15.80000000000001
 21
-35.5
 31
0.0
  0
LINE
  5
7E
  8
0
  6
CONTINUOUS
 62
     7
 10
15.80000000000001
 20
-35.5
 30
0.0
 11
15.80000000000001
 21
-35.0000000000002
 31
0.0
  0
LINE
  5
7F
  8
0
  6
CONTINUOUS
 62
     7
 10
15.80000000000001
 20
-35.0000000000002
 30
0.0
 11
15.80000000000001
 21
-34.8952376915249
 31
0.0
  0
LINE
  5
80
  8
0
  6
CONTINUOUS
 62
     7
 10
16.00000000000011
 20
-35.0000000000002
 30
0.0
 11
18.85000000000008
 21
-35.0000000000002
 31
0.0
  0
LINE
  5
81
  8
0
  6
CONTINUOUS
 62
     7
 10
15.80000000000001
 20
-41.89999999999998
 30
0.0
 11
15.80000000000001
 21
-40.84999999999988
 31
0.0
  0
LINE
  5
82
  8
0
  6
CONTINUOUS
 62
     7
 10
18.40000000000009
 20
-41.89999999999998
 30
0.0
 11
15.80000000000001
 21
-41.89999999999998
 31
0.0
  0
LINE
  5
83
  8
0
  6
CONTINUOUS
 62
     7
 10
18.40000000000009
 20
-69.1499999999991
 30
0.0
 11
18.84999999999999
 21
-69.1499999999991
 31
0.0
  0
LINE
  5
84
  8
0
  6
CONTINUOUS
 62
     7
 10
18.85000000000008
 20
-51.8000000000001
 30
0.0
 11
18.9547623084753
 21
-51.8000000000001
 31
0.0
  0
LINE
  5
85
  8
0
  6
CONTINUOUS
 62
     7
 10
18.40000000000009
 20
-51.8000000000001
 30
0.0
 11
18.85000000000008
 21
-51.8000000000001
 31
0.0
  0
LINE
  5
86
  8
0
  6
CONTINUOUS
 62
     7
 10
16.09999999999999
 20
-51.8000000000001
 30
0.0
 11
18.40000000000009
 21
-51.8000000000001
 31
0.0
  0
LINE
  5
87
  8
0
  6
CONTINUOUS
 62
     7
 10
15.80000000000001
 20
-58.7999999999999
 30
0.0
 11
15.7999999999999
 21
-59.70000000000019
 31
0.0
  0
LINE
  5
88
  8
0
  6
CONTINUOUS
 62
     7
 10
18.40000000000009
 20
-59.70000000000019
 30
0.0
 11
15.7999999999999
 21
-59.70000000000019
 31
0.0
  0
LINE
  5
89
  8
0
  6
CONTINUOUS
 62
     7
 10
29.59999999999977
 20
-45.02387491768138
 30
0.0
 11
29.59999999999977
 21
-45.09744788236728
 31
0.0
  0
LINE
  5
8A
  8
0
  6
CONTINUOUS
 62
     7
 10
22.39999999999969
 20
-45.02387491768138
 30
0.0
 11
22.39999999999969
 21
-45.09744788236728
 31
0.0
  0
LINE
  5
8B
  8
0
  6
CONTINUOUS
 62
     7
 10
28.10000000000008
 20
-45.02387491768138
 30
0.0
 11
28.0240704675623
 21
-45.02387491768138
 31
0.0
  0
LINE
  5
8C
  8
0
  6
CONTINUOUS
 62
     7
 10
23.97592953243782
 20
-45.02387491768138
 30
0.0
 11
23.90000000000009
 21
-45.02387491768138
 31
0.0
  0
LINE
  5
8D
  8
0
  6
CONTINUOUS
 62
     7
 10
28.0240704675623
 20
-45.02387491768138
 30
0.0
 11
23.97592953243782
 21
-45.02387491768138
 31
0.0
  0
LINE
  5
8E
  8
0
  6
CONTINUOUS
 62
     7
 10
23.90000000000009
 20
-45.02387491768138
 30
0.0
 11
22.39999999999969
 21
-45.02387491768138
 31
0.0
  0
LINE
  5
8F
  8
0
  6
CONTINUOUS
 62
     7
 10
29.59999999999977
 20
-45.09744788236728
 30
0.0
 11
29.59999999999977
 21
-49.64999999999998
 31
0.0
  0
LINE
  5
90
  8
0
  6
CONTINUOUS
 62
     7
 10
22.39999999999969
 20
-45.09744788236728
 30
0.0
 11
22.39999999999969
 21
-49.64999999999998
 31
0.0
  0
LINE
  5
91
  8
0
  6
CONTINUOUS
 62
     7
 10
28.10000000000008
 20
-45.09744788236728
 30
0.0
 11
28.0240704675623
 21
-45.09744788236728
 31
0.0
  0
LINE
  5
92
  8
0
  6
CONTINUOUS
 62
     7
 10
23.97592953243782
 20
-45.09744788236728
 30
0.0
 11
23.90000000000009
 21
-45.09744788236728
 31
0.0
  0
LINE
  5
93
  8
0
  6
CONTINUOUS
 62
     7
 10
28.0240704675623
 20
-45.09744788236728
 30
0.0
 11
23.97592953243782
 21
-45.09744788236728
 31
0.0
  0
LINE
  5
94
  8
0
  6
CONTINUOUS
 62
     7
 10
23.90000000000009
 20
-45.09744788236728
 30
0.0
 11
22.39999999999969
 21
-45.09744788236728
 31
0.0
  0
LINE
  5
95
  8
0
  6
CONTINUOUS
 62
     7
 10
18.40000000000009
 20
-77.54999999999919
 30
0.0
 11
15.7999999999999
 21
-77.54999999999919
 31
0.0
  0
LINE
  5
96
  8
0
  6
CONTINUOUS
 62
     7
 10
36.20000000000007
 20
-35.5
 30
0.0
 11
36.20000000000007
 21
-35.0000000000002
 31
0.0
  0
LINE
  5
97
  8
0
  6
CONTINUOUS
 62
     7
 10
36.20000000000007
 20
-40.84999999999988
 30
0.0
 11
36.20000000000007
 21
-35.5
 31
0.0
  0
LINE
  5
98
  8
0
  6
CONTINUOUS
 62
     7
 10
36.20000000000007
 20
-58.7999999999999
 30
0.0
 11
36.19999999999996
 21
-59.70000000000019
 31
0.0
  0
LINE
  5
99
  8
0
  6
CONTINUOUS
 62
     7
 10
40.02094607791386
 20
0.0
 30
0.0
 11
39.35000000000011
 21
0.0
 31
0.0
  0
LINE
  5
9A
  8
0
  6
CONTINUOUS
 62
     7
 10
48.97905392208619
 20
0.0
 30
0.0
 11
40.02094607791386
 21
0.0
 31
0.0
  0
LINE
  5
9B
  8
0
  6
CONTINUOUS
 62
     7
 10
2.34999999999999
 20
-4.0
 30
0.0
 11
2.24523769152489
 21
-4.1047623084753
 31
0.0
  0
LINE
  5
9C
  8
0
  6
CONTINUOUS
 62
     7
 10
2.34999999999991
 20
0.00000000000031
 30
0.0
 11
2.24523769152489
 21
0.1047623084753
 31
0.0
  0
LINE
  5
9D
  8
0
  6
CONTINUOUS
 62
     7
 10
0.0
 20
16.65000000000009
 30
0.0
 11
0.0
 21
0.0
 31
0.0
  0
LINE
  5
9E
  8
0
  6
CONTINUOUS
 62
     7
 10
12.65000000000009
 20
-4.0
 30
0.0
 11
2.34999999999999
 21
-4.0
 31
0.0
  0
LINE
  5
9F
  8
0
  6
CONTINUOUS
 62
     7
 10
2.34999999999999
 20
-4.0
 30
0.0
 11
2.34999999999991
 21
0.00000000000031
 31
0.0
  0
LINE
  5
A0
  8
0
  6
CONTINUOUS
 62
     7
 10
3.0365950955366
 20
-2.4226182617403
 30
0.0
 11
3.020946077914
 21
-0.5
 31
0.0
  0
LINE
  5
A1
  8
0
  6
CONTINUOUS
 62
     7
 10
3.020946077914
 20
-0.5
 30
0.0
 11
3.020946077914
 21
0.0
 31
0.0
  0
LINE
  5
A2
  8
0
  6
CONTINUOUS
 62
     7
 10
11.9475852431959
 20
-2.99999999999969
 30
0.0
 11
3.0524147568043
 21
-2.99999999999969
 31
0.0
  0
LINE
  5
A3
  8
0
  6
CONTINUOUS
 62
     7
 10
11.97905392208619
 20
-0.5
 30
0.0
 11
3.020946077914
 21
-0.5
 31
0.0
  0
LINE
  5
A4
  8
0
  6
CONTINUOUS
 62
     7
 10
2.24523769152489
 20
0.1047623084753
 30
0.0
 11
12.75476230847528
 21
0.1047623084753
 31
0.0
  0
LINE
  5
A5
  8
0
  6
CONTINUOUS
 62
     7
 10
2.24523769152489
 20
-4.1047623084753
 30
0.0
 11
2.24523769152489
 21
0.1047623084753
 31
0.0
  0
LINE
  5
A6
  8
0
  6
CONTINUOUS
 62
     7
 10
12.75476230847528
 20
-4.1047623084753
 30
0.0
 11
2.24523769152489
 21
-4.1047623084753
 31
0.0
  0
LINE
  5
A7
  8
0
  6
CONTINUOUS
 62
     7
 10
10.0
 20
26.6500000000004
 30
0.0
 11
0.0
 21
16.65000000000009
 31
0.0
  0
LINE
  5
A8
  8
0
  6
CONTINUOUS
 62
     7
 10
0.0
 20
-70.3499999999996
 30
0.0
 11
5.0000000000004
 21
-75.34999999999988
 31
0.0
  0
LINE
  5
A9
  8
0
  6
CONTINUOUS
 62
     7
 10
33.15000000000006
 20
-51.8000000000001
 30
0.0
 11
33.15000000000006
 21
-59.70000000000019
 31
0.0
  0
LINE
  5
AA
  8
0
  6
CONTINUOUS
 62
     7
 10
29.59999999999977
 20
-45.02387491768138
 30
0.0
 11
28.10000000000008
 21
-45.02387491768138
 31
0.0
  0
LINE
  5
AB
  8
0
  6
CONTINUOUS
 62
     7
 10
29.59999999999977
 20
-45.09744788236728
 30
0.0
 11
28.10000000000008
 21
-45.09744788236728
 31
0.0
  0
LINE
  5
AC
  8
0
  6
CONTINUOUS
 62
     7
 10
33.15000000000006
 20
-41.90000000000029
 30
0.0
 11
33.04523769152476
 21
-42.00476230847528
 31
0.0
  0
LINE
  5
AD
  8
0
  6
CONTINUOUS
 62
     7
 10
33.79999999999993
 20
-58.7999999999999
 30
0.0
 11
36.20000000000007
 21
-58.7999999999999
 31
0.0
  0
LINE
  5
AE
  8
0
  6
CONTINUOUS
 62
     7
 10
33.15000000000006
 20
-59.70000000000019
 30
0.0
 11
33.04523769152476
 21
-59.80476230847549
 31
0.0
  0
LINE
  5
AF
  8
0
  6
CONTINUOUS
 62
     7
 10
33.80000000000004
 20
-40.85000000000008
 30
0.0
 11
36.20000000000007
 21
-40.84999999999988
 31
0.0
  0
LINE
  5
B0
  8
0
  6
CONTINUOUS
 62
     7
 10
33.15000000000006
 20
-35.0000000000002
 30
0.0
 11
33.04523769152476
 21
-34.8952376915249
 31
0.0
  0
LINE
  5
B1
  8
0
  6
CONTINUOUS
 62
     7
 10
36.20000000000007
 20
-35.0000000000002
 30
0.0
 11
36.00000000000009
 21
-35.0000000000002
 31
0.0
  0
LINE
  5
B2
  8
0
  6
CONTINUOUS
 62
     7
 10
33.15000000000006
 20
-41.90000000000029
 30
0.0
 11
33.60000000000011
 21
-41.89999999999998
 31
0.0
  0
LINE
  5
B3
  8
0
  6
CONTINUOUS
 62
     7
 10
33.15000000000006
 20
-35.0000000000002
 30
0.0
 11
33.15000000000006
 21
-41.90000000000029
 31
0.0
  0
LINE
  5
B4
  8
0
  6
CONTINUOUS
 62
     7
 10
49.65000000000018
 20
0.0
 30
0.0
 11
49.75476230847525
 21
0.1047623084753
 31
0.0
  0
LINE
  5
B5
  8
0
  6
CONTINUOUS
 62
     7
 10
49.65000000000006
 20
-4.0
 30
0.0
 11
49.75476230847525
 21
-4.1047623084753
 31
0.0
  0
LINE
  5
B6
  8
0
  6
CONTINUOUS
 62
     7
 10
49.65000000000006
 20
-4.0
 30
0.0
 11
49.65000000000018
 21
0.0
 31
0.0
  0
LINE
  5
B7
  8
0
  6
CONTINUOUS
 62
     7
 10
48.97905392208619
 20
-0.5
 30
0.0
 11
48.97905392208619
 21
0.0
 31
0.0
  0
LINE
  5
B8
  8
0
  6
CONTINUOUS
 62
     7
 10
40.02094607791386
 20
0.0
 30
0.0
 11
40.02094607791398
 21
-0.5000000000002
 31
0.0
  0
LINE
  5
B9
  8
0
  6
CONTINUOUS
 62
     7
 10
40.02094607791398
 20
-0.5000000000002
 30
0.0
 11
40.03659509553663
 21
-2.4226182617405
 31
0.0
  0
LINE
  5
BA
  8
0
  6
CONTINUOUS
 62
     7
 10
40.02094607791398
 20
-0.5000000000002
 30
0.0
 11
48.97905392208619
 21
-0.5
 31
0.0
  0
LINE
  5
BB
  8
0
  6
CONTINUOUS
 62
     7
 10
39.35000000000011
 20
0.0
 30
0.0
 11
39.35000000000011
 21
-4.0
 31
0.0
  0
LINE
  5
BC
  8
0
  6
CONTINUOUS
 62
     7
 10
49.65000000000018
 20
0.0
 30
0.0
 11
48.97905392208619
 21
0.0
 31
0.0
  0
LINE
  5
BD
  8
0
  6
CONTINUOUS
 62
     7
 10
48.96340490446355
 20
-2.4226182617403
 30
0.0
 11
48.97905392208619
 21
-0.5
 31
0.0
  0
LINE
  5
BE
  8
0
  6
CONTINUOUS
 62
     7
 10
40.05241475680415
 20
-2.99999999999969
 30
0.0
 11
48.9475852431959
 21
-2.99999999999969
 31
0.0
  0
LINE
  5
BF
  8
0
  6
CONTINUOUS
 62
     7
 10
39.35000000000011
 20
-4.0
 30
0.0
 11
39.24523769152492
 21
-4.1047623084753
 31
0.0
  0
LINE
  5
C0
  8
0
  6
CONTINUOUS
 62
     7
 10
39.24523769152492
 20
0.1047623084753
 30
0.0
 11
39.35000000000011
 21
0.0
 31
0.0
  0
LINE
  5
C1
  8
0
  6
CONTINUOUS
 62
     7
 10
39.35000000000011
 20
-4.0
 30
0.0
 11
49.65000000000006
 21
-4.0
 31
0.0
  0
LINE
  5
C2
  8
0
  6
CONTINUOUS
 62
     7
 10
52.00000000000043
 20
16.64999999999992
 30
0.0
 11
41.99999999999997
 21
26.6500000000004
 31
0.0
  0
LINE
  5
C3
  8
0
  6
CONTINUOUS
 62
     7
 10
9.5000000000004
 20
-75.34999999999988
 30
0.0
 11
5.0000000000004
 21
-75.34999999999988
 31
0.0
  0
LINE
  5
C4
  8
0
  6
CONTINUOUS
 62
     7
 10
12.75476230847528
 20
0.1047623084753
 30
0.0
 11
12.75476230847528
 21
-4.1047623084753
 31
0.0
  0
LINE
  5
C5
  8
0
  6
CONTINUOUS
 62
     7
 10
2.34999999999991
 20
0.00000000000031
 30
0.0
 11
3.020946077914
 21
0.0
 31
0.0
  0
LINE
  5
C6
  8
0
  6
CONTINUOUS
 62
     7
 10
12.75476230847528
 20
0.1047623084753
 30
0.0
 11
12.65000000000009
 21
0.0
 31
0.0
  0
LINE
  5
C7
  8
0
  6
CONTINUOUS
 62
     7
 10
12.65000000000009
 20
0.0
 30
0.0
 11
12.65000000000009
 21
-4.0
 31
0.0
  0
LINE
  5
C8
  8
0
  6
CONTINUOUS
 62
     7
 10
11.97905392208619
 20
-0.5
 30
0.0
 11
11.96340490446352
 21
-2.4226182617405
 31
0.0
  0
LINE
  5
C9
  8
0
  6
CONTINUOUS
 62
     7
 10
11.97905392208619
 20
0.0
 30
0.0
 11
11.97905392208619
 21
-0.5
 31
0.0
  0
LINE
  5
CA
  8
0
  6
CONTINUOUS
 62
     7
 10
12.65000000000009
 20
-4.0
 30
0.0
 11
12.75476230847528
 21
-4.1047623084753
 31
0.0
  0
LINE
  5
CB
  8
0
  6
CONTINUOUS
 62
     7
 10
33.04523769152476
 20
-42.00476230847528
 30
0.0
 11
36.20000000000007
 21
-42.00476230847528
 31
0.0
  0
LINE
  5
CC
  8
0
  6
CONTINUOUS
 62
     7
 10
33.04523769152476
 20
-59.80476230847549
 30
0.0
 11
36.20000000000013
 21
-59.80476230847549
 31
0.0
  0
LINE
  5
CD
  8
0
  6
CONTINUOUS
 62
     7
 10
33.04523769152476
 20
-51.8000000000001
 30
0.0
 11
33.04523769152476
 21
-59.80476230847549
 31
0.0
  0
LINE
  5
CE
  8
0
  6
CONTINUOUS
 62
     7
 10
47.0000000000002
 20
-75.3499999999996
 30
0.0
 11
52.00000000000043
 21
-70.3499999999996
 31
0.0
  0
LINE
  5
CF
  8
0
  6
CONTINUOUS
 62
     7
 10
33.04523769152465
 20
-69.04523769152408
 30
0.0
 11
33.04523769152465
 21
-77.65476230847449
 31
0.0
  0
LINE
  5
D0
  8
0
  6
CONTINUOUS
 62
     7
 10
36.19999999999996
 20
-69.0452376915238
 30
0.0
 11
33.04523769152465
 21
-69.04523769152408
 31
0.0
  0
LINE
  5
D1
  8
0
  6
CONTINUOUS
 62
     7
 10
33.04523769152465
 20
-77.65476230847449
 30
0.0
 11
36.19999999999996
 21
-77.65476230847449
 31
0.0
  0
LINE
  5
D2
  8
0
  6
CONTINUOUS
 62
     7
 10
29.59999999999977
 20
-44.83468729420289
 30
0.0
 11
29.59999999999977
 21
-45.02387491768138
 31
0.0
  0
LINE
  5
D3
  8
0
  6
CONTINUOUS
 62
     7
 10
29.59999999999977
 20
-44.83468729420289
 30
0.0
 11
22.39999999999969
 21
-44.83468729420289
 31
0.0
  0
LINE
  5
D4
  8
0
  6
CONTINUOUS
 62
     7
 10
29.59999999999977
 20
-49.64999999999998
 30
0.0
 11
22.39999999999969
 21
-49.64999999999998
 31
0.0
  0
LINE
  5
D5
  8
0
  6
CONTINUOUS
 62
     7
 10
22.39999999999969
 20
-44.83468729420289
 30
0.0
 11
22.39999999999969
 21
-45.02387491768138
 31
0.0
  0
LINE
  5
D6
  8
0
  6
CONTINUOUS
 62
     7
 10
36.19999999999996
 20
-69.99999999999898
 30
0.0
 11
35.90000000000006
 21
-69.99999999999858
 31
0.0
  0
LINE
  5
D7
  8
0
  6
CONTINUOUS
 62
     7
 10
36.19999999999996
 20
-69.0452376915238
 30
0.0
 11
36.19999999999996
 21
-69.1499999999991
 31
0.0
  0
LINE
  5
D8
  8
0
  6
CONTINUOUS
 62
     7
 10
36.19999999999996
 20
-69.1499999999991
 30
0.0
 11
33.60000000000011
 21
-69.1499999999991
 31
0.0
  0
LINE
  5
D9
  8
0
  6
CONTINUOUS
 62
     7
 10
18.9547623084753
 20
-59.80476230847549
 30
0.0
 11
15.80000000000001
 21
-59.80476230847549
 31
0.0
  0
LINE
  5
DA
  8
0
  6
CONTINUOUS
 62
     7
 10
18.84999999999999
 20
-69.1499999999991
 30
0.0
 11
18.95476230847521
 21
-69.0452376915238
 31
0.0
  0
LINE
  5
DB
  8
0
  6
CONTINUOUS
 62
     7
 10
18.85000000000008
 20
-59.70000000000019
 30
0.0
 11
18.9547623084753
 21
-59.80476230847549
 31
0.0
  0
LINE
  5
DC
  8
0
  6
CONTINUOUS
 62
     7
 10
18.2000000000001
 20
-40.85000000000008
 30
0.0
 11
15.80000000000001
 21
-40.84999999999988
 31
0.0
  0
LINE
  5
DD
  8
0
  6
CONTINUOUS
 62
     7
 10
18.2000000000001
 20
-40.85000000000008
 30
0.0
 11
18.2000000000001
 21
-40.35000000000019
 31
0.0
  0
LINE
  5
DE
  8
0
  6
CONTINUOUS
 62
     7
 10
16.00000000000011
 20
-35.5
 30
0.0
 11
15.80000000000001
 21
-35.5
 31
0.0
  0
LINE
  5
DF
  8
0
  6
CONTINUOUS
 62
     7
 10
18.85000000000008
 20
-35.0000000000002
 30
0.0
 11
18.85000000000008
 21
-41.89999999999998
 31
0.0
  0
LINE
  5
E0
  8
0
  6
CONTINUOUS
 62
     7
 10
15.80000000000001
 20
-35.0000000000002
 30
0.0
 11
16.00000000000011
 21
-35.0000000000002
 31
0.0
  0
LINE
  5
E1
  8
0
  6
CONTINUOUS
 62
     7
 10
18.85000000000008
 20
-41.89999999999998
 30
0.0
 11
18.40000000000009
 21
-41.89999999999998
 31
0.0
  0
LINE
  5
E2
  8
0
  6
CONTINUOUS
 62
     7
 10
18.9547623084753
 20
-42.00476230847559
 30
0.0
 11
15.80000000000001
 21
-42.00476230847528
 31
0.0
  0
LINE
  5
E3
  8
0
  6
CONTINUOUS
 62
     7
 10
18.85000000000008
 20
-35.0000000000002
 30
0.0
 11
18.9547623084753
 21
-34.8952376915249
 31
0.0
  0
LINE
  5
E4
  8
0
  6
CONTINUOUS
 62
     7
 10
15.80000000000001
 20
-34.8952376915249
 30
0.0
 11
18.9547623084753
 21
-34.8952376915249
 31
0.0
  0
LINE
  5
E5
  8
0
  6
CONTINUOUS
 62
     7
 10
15.80000000000001
 20
-42.00476230847528
 30
0.0
 11
15.80000000000001
 21
-41.89999999999998
 31
0.0
  0
LINE
  5
E6
  8
0
  6
CONTINUOUS
 62
     7
 10
18.9547623084753
 20
-42.00476230847559
 30
0.0
 11
18.85000000000008
 21
-41.89999999999998
 31
0.0
  0
LINE
  5
E7
  8
0
  6
CONTINUOUS
 62
     7
 10
18.9547623084753
 20
-34.8952376915249
 30
0.0
 11
18.9547623084753
 21
-42.00476230847559
 31
0.0
  0
LINE
  5
E8
  8
0
  6
CONTINUOUS
 62
     7
 10
33.14999999999995
 20
-69.1499999999991
 30
0.0
 11
33.04523769152465
 21
-69.04523769152408
 31
0.0
  0
LINE
  5
E9
  8
0
  6
CONTINUOUS
 62
     7
 10
15.7999999999999
 20
-69.1499999999991
 30
0.0
 11
18.40000000000009
 21
-69.1499999999991
 31
0.0
  0
LINE
  5
EA
  8
0
  6
CONTINUOUS
 62
     7
 10
15.7999999999999
 20
-69.0452376915238
 30
0.0
 11
18.95476230847521
 21
-69.0452376915238
 31
0.0
  0
LINE
  5
EB
  8
0
  6
CONTINUOUS
 62
     7
 10
15.7999999999999
 20
-69.99999999999898
 30
0.0
 11
16.09999999999999
 21
-69.99999999999898
 31
0.0
  0
LINE
  5
EC
  8
0
  6
CONTINUOUS
 62
     7
 10
33.14999999999995
 20
-69.1499999999991
 30
0.0
 11
33.14999999999995
 21
-75.7999999999999
 31
0.0
  0
LINE
  5
ED
  8
0
  6
CONTINUOUS
 62
     7
 10
33.79999999999993
 20
-58.7999999999999
 30
0.0
 11
33.79999999999993
 21
-57.7999999999999
 31
0.0
  0
LINE
  5
EE
  8
0
  6
CONTINUOUS
 62
     7
 10
33.15000000000006
 20
-59.70000000000019
 30
0.0
 11
33.60000000000011
 21
-59.70000000000019
 31
0.0
  0
LINE
  5
EF
  8
0
  6
CONTINUOUS
 62
     7
 10
36.20000000000013
 20
-51.8000000000001
 30
0.0
 11
36.20000000000007
 21
-58.7999999999999
 31
0.0
  0
LINE
  5
F0
  8
0
  6
CONTINUOUS
 62
     7
 10
33.80000000000004
 20
-40.85000000000008
 30
0.0
 11
33.80000000000004
 21
-40.35000000000008
 31
0.0
  0
LINE
  5
F1
  8
0
  6
CONTINUOUS
 62
     7
 10
36.20000000000007
 20
-35.5
 30
0.0
 11
36.00000000000009
 21
-35.5
 31
0.0
  0
LINE
  5
F2
  8
0
  6
CONTINUOUS
 62
     7
 10
39.24523769152492
 20
-4.1047623084753
 30
0.0
 11
49.75476230847525
 21
-4.1047623084753
 31
0.0
  0
LINE
  5
F3
  8
0
  6
CONTINUOUS
 62
     7
 10
49.75476230847525
 20
0.1047623084753
 30
0.0
 11
39.24523769152492
 21
0.1047623084753
 31
0.0
  0
LINE
  5
F4
  8
0
  6
CONTINUOUS
 62
     7
 10
39.24523769152492
 20
0.1047623084753
 30
0.0
 11
39.24523769152492
 21
-4.1047623084753
 31
0.0
  0
LINE
  5
F5
  8
0
  6
CONTINUOUS
 62
     7
 10
36.20000000000007
 20
-42.00476230847528
 30
0.0
 11
36.20000000000007
 21
-41.89999999999998
 31
0.0
  0
LINE
  5
F6
  8
0
  6
CONTINUOUS
 62
     7
 10
33.04523769152476
 20
-34.8952376915249
 30
0.0
 11
33.04523769152476
 21
-42.00476230847528
 31
0.0
  0
LINE
  5
F7
  8
0
  6
CONTINUOUS
 62
     7
 10
36.20000000000007
 20
-34.8952376915249
 30
0.0
 11
33.04523769152476
 21
-34.8952376915249
 31
0.0
  0
LINE
  5
F8
  8
0
  6
CONTINUOUS
 62
     7
 10
36.20000000000013
 20
-51.8000000000001
 30
0.0
 11
35.90000000000006
 21
-51.8000000000001
 31
0.0
  0
LINE
  5
F9
  8
0
  6
CONTINUOUS
 62
     7
 10
18.9547623084753
 20
-51.8000000000001
 30
0.0
 11
18.9547623084753
 21
-59.80476230847549
 31
0.0
  0
LINE
  5
FA
  8
0
  6
CONTINUOUS
 62
     7
 10
15.80000000000001
 20
-51.8000000000001
 30
0.0
 11
16.09999999999999
 21
-51.8000000000001
 31
0.0
  0
LINE
  5
FB
  8
0
  6
CONTINUOUS
 62
     7
 10
15.80000000000001
 20
-51.8000000000001
 30
0.0
 11
15.80000000000001
 21
-58.7999999999999
 31
0.0
  0
LINE
  5
FC
  8
0
  6
CONTINUOUS
 62
     7
 10
15.7999999999999
 20
-59.70000000000019
 30
0.0
 11
15.80000000000001
 21
-59.80476230847549
 31
0.0
  0
LINE
  5
FD
  8
0
  6
CONTINUOUS
 62
     7
 10
18.2000000000001
 20
-58.7999999999999
 30
0.0
 11
15.80000000000001
 21
-58.7999999999999
 31
0.0
  0
LINE
  5
FE
  8
0
  6
CONTINUOUS
 62
     7
 10
18.2000000000001
 20
-58.7999999999999
 30
0.0
 11
18.2000000000001
 21
-57.7999999999999
 31
0.0
  0
LINE
  5
FF
  8
0
  6
CONTINUOUS
 62
     7
 10
18.85000000000008
 20
-59.70000000000019
 30
0.0
 11
18.40000000000009
 21
-59.70000000000019
 31
0.0
  0
LINE
  5
100
  8
0
  6
CONTINUOUS
 62
     7
 10
18.85000000000008
 20
-51.8000000000001
 30
0.0
 11
18.85000000000008
 21
-59.70000000000019
 31
0.0
  0
LINE
  5
101
  8
0
  6
CONTINUOUS
 62
     7
 10
18.84999999999999
 20
-69.1499999999991
 30
0.0
 11
18.84999999999999
 21
-75.7999999999999
 31
0.0
  0
LINE
  5
102
  8
0
  6
CONTINUOUS
 62
     7
 10
18.95476230847521
 20
-69.0452376915238
 30
0.0
 11
18.95476230847521
 21
-77.65476230847449
 31
0.0
  0
LINE
  5
103
  8
0
  6
CONTINUOUS
 62
     7
 10
18.19999999999999
 20
-75.7999999999999
 30
0.0
 11
18.19999999999999
 21
-76.69999999999908
 31
0.0
  0
LINE
  5
104
  8
0
  6
CONTINUOUS
 62
     7
 10
18.19999999999999
 20
-76.69999999999908
 30
0.0
 11
15.7999999999999
 21
-76.69999999999928
 31
0.0
  0
LINE
  5
105
  8
0
  6
CONTINUOUS
 62
     7
 10
15.7999999999999
 20
-69.0452376915238
 30
0.0
 11
15.7999999999999
 21
-69.1499999999991
 31
0.0
  0
LINE
  5
106
  8
0
  6
CONTINUOUS
 62
     7
 10
36.19999999999996
 20
-69.1499999999991
 30
0.0
 11
36.19999999999996
 21
-69.99999999999898
 31
0.0
  0
LINE
  5
107
  8
0
  6
CONTINUOUS
 62
     7
 10
33.79999999999993
 20
-76.69999999999908
 30
0.0
 11
33.79999999999993
 21
-75.7999999999999
 31
0.0
  0
LINE
  5
108
  8
0
  6
CONTINUOUS
 62
     7
 10
33.04523769152465
 20
-77.65476230847449
 30
0.0
 11
33.14999999999995
 21
-77.54999999999919
 31
0.0
  0
LINE
  5
109
  8
0
  6
CONTINUOUS
 62
     7
 10
18.95476230847521
 20
-77.65476230847449
 30
0.0
 11
18.84999999999999
 21
-77.54999999999919
 31
0.0
  0
LINE
  5
10A
  8
0
  6
CONTINUOUS
 62
     7
 10
18.95476230847521
 20
-77.65476230847449
 30
0.0
 11
15.7999999999999
 21
-77.65476230847449
 31
0.0
  0
LINE
  5
10B
  8
0
  6
CONTINUOUS
 62
     7
 10
33.14999999999995
 20
-77.54999999999919
 30
0.0
 11
33.60000000000011
 21
-77.54999999999919
 31
0.0
  0
LINE
  5
10C
  8
0
  6
CONTINUOUS
 62
     7
 10
18.84999999999999
 20
-77.54999999999919
 30
0.0
 11
18.40000000000009
 21
-77.54999999999919
 31
0.0
  0
LINE
  5
10D
  8
0
  6
CONTINUOUS
 62
     7
 10
33.79999999999993
 20
-76.69999999999908
 30
0.0
 11
36.19999999999996
 21
-76.69999999999928
 31
0.0
  0
LINE
  5
10E
  8
0
  6
CONTINUOUS
 62
     7
 10
37.49999999999986
 20
-80.34999999999988
 30
0.0
 11
42.50000000000009
 21
-75.3499999999996
 31
0.0
  0
LINE
  5
10F
  8
0
  6
CONTINUOUS
 62
     7
 10
42.50000000000009
 20
-75.3499999999996
 30
0.0
 11
47.0000000000002
 21
-75.3499999999996
 31
0.0
  0
LINE
  5
110
  8
0
  6
CONTINUOUS
 62
     7
 10
49.75476230847525
 20
-4.1047623084753
 30
0.0
 11
49.75476230847525
 21
0.1047623084753
 31
0.0
  0
LINE
  5
111
  8
0
  6
CONTINUOUS
 62
     7
 10
52.00000000000043
 20
-70.3499999999996
 30
0.0
 11
52.00000000000043
 21
16.64999999999992
 31
0.0
  0
LINE
  5
112
  8
0
  6
CONTINUOUS
 62
     7
 10
9.5000000000004
 20
-75.34999999999988
 30
0.0
 11
14.5
 21
-80.3499999999996
 31
0.0
  0
LINE
  5
113
  8
0
  6
DASHED
 62
     7
 10
35.90000000000006
 20
-51.8000000000001
 30
0.0
 11
33.60000000000011
 21
-51.8000000000001
 31
0.0
  0
LINE
  5
114
  8
0
  6
CONTINUOUS
 62
     7
 10
28.10000000000008
 20
-45.02387491768138
 30
0.0
 11
28.10000000000008
 21
-45.09744788236728
 31
0.0
  0
LINE
  5
115
  8
0
  6
CONTINUOUS
 62
     7
 10
23.97592953243782
 20
-45.09744788236728
 30
0.0
 11
23.97592953243782
 21
-45.02387491768138
 31
0.0
  0
LINE
  5
116
  8
0
  6
CONTINUOUS
 62
     7
 10
28.0240704675623
 20
-45.02387491768138
 30
0.0
 11
28.0240704675623
 21
-45.09744788236728
 31
0.0
  0
LINE
  5
117
  8
0
  6
CONTINUOUS
 62
     7
 10
23.90000000000009
 20
-45.09744788236728
 30
0.0
 11
23.90000000000009
 21
-45.02387491768138
 31
0.0
  0
LINE
  5
118
  8
0
  6
DASHED
 62
     7
 10
16.09999999999999
 20
-51.8000000000001
 30
0.0
 11
18.40000000000009
 21
-51.8000000000001
 31
0.0
  0
LINE
  5
119
  8
0
  6
CONTINUOUS
 62
     7
 10
18.84999999999999
 20
-75.7999999999999
 30
0.0
 11
18.40000000000009
 21
-75.7999999999999
 31
0.0
  0
LINE
  5
11A
  8
0
  6
CONTINUOUS
 62
     7
 10
33.14999999999995
 20
-75.7999999999999
 30
0.0
 11
33.60000000000011
 21
-75.7999999999999
 31
0.0
  0
LINE
  5
11B
  8
0
  6
CONTINUOUS
 62
     7
 10
10.0
 20
26.6500000000004
 30
0.0
 11
10.0000000000002
 21
98.65000000000043
 31
0.0
  0
LINE
  5
11C
  8
0
  6
CONTINUOUS
 62
     7
 10
41.99999999999997
 20
26.6500000000004
 30
0.0
 11
42.00000000000026
 21
98.65000000000043
 31
0.0
  0
LINE
  5
11D
  8
0
  6
CONTINUOUS
 62
     7
 10
10.0000000000002
 20
98.65000000000043
 30
0.0
 11
15.0000000000002
 21
103.6500000000004
 31
0.0
  0
LINE
  5
11E
  8
0
  6
CONTINUOUS
 62
     7
 10
15.0000000000002
 20
103.6500000000004
 30
0.0
 11
37.00000000000026
 21
103.6500000000004
 31
0.0
  0
LINE
  5
11F
  8
0
  6
CONTINUOUS
 62
     7
 10
42.00000000000026
 20
98.65000000000043
 30
0.0
 11
37.00000000000026
 21
103.6500000000004
 31
0.0
  0
CIRCLE
  5
120
  8
0
  6
CONTINUOUS
 62
     7
 10
8.0
 20
17.00000000000031
 30
0.0
 40
1.650000000000119
  0
CIRCLE
  5
121
  8
0
  6
CONTINUOUS
 62
     7
 10
8.00000000000011
 20
-70.49999999999969
 30
0.0
 40
1.649999999999807
  0
CIRCLE
  5
122
  8
0
  6
CONTINUOUS
 62
     7
 10
8.0
 20
-43.49999999999969
 30
0.0
 40
1.649999999999892
  0
CIRCLE
  5
123
  8
0
  6
CONTINUOUS
 62
     7
 10
44.00000000000009
 20
17.00000000000031
 30
0.0
 40
1.650000000000119
  0
CIRCLE
  5
124
  8
0
  6
CONTINUOUS
 62
     7
 10
26.00000000000011
 20
2.5000000000453
 30
0.0
 40
1.650000000000091
  0
CIRCLE
  5
125
  8
0
  6
CONTINUOUS
 62
     7
 10
44.00000000000043
 20
-70.49999999999969
 30
0.0
 40
1.650000000000084
  0
CIRCLE
  5
126
  8
0
  6
CONTINUOUS
 62
     7
 10
26.00000000000028
 20
-64.49999999999969
 30
0.0
 40
1.650000000000119
  0
CIRCLE
  5
127
  8
0
  6
CONTINUOUS
 62
     7
 10
26.00000000000028
 20
-70.49999999999969
 30
0.0
 40
1.650000000000119
  0
CIRCLE
  5
128
  8
0
  6
CONTINUOUS
 62
     7
 10
44.00000000000009
 20
-43.49999999999969
 30
0.0
 40
1.650000000000084
  0
CIRCLE
  5
129
  8
0
  6
CONTINUOUS
 62
     7
 10
8.0
 20
-43.49999999999969
 30
0.0
 40
2.149999999999892
  0
CIRCLE
  5
12A
  8
0
  6
CONTINUOUS
 62
     7
 10
9.49999999999989
 20
-17.74999999999969
 30
0.0
 40
2.150000000000087
  0
CIRCLE
  5
12B
  8
0
  6
CONTINUOUS
 62
     7
 10
26.00000000000011
 20
50.20000000000033
 30
0.0
 40
2.150000000000148
  0
CIRCLE
  5
12C
  8
0
  6
CONTINUOUS
 62
     7
 10
8.0
 20
17.00000000000031
 30
0.0
 40
2.150000000000119
  0
CIRCLE
  5
12D
  8
0
  6
CONTINUOUS
 62
     7
 10
9.49999999999989
 20
-17.74999999999969
 30
0.0
 40
1.650000000000087
  0
CIRCLE
  5
12E
  8
0
  6
CONTINUOUS
 62
     7
 10
8.00000000000011
 20
-70.49999999999969
 30
0.0
 40
2.150000000000091
  0
CIRCLE
  5
12F
  8
0
  6
CONTINUOUS
 62
     7
 10
26.00000000000011
 20
50.20000000000033
 30
0.0
 40
1.650000000000148
  0
CIRCLE
  5
130
  8
0
  6
CONTINUOUS
 62
     7
 10
26.00000000000011
 20
42.20000000000033
 30
0.0
 40
1.650000000000148
  0
CIRCLE
  5
131
  8
0
  6
CONTINUOUS
 62
     7
 10
25.99999999999972
 20
20.20000000000033
 30
0.0
 40
1.650000000000119
  0
CIRCLE
  5
132
  8
0
  6
CONTINUOUS
 62
     7
 10
25.99999999999972
 20
20.20000000000033
 30
0.0
 40
2.14999999999981
  0
CIRCLE
  5
133
  8
0
  6
CONTINUOUS
 62
     7
 10
26.00000000000011
 20
36.50000000000051
 30
0.0
 40
1.650000000000119
  0
CIRCLE
  5
134
  8
0
  6
CONTINUOUS
 62
     7
 10
26.00000000000011
 20
36.50000000000051
 30
0.0
 40
2.150000000000091
  0
CIRCLE
  5
135
  8
0
  6
CONTINUOUS
 62
     7
 10
26.00000000000011
 20
42.20000000000033
 30
0.0
 40
2.150000000000148
  0
CIRCLE
  5
136
  8
0
  6
CONTINUOUS
 62
     7
 10
44.00000000000009
 20
17.00000000000031
 30
0.0
 40
2.150000000000119
  0
CIRCLE
  5
137
  8
0
  6
CONTINUOUS
 62
     7
 10
26.00000000000011
 20
2.5000000000453
 30
0.0
 40
2.150000000000205
  0
CIRCLE
  5
138
  8
0
  6
CONTINUOUS
 62
     7
 10
26.00000000000028
 20
-70.49999999999969
 30
0.0
 40
2.150000000000091
  0
CIRCLE
  5
139
  8
0
  6
CONTINUOUS
 62
     7
 10
26.00000000000028
 20
-64.49999999999969
 30
0.0
 40
2.150000000000006
  0
CIRCLE
  5
13A
  8
0
  6
CONTINUOUS
 62
     7
 10
44.00000000000043
 20
-70.49999999999969
 30
0.0
 40
2.150000000000091
  0
CIRCLE
  5
13B
  8
0
  6
CONTINUOUS
 62
     7
 10
44.00000000000009
 20
-43.49999999999969
 30
0.0
 40
2.149999999999892
  0
CIRCLE
  5
13C
  8
0
  6
CONTINUOUS
 62
     7
 10
25.9999999999996
 20
-9.79999999995479
 30
0.0
 40
1.650000000000007
  0
CIRCLE
  5
13D
  8
0
  6
CONTINUOUS
 62
     7
 10
25.9999999999996
 20
-9.79999999995479
 30
0.0
 40
2.149999999999698
  0
CIRCLE
  5
13E
  8
0
  6
CONTINUOUS
 62
     7
 10
42.5000000000002
 20
-17.74999999999969
 30
0.0
 40
1.650000000000087
  0
CIRCLE
  5
13F
  8
0
  6
CONTINUOUS
 62
     7
 10
42.5000000000002
 20
-17.74999999999969
 30
0.0
 40
2.150000000000087
  0
CIRCLE
  5
140
  8
0
  6
CONTINUOUS
 62
     7
 10
26.00000000000028
 20
70.5000000000004
 30
0.0
 40
1.650000000000091
  0
CIRCLE
  5
141
  8
0
  6
CONTINUOUS
 62
     7
 10
26.00000000000028
 20
98.70000000000061
 30
0.0
 40
1.650000000000091
  0
CIRCLE
  5
142
  8
0
  6
CONTINUOUS
 62
     7
 10
26.00000000000028
 20
98.70000000000061
 30
0.0
 40
2.150000000000148
  0
CIRCLE
  5
143
  8
0
  6
CONTINUOUS
 62
     7
 10
26.00000000000028
 20
70.5000000000004
 30
0.0
 40
2.150000000000148
  0
POLYLINE
  5
144
  8
0
  6
CONTINUOUS
 62
     7
 66
     1
 10
0.0
 20
0.0
 30
0.0
  0
VERTEX
  5
14A
  8
0
  6
CONTINUOUS
 62
     7
 10
3.0524147568043
 20
-2.99999999999969
 30
0.0
  0
VERTEX
  5
14B
  8
0
  6
CONTINUOUS
 62
     7
 10
3.05136969207142
 20
-2.99845623937691
 30
0.0
  0
VERTEX
  5
14C
  8
0
  6
CONTINUOUS
 62
     7
 10
3.05098125340551
 20
-2.99655767290371
 30
0.0
  0
VERTEX
  5
14D
  8
0
  6
CONTINUOUS
 62
     7
 10
3.05061542071396
 20
-2.99469999291981
 30
0.0
  0
VERTEX
  5
14E
  8
0
  6
CONTINUOUS
 62
     7
 10
3.05032555759021
 20
-2.99281882228288
 30
0.0
  0
VERTEX
  5
14F
  8
0
  6
CONTINUOUS
 62
     7
 10
3.05007143779028
 20
-2.99093262212079
 30
0.0
  0
VERTEX
  5
150
  8
0
  6
CONTINUOUS
 62
     7
 10
3.0498379408774
 20
-2.98904674952574
 30
0.0
  0
VERTEX
  5
151
  8
0
  6
CONTINUOUS
 62
     7
 10
3.04962537788433
 20
-2.98715734010961
 30
0.0
  0
VERTEX
  5
152
  8
0
  6
CONTINUOUS
 62
     7
 10
3.04942930845358
 20
-2.98526544763022
 30
0.0
  0
VERTEX
  5
153
  8
0
  6
CONTINUOUS
 62
     7
 10
3.04924515573808
 20
-2.9833726099797
 30
0.0
  0
VERTEX
  5
154
  8
0
  6
CONTINUOUS
 62
     7
 10
3.04907100904585
 20
-2.98147909729862
 30
0.0
  0
VERTEX
  5
155
  8
0
  6
CONTINUOUS
 62
     7
 10
3.04890568199135
 20
-2.97958483698358
 30
0.0
  0
VERTEX
  5
156
  8
0
  6
CONTINUOUS
 62
     7
 10
3.04874810366874
 20
-2.97768983001943
 30
0.0
  0
VERTEX
  5
157
  8
0
  6
CONTINUOUS
 62
     7
 10
3.04859739883382
 20
-2.97579420209921
 30
0.0
  0
VERTEX
  5
158
  8
0
  6
CONTINUOUS
 62
     7
 10
3.04845271122889
 20
-2.97389809098092
 30
0.0
  0
VERTEX
  5
159
  8
0
  6
CONTINUOUS
 62
     7
 10
3.04831328053509
 20
-2.9720016113436
 30
0.0
  0
VERTEX
  5
15A
  8
0
  6
CONTINUOUS
 62
     7
 10
3.04817864721028
 20
-2.97010480551171
 30
0.0
  0
VERTEX
  5
15B
  8
0
  6
CONTINUOUS
 62
     7
 10
3.04804841049904
 20
-2.96820770166805
 30
0.0
  0
VERTEX
  5
15C
  8
0
  6
CONTINUOUS
 62
     7
 10
3.04792217016565
 20
-2.9663103279755
 30
0.0
  0
VERTEX
  5
15D
  8
0
  6
CONTINUOUS
 62
     7
 10
3.04779957984741
 20
-2.96441271053302
 30
0.0
  0
VERTEX
  5
15E
  8
0
  6
CONTINUOUS
 62
     7
 10
3.04768039328319
 20
-2.96251487160466
 30
0.0
  0
VERTEX
  5
15F
  8
0
  6
CONTINUOUS
 62
     7
 10
3.04756437510524
 20
-2.96061683303714
 30
0.0
  0
VERTEX
  5
160
  8
0
  6
CONTINUOUS
 62
     7
 10
3.0474512899458
 20
-2.95871861667717
 30
0.0
  0
VERTEX
  5
161
  8
0
  6
CONTINUOUS
 62
     7
 10
3.04734091095006
 20
-2.95682024332984
 30
0.0
  0
VERTEX
  5
162
  8
0
  6
CONTINUOUS
 62
     7
 10
3.0472330738269
 20
-2.95492172614506
 30
0.0
  0
VERTEX
  5
163
  8
0
  6
CONTINUOUS
 62
     7
 10
3.04712764218905
 20
-2.95302307485847
 30
0.0
  0
VERTEX
  5
164
  8
0
  6
CONTINUOUS
 62
     7
 10
3.047024479778
 20
-2.95112429918997
 30
0.0
  0
VERTEX
  5
165
  8
0
  6
CONTINUOUS
 62
     7
 10
3.0469234503352
 20
-2.94922540885945
 30
0.0
  0
VERTEX
  5
166
  8
0
  6
CONTINUOUS
 62
     7
 10
3.04682442009602
 20
-2.94732641340065
 30
0.0
  0
VERTEX
  5
167
  8
0
  6
CONTINUOUS
 62
     7
 10
3.04672728765588
 20
-2.94542731993159
 30
0.0
  0
VERTEX
  5
168
  8
0
  6
CONTINUOUS
 62
     7
 10
3.04663197420707
 20
-2.94352813388343
 30
0.0
  0
VERTEX
  5
169
  8
0
  6
CONTINUOUS
 62
     7
 10
3.04653840140385
 20
-2.94162886065287
 30
0.0
  0
VERTEX
  5
16A
  8
0
  6
CONTINUOUS
 62
     7
 10
3.04644649090051
 20
-2.93972950563658
 30
0.0
  0
VERTEX
  5
16B
  8
0
  6
CONTINUOUS
 62
     7
 10
3.0463561643513
 20
-2.93783007423124
 30
0.0
  0
VERTEX
  5
16C
  8
0
  6
CONTINUOUS
 62
     7
 10
3.0462673434105
 20
-2.93593057183354
 30
0.0
  0
VERTEX
  5
16D
  8
0
  6
CONTINUOUS
 62
     7
 10
3.04617995011666
 20
-2.93403100380854
 30
0.0
  0
VERTEX
  5
16E
  8
0
  6
CONTINUOUS
 62
     7
 10
3.04609392079916
 20
-2.93213137434626
 30
0.0
  0
VERTEX
  5
16F
  8
0
  6
CONTINUOUS
 62
     7
 10
3.04600920998495
 20
-2.9302316861404
 30
0.0
  0
VERTEX
  5
170
  8
0
  6
CONTINUOUS
 62
     7
 10
3.045925773381
 20
-2.92833194178763
 30
0.0
  0
VERTEX
  5
171
  8
0
  6
CONTINUOUS
 62
     7
 10
3.04584356669427
 20
-2.92643214388462
 30
0.0
  0
VERTEX
  5
172
  8
0
  6
CONTINUOUS
 62
     7
 10
3.04576254563171
 20
-2.92453229502803
 30
0.0
  0
VERTEX
  5
173
  8
0
  6
CONTINUOUS
 62
     7
 10
3.04568266590031
 20
-2.92263239781454
 30
0.0
  0
VERTEX
  5
174
  8
0
  6
CONTINUOUS
 62
     7
 10
3.045603883207
 20
-2.92073245484083
 30
0.0
  0
VERTEX
  5
175
  8
0
  6
CONTINUOUS
 62
     7
 10
3.0455261533972
 20
-2.91883246869444
 30
0.0
  0
VERTEX
  5
176
  8
0
  6
CONTINUOUS
 62
     7
 10
3.04544943896659
 20
-2.91693244152539
 30
0.0
  0
VERTEX
  5
177
  8
0
  6
CONTINUOUS
 62
     7
 10
3.04537371186477
 20
-2.91503237486164
 30
0.0
  0
VERTEX
  5
178
  8
0
  6
CONTINUOUS
 62
     7
 10
3.04529894476234
 20
-2.91313227018374
 30
0.0
  0
VERTEX
  5
179
  8
0
  6
CONTINUOUS
 62
     7
 10
3.0452251103299
 20
-2.91123212897222
 30
0.0
  0
VERTEX
  5
17A
  8
0
  6
CONTINUOUS
 62
     7
 10
3.04515218123807
 20
-2.90933195270762
 30
0.0
  0
VERTEX
  5
17B
  8
0
  6
CONTINUOUS
 62
     7
 10
3.04508013015744
 20
-2.90743174287047
 30
0.0
  0
VERTEX
  5
17C
  8
0
  6
CONTINUOUS
 62
     7
 10
3.04500892975864
 20
-2.9055315009413
 30
0.0
  0
VERTEX
  5
17D
  8
0
  6
CONTINUOUS
 62
     7
 10
3.04493855271225
 20
-2.90363122840067
 30
0.0
  0
VERTEX
  5
17E
  8
0
  6
CONTINUOUS
 62
     7
 10
3.04486897192421
 20
-2.90173092671414
 30
0.0
  0
VERTEX
  5
17F
  8
0
  6
CONTINUOUS
 62
     7
 10
3.04480016516595
 20
-2.89983059703808
 30
0.0
  0
VERTEX
  5
180
  8
0
  6
CONTINUOUS
 62
     7
 10
3.04473211478871
 20
-2.89793024023781
 30
0.0
  0
VERTEX
  5
181
  8
0
  6
CONTINUOUS
 62
     7
 10
3.04466480332182
 20
-2.89602985716732
 30
0.0
  0
VERTEX
  5
182
  8
0
  6
CONTINUOUS
 62
     7
 10
3.04459821329464
 20
-2.89412944868061
 30
0.0
  0
VERTEX
  5
183
  8
0
  6
CONTINUOUS
 62
     7
 10
3.0445323272365
 20
-2.89222901563166
 30
0.0
  0
VERTEX
  5
184
  8
0
  6
CONTINUOUS
 62
     7
 10
3.04446712767675
 20
-2.89032855887448
 30
0.0
  0
VERTEX
  5
185
  8
0
  6
CONTINUOUS
 62
     7
 10
3.04440259714474
 20
-2.88842807926305
 30
0.0
  0
VERTEX
  5
186
  8
0
  6
CONTINUOUS
 62
     7
 10
3.0443387181698
 20
-2.88652757765136
 30
0.0
  0
VERTEX
  5
187
  8
0
  6
CONTINUOUS
 62
     7
 10
3.04427547328128
 20
-2.88462705489342
 30
0.0
  0
VERTEX
  5
188
  8
0
  6
CONTINUOUS
 62
     7
 10
3.04421284570061
 20
-2.88272651180426
 30
0.0
  0
VERTEX
  5
189
  8
0
  6
CONTINUOUS
 62
     7
 10
3.04415082249515
 20
-2.88082594898246
 30
0.0
  0
VERTEX
  5
18A
  8
0
  6
CONTINUOUS
 62
     7
 10
3.04408939206052
 20
-2.87892536695182
 30
0.0
  0
VERTEX
  5
18B
  8
0
  6
CONTINUOUS
 62
     7
 10
3.04402854279357
 20
-2.87702476623609
 30
0.0
  0
VERTEX
  5
18C
  8
0
  6
CONTINUOUS
 62
     7
 10
3.04396826309118
 20
-2.87512414735901
 30
0.0
  0
VERTEX
  5
18D
  8
0
  6
CONTINUOUS
 62
     7
 10
3.04390854135021
 20
-2.87322351084431
 30
0.0
  0
VERTEX
  5
18E
  8
0
  6
CONTINUOUS
 62
     7
 10
3.04384936596754
 20
-2.87132285721575
 30
0.0
  0
VERTEX
  5
18F
  8
0
  6
CONTINUOUS
 62
     7
 10
3.04379072534002
 20
-2.86942218699706
 30
0.0
  0
VERTEX
  5
190
  8
0
  6
CONTINUOUS
 62
     7
 10
3.04373260786452
 20
-2.86752150071199
 30
0.0
  0
VERTEX
  5
191
  8
0
  6
CONTINUOUS
 62
     7
 10
3.04367500193792
 20
-2.86562079888427
 30
0.0
  0
VERTEX
  5
192
  8
0
  6
CONTINUOUS
 62
     7
 10
3.04361789602128
 20
-2.86372008203419
 30
0.0
  0
VERTEX
  5
193
  8
0
  6
CONTINUOUS
 62
     7
 10
3.04356128019095
 20
-2.8618193505948
 30
0.0
  0
VERTEX
  5
194
  8
0
  6
CONTINUOUS
 62
     7
 10
3.0435051462193
 20
-2.8599186049076
 30
0.0
  0
VERTEX
  5
195
  8
0
  6
CONTINUOUS
 62
     7
 10
3.04344948595913
 20
-2.85801784530974
 30
0.0
  0
VERTEX
  5
196
  8
0
  6
CONTINUOUS
 62
     7
 10
3.0433942912632
 20
-2.85611707213839
 30
0.0
  0
VERTEX
  5
197
  8
0
  6
CONTINUOUS
 62
     7
 10
3.04333955398429
 20
-2.85421628573069
 30
0.0
  0
VERTEX
  5
198
  8
0
  6
CONTINUOUS
 62
     7
 10
3.04328526597519
 20
-2.8523154864238
 30
0.0
  0
VERTEX
  5
199
  8
0
  6
CONTINUOUS
 62
     7
 10
3.04323141908867
 20
-2.85041467455487
 30
0.0
  0
VERTEX
  5
19A
  8
0
  6
CONTINUOUS
 62
     7
 10
3.04317800517751
 20
-2.84851385046106
 30
0.0
  0
VERTEX
  5
19B
  8
0
  6
CONTINUOUS
 62
     7
 10
3.04312501609449
 20
-2.84661301447951
 30
0.0
  0
VERTEX
  5
19C
  8
0
  6
CONTINUOUS
 62
     7
 10
3.0430724436924
 20
-2.84471216694739
 30
0.0
  0
VERTEX
  5
19D
  8
0
  6
CONTINUOUS
 62
     7
 10
3.04302027983602
 20
-2.84281130820129
 30
0.0
  0
VERTEX
  5
19E
  8
0
  6
CONTINUOUS
 62
     7
 10
3.0429685172826
 20
-2.84091043853573
 30
0.0
  0
VERTEX
  5
19F
  8
0
  6
CONTINUOUS
 62
     7
 10
3.04291715028103
 20
-2.83900955817496
 30
0.0
  0
VERTEX
  5
1A0
  8
0
  6
CONTINUOUS
 62
     7
 10
3.0428661732221
 20
-2.83710866733655
 30
0.0
  0
VERTEX
  5
1A1
  8
0
  6
CONTINUOUS
 62
     7
 10
3.04281558049659
 20
-2.83520776623805
 30
0.0
  0
VERTEX
  5
1A2
  8
0
  6
CONTINUOUS
 62
     7
 10
3.04276536649529
 20
-2.83330685509703
 30
0.0
  0
VERTEX
  5
1A3
  8
0
  6
CONTINUOUS
 62
     7
 10
3.04271552560899
 20
-2.83140593413105
 30
0.0
  0
VERTEX
  5
1A4
  8
0
  6
CONTINUOUS
 62
     7
 10
3.04266605222848
 20
-2.82950500355765
 30
0.0
  0
VERTEX
  5
1A5
  8
0
  6
CONTINUOUS
 62
     7
 10
3.04261694074453
 20
-2.82760406359442
 30
0.0
  0
VERTEX
  5
1A6
  8
0
  6
CONTINUOUS
 62
     7
 10
3.04256818554793
 20
-2.8257031144589
 30
0.0
  0
VERTEX
  5
1A7
  8
0
  6
CONTINUOUS
 62
     7
 10
3.04251978102946
 20
-2.82380215636866
 30
0.0
  0
VERTEX
  5
1A8
  8
0
  6
CONTINUOUS
 62
     7
 10
3.04247172157992
 20
-2.82190118954126
 30
0.0
  0
VERTEX
  5
1A9
  8
0
  6
CONTINUOUS
 62
     7
 10
3.04242400167063
 20
-2.82000021419065
 30
0.0
  0
VERTEX
  5
1AA
  8
0
  6
CONTINUOUS
 62
     7
 10
3.04237661666139
 20
-2.81809923049111
 30
0.0
  0
VERTEX
  5
1AB
  8
0
  6
CONTINUOUS
 62
     7
 10
3.04232956246337
 20
-2.81619823859225
 30
0.0
  0
VERTEX
  5
1AC
  8
0
  6
CONTINUOUS
 62
     7
 10
3.04228283499598
 20
-2.81429723864335
 30
0.0
  0
VERTEX
  5
1AD
  8
0
  6
CONTINUOUS
 62
     7
 10
3.04223643017861
 20
-2.81239623079365
 30
0.0
  0
VERTEX
  5
1AE
  8
0
  6
CONTINUOUS
 62
     7
 10
3.0421903439307
 20
-2.81049521519242
 30
0.0
  0
VERTEX
  5
1AF
  8
0
  6
CONTINUOUS
 62
     7
 10
3.04214457217163
 20
-2.80859419198891
 30
0.0
  0
VERTEX
  5
1B0
  8
0
  6
CONTINUOUS
 62
     7
 10
3.04209911082083
 20
-2.80669316133238
 30
0.0
  0
VERTEX
  5
1B1
  8
0
  6
CONTINUOUS
 62
     7
 10
3.04205395579771
 20
-2.8047921233721
 30
0.0
  0
VERTEX
  5
1B2
  8
0
  6
CONTINUOUS
 62
     7
 10
3.04200910302167
 20
-2.80289107825732
 30
0.0
  0
VERTEX
  5
1B3
  8
0
  6
CONTINUOUS
 62
     7
 10
3.04196454841212
 20
-2.8009900261373
 30
0.0
  0
VERTEX
  5
1B4
  8
0
  6
CONTINUOUS
 62
     7
 10
3.04192028788847
 20
-2.79908896716129
 30
0.0
  0
VERTEX
  5
1B5
  8
0
  6
CONTINUOUS
 62
     7
 10
3.04187631744062
 20
-2.79718790147542
 30
0.0
  0
VERTEX
  5
1B6
  8
0
  6
CONTINUOUS
 62
     7
 10
3.04183263362802
 20
-2.79528682920036
 30
0.0
  0
VERTEX
  5
1B7
  8
0
  6
CONTINUOUS
 62
     7
 10
3.04178923328582
 20
-2.79338575044447
 30
0.0
  0
VERTEX
  5
1B8
  8
0
  6
CONTINUOUS
 62
     7
 10
3.04174611325096
 20
-2.79148466531605
 30
0.0
  0
VERTEX
  5
1B9
  8
0
  6
CONTINUOUS
 62
     7
 10
3.04170327036037
 20
-2.78958357392338
 30
0.0
  0
VERTEX
  5
1BA
  8
0
  6
CONTINUOUS
 62
     7
 10
3.041660701451
 20
-2.78768247637476
 30
0.0
  0
VERTEX
  5
1BB
  8
0
  6
CONTINUOUS
 62
     7
 10
3.04161840335978
 20
-2.78578137277848
 30
0.0
  0
VERTEX
  5
1BC
  8
0
  6
CONTINUOUS
 62
     7
 10
3.04157637292365
 20
-2.78388026324281
 30
0.0
  0
VERTEX
  5
1BD
  8
0
  6
CONTINUOUS
 62
     7
 10
3.04153460697955
 20
-2.78197914787606
 30
0.0
  0
VERTEX
  5
1BE
  8
0
  6
CONTINUOUS
 62
     7
 10
3.04149310236443
 20
-2.78007802678651
 30
0.0
  0
VERTEX
  5
1BF
  8
0
  6
CONTINUOUS
 62
     7
 10
3.04145185591521
 20
-2.77817690008244
 30
0.0
  0
VERTEX
  5
1C0
  8
0
  6
CONTINUOUS
 62
     7
 10
3.04141086446885
 20
-2.77627576787215
 30
0.0
  0
VERTEX
  5
1C1
  8
0
  6
CONTINUOUS
 62
     7
 10
3.04137012489471
 20
-2.7743746302626
 30
0.0
  0
VERTEX
  5
1C2
  8
0
  6
CONTINUOUS
 62
     7
 10
3.04132963445712
 20
-2.77247348734461
 30
0.0
  0
VERTEX
  5
1C3
  8
0
  6
CONTINUOUS
 62
     7
 10
3.04128939068391
 20
-2.7705723391982
 30
0.0
  0
VERTEX
  5
1C4
  8
0
  6
CONTINUOUS
 62
     7
 10
3.0412493911077
 20
-2.76867118590323
 30
0.0
  0
VERTEX
  5
1C5
  8
0
  6
CONTINUOUS
 62
     7
 10
3.04120963326113
 20
-2.76677002753954
 30
0.0
  0
VERTEX
  5
1C6
  8
0
  6
CONTINUOUS
 62
     7
 10
3.04117011467683
 20
-2.76486886418696
 30
0.0
  0
VERTEX
  5
1C7
  8
0
  6
CONTINUOUS
 62
     7
 10
3.04113083288744
 20
-2.76296769592534
 30
0.0
  0
VERTEX
  5
1C8
  8
0
  6
CONTINUOUS
 62
     7
 10
3.04109178542558
 20
-2.76106652283453
 30
0.0
  0
VERTEX
  5
1C9
  8
0
  6
CONTINUOUS
 62
     7
 10
3.0410529698239
 20
-2.75916534499436
 30
0.0
  0
VERTEX
  5
1CA
  8
0
  6
CONTINUOUS
 62
     7
 10
3.04101438361501
 20
-2.75726416248467
 30
0.0
  0
VERTEX
  5
1CB
  8
0
  6
CONTINUOUS
 62
     7
 10
3.04097602433156
 20
-2.75536297538532
 30
0.0
  0
VERTEX
  5
1CC
  8
0
  6
CONTINUOUS
 62
     7
 10
3.04093788950617
 20
-2.75346178377613
 30
0.0
  0
VERTEX
  5
1CD
  8
0
  6
CONTINUOUS
 62
     7
 10
3.04089997667685
 20
-2.75156058773675
 30
0.0
  0
VERTEX
  5
1CE
  8
0
  6
CONTINUOUS
 62
     7
 10
3.04086228358907
 20
-2.74965938733875
 30
0.0
  0
VERTEX
  5
1CF
  8
0
  6
CONTINUOUS
 62
     7
 10
3.04082480825692
 20
-2.74775818264331
 30
0.0
  0
VERTEX
  5
1D0
  8
0
  6
CONTINUOUS
 62
     7
 10
3.04078754871237
 20
-2.74585697371088
 30
0.0
  0
VERTEX
  5
1D1
  8
0
  6
CONTINUOUS
 62
     7
 10
3.04075050298739
 20
-2.74395576060194
 30
0.0
  0
VERTEX
  5
1D2
  8
0
  6
CONTINUOUS
 62
     7
 10
3.04071366911394
 20
-2.74205454337694
 30
0.0
  0
VERTEX
  5
1D3
  8
0
  6
CONTINUOUS
 62
     7
 10
3.04067704512399
 20
-2.74015332209637
 30
0.0
  0
VERTEX
  5
1D4
  8
0
  6
CONTINUOUS
 62
     7
 10
3.0406406290495
 20
-2.73825209682068
 30
0.0
  0
VERTEX
  5
1D5
  8
0
  6
CONTINUOUS
 62
     7
 10
3.04060441892245
 20
-2.73635086761034
 30
0.0
  0
VERTEX
  5
1D6
  8
0
  6
CONTINUOUS
 62
     7
 10
3.0405684127748
 20
-2.73444963452582
 30
0.0
  0
VERTEX
  5
1D7
  8
0
  6
CONTINUOUS
 62
     7
 10
3.04053260863852
 20
-2.7325483976276
 30
0.0
  0
VERTEX
  5
1D8
  8
0
  6
CONTINUOUS
 62
     7
 10
3.04049700454557
 20
-2.73064715697612
 30
0.0
  0
VERTEX
  5
1D9
  8
0
  6
CONTINUOUS
 62
     7
 10
3.04046159852796
 20
-2.72874591263187
 30
0.0
  0
VERTEX
  5
1DA
  8
0
  6
CONTINUOUS
 62
     7
 10
3.04042638869865
 20
-2.72684466465234
 30
0.0
  0
VERTEX
  5
1DB
  8
0
  6
CONTINUOUS
 62
     7
 10
3.04039137341888
 20
-2.72494341308599
 30
0.0
  0
VERTEX
  5
1DC
  8
0
  6
CONTINUOUS
 62
     7
 10
3.04035655109736
 20
-2.72304215797953
 30
0.0
  0
VERTEX
  5
1DD
  8
0
  6
CONTINUOUS
 62
     7
 10
3.04032192014279
 20
-2.72114089937965
 30
0.0
  0
VERTEX
  5
1DE
  8
0
  6
CONTINUOUS
 62
     7
 10
3.04028747896389
 20
-2.71923963733307
 30
0.0
  0
VERTEX
  5
1DF
  8
0
  6
CONTINUOUS
 62
     7
 10
3.04025322596935
 20
-2.7173383718865
 30
0.0
  0
VERTEX
  5
1E0
  8
0
  6
CONTINUOUS
 62
     7
 10
3.04021915956787
 20
-2.71543710308665
 30
0.0
  0
VERTEX
  5
1E1
  8
0
  6
CONTINUOUS
 62
     7
 10
3.04018527816818
 20
-2.71353583098023
 30
0.0
  0
VERTEX
  5
1E2
  8
0
  6
CONTINUOUS
 62
     7
 10
3.04015158017896
 20
-2.71163455561394
 30
0.0
  0
VERTEX
  5
1E3
  8
0
  6
CONTINUOUS
 62
     7
 10
3.04011806400893
 20
-2.7097332770345
 30
0.0
  0
VERTEX
  5
1E4
  8
0
  6
CONTINUOUS
 62
     7
 10
3.0400847280668
 20
-2.70783199528861
 30
0.0
  0
VERTEX
  5
1E5
  8
0
  6
CONTINUOUS
 62
     7
 10
3.04005157076126
 20
-2.70593071042299
 30
0.0
  0
VERTEX
  5
1E6
  8
0
  6
CONTINUOUS
 62
     7
 10
3.04001859052488
 20
-2.70402942248352
 30
0.0
  0
VERTEX
  5
1E7
  8
0
  6
CONTINUOUS
 62
     7
 10
3.03998578597059
 20
-2.70212813150985
 30
0.0
  0
VERTEX
  5
1E8
  8
0
  6
CONTINUOUS
 62
     7
 10
3.03995315579376
 20
-2.7002268375388
 30
0.0
  0
VERTEX
  5
1E9
  8
0
  6
CONTINUOUS
 62
     7
 10
3.03992069869021
 20
-2.69832554060715
 30
0.0
  0
VERTEX
  5
1EA
  8
0
  6
CONTINUOUS
 62
     7
 10
3.03988841335574
 20
-2.69642424075171
 30
0.0
  0
VERTEX
  5
1EB
  8
0
  6
CONTINUOUS
 62
     7
 10
3.03985629848614
 20
-2.69452293800927
 30
0.0
  0
VERTEX
  5
1EC
  8
0
  6
CONTINUOUS
 62
     7
 10
3.03982435277724
 20
-2.69262163241663
 30
0.0
  0
VERTEX
  5
1ED
  8
0
  6
CONTINUOUS
 62
     7
 10
3.03979257492483
 20
-2.69072032401057
 30
0.0
  0
VERTEX
  5
1EE
  8
0
  6
CONTINUOUS
 62
     7
 10
3.03976096362472
 20
-2.68881901282789
 30
0.0
  0
VERTEX
  5
1EF
  8
0
  6
CONTINUOUS
 62
     7
 10
3.03972951757271
 20
-2.68691769890539
 30
0.0
  0
VERTEX
  5
1F0
  8
0
  6
CONTINUOUS
 62
     7
 10
3.03969823546461
 20
-2.68501638227987
 30
0.0
  0
VERTEX
  5
1F1
  8
0
  6
CONTINUOUS
 62
     7
 10
3.03966711599622
 20
-2.68311506298811
 30
0.0
  0
VERTEX
  5
1F2
  8
0
  6
CONTINUOUS
 62
     7
 10
3.03963615787093
 20
-2.68121374106667
 30
0.0
  0
VERTEX
  5
1F3
  8
0
  6
CONTINUOUS
 62
     7
 10
3.03960535991115
 20
-2.6793124165482
 30
0.0
  0
VERTEX
  5
1F4
  8
0
  6
CONTINUOUS
 62
     7
 10
3.03957472103386
 20
-2.67741108946229
 30
0.0
  0
VERTEX
  5
1F5
  8
0
  6
CONTINUOUS
 62
     7
 10
3.03954424015866
 20
-2.67550975983844
 30
0.0
  0
VERTEX
  5
1F6
  8
0
  6
CONTINUOUS
 62
     7
 10
3.03951391620514
 20
-2.67360842770612
 30
0.0
  0
VERTEX
  5
1F7
  8
0
  6
CONTINUOUS
 62
     7
 10
3.03948374809291
 20
-2.67170709309484
 30
0.0
  0
VERTEX
  5
1F8
  8
0
  6
CONTINUOUS
 62
     7
 10
3.03945373474156
 20
-2.6698057560341
 30
0.0
  0
VERTEX
  5
1F9
  8
0
  6
CONTINUOUS
 62
     7
 10
3.03942387507069
 20
-2.66790441655337
 30
0.0
  0
VERTEX
  5
1FA
  8
0
  6
CONTINUOUS
 62
     7
 10
3.0393941679999
 20
-2.66600307468216
 30
0.0
  0
VERTEX
  5
1FB
  8
0
  6
CONTINUOUS
 62
     7
 10
3.03936461244878
 20
-2.66410173044997
 30
0.0
  0
VERTEX
  5
1FC
  8
0
  6
CONTINUOUS
 62
     7
 10
3.03933520733693
 20
-2.66220038388627
 30
0.0
  0
VERTEX
  5
1FD
  8
0
  6
CONTINUOUS
 62
     7
 10
3.03930595158395
 20
-2.66029903502057
 30
0.0
  0
VERTEX
  5
1FE
  8
0
  6
CONTINUOUS
 62
     7
 10
3.03927684411433
 20
-2.65839768388221
 30
0.0
  0
VERTEX
  5
1FF
  8
0
  6
CONTINUOUS
 62
     7
 10
3.03924788394287
 20
-2.65649633049775
 30
0.0
  0
VERTEX
  5
200
  8
0
  6
CONTINUOUS
 62
     7
 10
3.03921907016382
 20
-2.6545949748913
 30
0.0
  0
VERTEX
  5
201
  8
0
  6
CONTINUOUS
 62
     7
 10
3.03919040187409
 20
-2.65269361708689
 30
0.0
  0
VERTEX
  5
202
  8
0
  6
CONTINUOUS
 62
     7
 10
3.03916187817063
 20
-2.65079225710855
 30
0.0
  0
VERTEX
  5
203
  8
0
  6
CONTINUOUS
 62
     7
 10
3.03913349815037
 20
-2.64889089498031
 30
0.0
  0
VERTEX
  5
204
  8
0
  6
CONTINUOUS
 62
     7
 10
3.03910526091025
 20
-2.6469895307262
 30
0.0
  0
VERTEX
  5
205
  8
0
  6
CONTINUOUS
 62
     7
 10
3.03907716554719
 20
-2.64508816437024
 30
0.0
  0
VERTEX
  5
206
  8
0
  6
CONTINUOUS
 62
     7
 10
3.03904921115814
 20
-2.64318679593647
 30
0.0
  0
VERTEX
  5
207
  8
0
  6
CONTINUOUS
 62
     7
 10
3.03902139684002
 20
-2.64128542544892
 30
0.0
  0
VERTEX
  5
208
  8
0
  6
CONTINUOUS
 62
     7
 10
3.03899372168978
 20
-2.63938405293161
 30
0.0
  0
VERTEX
  5
209
  8
0
  6
CONTINUOUS
 62
     7
 10
3.03896618480434
 20
-2.63748267840858
 30
0.0
  0
VERTEX
  5
20A
  8
0
  6
CONTINUOUS
 62
     7
 10
3.03893878529077
 20
-2.63558130190355
 30
0.0
  0
VERTEX
  5
20B
  8
0
  6
CONTINUOUS
 62
     7
 10
3.03891152234369
 20
-2.63367992343773
 30
0.0
  0
VERTEX
  5
20C
  8
0
  6
CONTINUOUS
 62
     7
 10
3.03888439520253
 20
-2.631778543031
 30
0.0
  0
VERTEX
  5
20D
  8
0
  6
CONTINUOUS
 62
     7
 10
3.03885740310708
 20
-2.62987716070324
 30
0.0
  0
VERTEX
  5
20E
  8
0
  6
CONTINUOUS
 62
     7
 10
3.03883054529714
 20
-2.62797577647432
 30
0.0
  0
VERTEX
  5
20F
  8
0
  6
CONTINUOUS
 62
     7
 10
3.03880382101251
 20
-2.62607439036414
 30
0.0
  0
VERTEX
  5
210
  8
0
  6
CONTINUOUS
 62
     7
 10
3.03877722949298
 20
-2.62417300239257
 30
0.0
  0
VERTEX
  5
211
  8
0
  6
CONTINUOUS
 62
     7
 10
3.03875076997835
 20
-2.62227161257948
 30
0.0
  0
VERTEX
  5
212
  8
0
  6
CONTINUOUS
 62
     7
 10
3.03872444170841
 20
-2.62037022094476
 30
0.0
  0
VERTEX
  5
213
  8
0
  6
CONTINUOUS
 62
     7
 10
3.03869824392297
 20
-2.61846882750828
 30
0.0
  0
VERTEX
  5
214
  8
0
  6
CONTINUOUS
 62
     7
 10
3.03867217586181
 20
-2.61656743228994
 30
0.0
  0
VERTEX
  5
215
  8
0
  6
CONTINUOUS
 62
     7
 10
3.03864623676513
 20
-2.61466603530958
 30
0.0
  0
VERTEX
  5
216
  8
0
  6
CONTINUOUS
 62
     7
 10
3.03862042591128
 20
-2.61276463658604
 30
0.0
  0
VERTEX
  5
217
  8
0
  6
CONTINUOUS
 62
     7
 10
3.03859474264848
 20
-2.61086323613622
 30
0.0
  0
VERTEX
  5
218
  8
0
  6
CONTINUOUS
 62
     7
 10
3.03856918633244
 20
-2.60896183397681
 30
0.0
  0
VERTEX
  5
219
  8
0
  6
CONTINUOUS
 62
     7
 10
3.03854375631883
 20
-2.60706043012451
 30
0.0
  0
VERTEX
  5
21A
  8
0
  6
CONTINUOUS
 62
     7
 10
3.03851845196335
 20
-2.60515902459602
 30
0.0
  0
VERTEX
  5
21B
  8
0
  6
CONTINUOUS
 62
     7
 10
3.03849327262168
 20
-2.60325761740803
 30
0.0
  0
VERTEX
  5
21C
  8
0
  6
CONTINUOUS
 62
     7
 10
3.03846821764951
 20
-2.60135620857725
 30
0.0
  0
VERTEX
  5
21D
  8
0
  6
CONTINUOUS
 62
     7
 10
3.03844328640253
 20
-2.59945479812036
 30
0.0
  0
VERTEX
  5
21E
  8
0
  6
CONTINUOUS
 62
     7
 10
3.03841847823643
 20
-2.59755338605407
 30
0.0
  0
VERTEX
  5
21F
  8
0
  6
CONTINUOUS
 62
     7
 10
3.03839379250689
 20
-2.59565197239507
 30
0.0
  0
VERTEX
  5
220
  8
0
  6
CONTINUOUS
 62
     7
 10
3.0383692285697
 20
-2.59375055716006
 30
0.0
  0
VERTEX
  5
221
  8
0
  6
CONTINUOUS
 62
     7
 10
3.03834478580631
 20
-2.59184914036507
 30
0.0
  0
VERTEX
  5
222
  8
0
  6
CONTINUOUS
 62
     7
 10
3.0383204636582
 20
-2.58994772202456
 30
0.0
  0
VERTEX
  5
223
  8
0
  6
CONTINUOUS
 62
     7
 10
3.03829626157539
 20
-2.58804630215279
 30
0.0
  0
VERTEX
  5
224
  8
0
  6
CONTINUOUS
 62
     7
 10
3.03827217900791
 20
-2.586144880764
 30
0.0
  0
VERTEX
  5
225
  8
0
  6
CONTINUOUS
 62
     7
 10
3.03824821540579
 20
-2.58424345787245
 30
0.0
  0
VERTEX
  5
226
  8
0
  6
CONTINUOUS
 62
     7
 10
3.03822437021907
 20
-2.58234203349238
 30
0.0
  0
VERTEX
  5
227
  8
0
  6
CONTINUOUS
 62
     7
 10
3.03820064289778
 20
-2.58044060763804
 30
0.0
  0
VERTEX
  5
228
  8
0
  6
CONTINUOUS
 62
     7
 10
3.03817703289194
 20
-2.57853918032369
 30
0.0
  0
VERTEX
  5
229
  8
0
  6
CONTINUOUS
 62
     7
 10
3.03815353965158
 20
-2.57663775156356
 30
0.0
  0
VERTEX
  5
22A
  8
0
  6
CONTINUOUS
 62
     7
 10
3.03813016262675
 20
-2.57473632137192
 30
0.0
  0
VERTEX
  5
22B
  8
0
  6
CONTINUOUS
 62
     7
 10
3.03810690126947
 20
-2.57283488976295
 30
0.0
  0
VERTEX
  5
22C
  8
0
  6
CONTINUOUS
 62
     7
 10
3.03808375506682
 20
-2.57093345674992
 30
0.0
  0
VERTEX
  5
22D
  8
0
  6
CONTINUOUS
 62
     7
 10
3.03806072353567
 20
-2.56903202234526
 30
0.0
  0
VERTEX
  5
22E
  8
0
  6
CONTINUOUS
 62
     7
 10
3.03803780619382
 20
-2.56713058656143
 30
0.0
  0
VERTEX
  5
22F
  8
0
  6
CONTINUOUS
 62
     7
 10
3.03801500255909
 20
-2.56522914941084
 30
0.0
  0
VERTEX
  5
230
  8
0
  6
CONTINUOUS
 62
     7
 10
3.03799231214929
 20
-2.56332771090594
 30
0.0
  0
VERTEX
  5
231
  8
0
  6
CONTINUOUS
 62
     7
 10
3.03796973448222
 20
-2.56142627105913
 30
0.0
  0
VERTEX
  5
232
  8
0
  6
CONTINUOUS
 62
     7
 10
3.0379472690757
 20
-2.55952482988287
 30
0.0
  0
VERTEX
  5
233
  8
0
  6
CONTINUOUS
 62
     7
 10
3.03792491544754
 20
-2.55762338738958
 30
0.0
  0
VERTEX
  5
234
  8
0
  6
CONTINUOUS
 62
     7
 10
3.03790267311554
 20
-2.55572194359169
 30
0.0
  0
VERTEX
  5
235
  8
0
  6
CONTINUOUS
 62
     7
 10
3.0378805415985
 20
-2.5538204985016
 30
0.0
  0
VERTEX
  5
236
  8
0
  6
CONTINUOUS
 62
     7
 10
3.03785852043953
 20
-2.55191905213112
 30
0.0
  0
VERTEX
  5
237
  8
0
  6
CONTINUOUS
 62
     7
 10
3.03783660920715
 20
-2.5500176044914
 30
0.0
  0
VERTEX
  5
238
  8
0
  6
CONTINUOUS
 62
     7
 10
3.03781480747105
 20
-2.54811615559358
 30
0.0
  0
VERTEX
  5
239
  8
0
  6
CONTINUOUS
 62
     7
 10
3.03779311480095
 20
-2.54621470544879
 30
0.0
  0
VERTEX
  5
23A
  8
0
  6
CONTINUOUS
 62
     7
 10
3.03777153076656
 20
-2.54431325406818
 30
0.0
  0
VERTEX
  5
23B
  8
0
  6
CONTINUOUS
 62
     7
 10
3.03775005493758
 20
-2.54241180146286
 30
0.0
  0
VERTEX
  5
23C
  8
0
  6
CONTINUOUS
 62
     7
 10
3.03772868688371
 20
-2.54051034764397
 30
0.0
  0
VERTEX
  5
23D
  8
0
  6
CONTINUOUS
 62
     7
 10
3.03770742617466
 20
-2.53860889262265
 30
0.0
  0
VERTEX
  5
23E
  8
0
  6
CONTINUOUS
 62
     7
 10
3.03768627238014
 20
-2.53670743641003
 30
0.0
  0
VERTEX
  5
23F
  8
0
  6
CONTINUOUS
 62
     7
 10
3.03766522505732
 20
-2.53480597901721
 30
0.0
  0
VERTEX
  5
240
  8
0
  6
CONTINUOUS
 62
     7
 10
3.03764428371657
 20
-2.53290452045512
 30
0.0
  0
VERTEX
  5
241
  8
0
  6
CONTINUOUS
 62
     7
 10
3.03762344785726
 20
-2.5310030607347
 30
0.0
  0
VERTEX
  5
242
  8
0
  6
CONTINUOUS
 62
     7
 10
3.0376027169788
 20
-2.52910159986684
 30
0.0
  0
VERTEX
  5
243
  8
0
  6
CONTINUOUS
 62
     7
 10
3.03758209058059
 20
-2.52720013786247
 30
0.0
  0
VERTEX
  5
244
  8
0
  6
CONTINUOUS
 62
     7
 10
3.03756156816202
 20
-2.5252986747325
 30
0.0
  0
VERTEX
  5
245
  8
0
  6
CONTINUOUS
 62
     7
 10
3.03754114922249
 20
-2.52339721048784
 30
0.0
  0
VERTEX
  5
246
  8
0
  6
CONTINUOUS
 62
     7
 10
3.03752083326139
 20
-2.52149574513941
 30
0.0
  0
VERTEX
  5
247
  8
0
  6
CONTINUOUS
 62
     7
 10
3.03750061977831
 20
-2.51959427869813
 30
0.0
  0
VERTEX
  5
248
  8
0
  6
CONTINUOUS
 62
     7
 10
3.03748050829339
 20
-2.51769281117487
 30
0.0
  0
VERTEX
  5
249
  8
0
  6
CONTINUOUS
 62
     7
 10
3.0374604983663
 20
-2.51579134258043
 30
0.0
  0
VERTEX
  5
24A
  8
0
  6
CONTINUOUS
 62
     7
 10
3.0374405895612
 20
-2.51388987292562
 30
0.0
  0
VERTEX
  5
24B
  8
0
  6
CONTINUOUS
 62
     7
 10
3.03742078144223
 20
-2.51198840222124
 30
0.0
  0
VERTEX
  5
24C
  8
0
  6
CONTINUOUS
 62
     7
 10
3.03740107357353
 20
-2.51008693047809
 30
0.0
  0
VERTEX
  5
24D
  8
0
  6
CONTINUOUS
 62
     7
 10
3.03738146551925
 20
-2.50818545770696
 30
0.0
  0
VERTEX
  5
24E
  8
0
  6
CONTINUOUS
 62
     7
 10
3.03736195684354
 20
-2.50628398391866
 30
0.0
  0
VERTEX
  5
24F
  8
0
  6
CONTINUOUS
 62
     7
 10
3.0373425471065
 20
-2.50438250912401
 30
0.0
  0
VERTEX
  5
250
  8
0
  6
CONTINUOUS
 62
     7
 10
3.03732323539961
 20
-2.50248103333666
 30
0.0
  0
VERTEX
  5
251
  8
0
  6
CONTINUOUS
 62
     7
 10
3.03730401991447
 20
-2.50057955657572
 30
0.0
  0
VERTEX
  5
252
  8
0
  6
CONTINUOUS
 62
     7
 10
3.0372848987407
 20
-2.4986780788609
 30
0.0
  0
VERTEX
  5
253
  8
0
  6
CONTINUOUS
 62
     7
 10
3.03726586996796
 20
-2.4967766002119
 30
0.0
  0
VERTEX
  5
254
  8
0
  6
CONTINUOUS
 62
     7
 10
3.03724693168588
 20
-2.49487512064845
 30
0.0
  0
VERTEX
  5
255
  8
0
  6
CONTINUOUS
 62
     7
 10
3.0372280819841
 20
-2.49297364019025
 30
0.0
  0
VERTEX
  5
256
  8
0
  6
CONTINUOUS
 62
     7
 10
3.03720931895279
 20
-2.49107215885701
 30
0.0
  0
VERTEX
  5
257
  8
0
  6
CONTINUOUS
 62
     7
 10
3.03719064145243
 20
-2.48917067666242
 30
0.0
  0
VERTEX
  5
258
  8
0
  6
CONTINUOUS
 62
     7
 10
3.0371720506497
 20
-2.48726919360209
 30
0.0
  0
VERTEX
  5
259
  8
0
  6
CONTINUOUS
 62
     7
 10
3.03715354814101
 20
-2.48536770966828
 30
0.0
  0
VERTEX
  5
25A
  8
0
  6
CONTINUOUS
 62
     7
 10
3.03713513552277
 20
-2.48346622485324
 30
0.0
  0
VERTEX
  5
25B
  8
0
  6
CONTINUOUS
 62
     7
 10
3.03711681439141
 20
-2.48156473914922
 30
0.0
  0
VERTEX
  5
25C
  8
0
  6
CONTINUOUS
 62
     7
 10
3.03709858634333
 20
-2.47966325254849
 30
0.0
  0
VERTEX
  5
25D
  8
0
  6
CONTINUOUS
 62
     7
 10
3.03708045297497
 20
-2.47776176504329
 30
0.0
  0
VERTEX
  5
25E
  8
0
  6
CONTINUOUS
 62
     7
 10
3.03706241588273
 20
-2.47586027662589
 30
0.0
  0
VERTEX
  5
25F
  8
0
  6
CONTINUOUS
 62
     7
 10
3.03704447666304
 20
-2.47395878728853
 30
0.0
  0
VERTEX
  5
260
  8
0
  6
CONTINUOUS
 62
     7
 10
3.0370266369123
 20
-2.47205729702347
 30
0.0
  0
VERTEX
  5
261
  8
0
  6
CONTINUOUS
 62
     7
 10
3.03700889822694
 20
-2.47015580582297
 30
0.0
  0
VERTEX
  5
262
  8
0
  6
CONTINUOUS
 62
     7
 10
3.03699126220338
 20
-2.46825431367928
 30
0.0
  0
VERTEX
  5
263
  8
0
  6
CONTINUOUS
 62
     7
 10
3.03697373043803
 20
-2.46635282058466
 30
0.0
  0
VERTEX
  5
264
  8
0
  6
CONTINUOUS
 62
     7
 10
3.0369563045273
 20
-2.46445132653135
 30
0.0
  0
VERTEX
  5
265
  8
0
  6
CONTINUOUS
 62
     7
 10
3.03693898606763
 20
-2.46254983151163
 30
0.0
  0
VERTEX
  5
266
  8
0
  6
CONTINUOUS
 62
     7
 10
3.03692177665541
 20
-2.46064833551773
 30
0.0
  0
VERTEX
  5
267
  8
0
  6
CONTINUOUS
 62
     7
 10
3.03690467788708
 20
-2.45874683854192
 30
0.0
  0
VERTEX
  5
268
  8
0
  6
CONTINUOUS
 62
     7
 10
3.03688769135175
 20
-2.45684534057651
 30
0.0
  0
VERTEX
  5
269
  8
0
  6
CONTINUOUS
 62
     7
 10
3.03687081653454
 20
-2.45494384163059
 30
0.0
  0
VERTEX
  5
26A
  8
0
  6
CONTINUOUS
 62
     7
 10
3.03685404791633
 20
-2.45304234175314
 30
0.0
  0
VERTEX
  5
26B
  8
0
  6
CONTINUOUS
 62
     7
 10
3.03683737925011
 20
-2.45114084099897
 30
0.0
  0
VERTEX
  5
26C
  8
0
  6
CONTINUOUS
 62
     7
 10
3.03682080428889
 20
-2.44923933942288
 30
0.0
  0
VERTEX
  5
26D
  8
0
  6
CONTINUOUS
 62
     7
 10
3.03680431678567
 20
-2.44733783707965
 30
0.0
  0
VERTEX
  5
26E
  8
0
  6
CONTINUOUS
 62
     7
 10
3.03678791049344
 20
-2.44543633402408
 30
0.0
  0
VERTEX
  5
26F
  8
0
  6
CONTINUOUS
 62
     7
 10
3.03677157916521
 20
-2.44353483031096
 30
0.0
  0
VERTEX
  5
270
  8
0
  6
CONTINUOUS
 62
     7
 10
3.03675531655398
 20
-2.4416333259951
 30
0.0
  0
VERTEX
  5
271
  8
0
  6
CONTINUOUS
 62
     7
 10
3.03673911641275
 20
-2.43973182113129
 30
0.0
  0
VERTEX
  5
272
  8
0
  6
CONTINUOUS
 62
     7
 10
3.03672297249452
 20
-2.43783031577431
 30
0.0
  0
VERTEX
  5
273
  8
0
  6
CONTINUOUS
 62
     7
 10
3.03670687855228
 20
-2.43592880997898
 30
0.0
  0
VERTEX
  5
274
  8
0
  6
CONTINUOUS
 62
     7
 10
3.03669082833904
 20
-2.43402730380008
 30
0.0
  0
VERTEX
  5
275
  8
0
  6
CONTINUOUS
 62
     7
 10
3.0366748156078
 20
-2.4321257972924
 30
0.0
  0
VERTEX
  5
276
  8
0
  6
CONTINUOUS
 62
     7
 10
3.03665883411156
 20
-2.43022429051075
 30
0.0
  0
VERTEX
  5
277
  8
0
  6
CONTINUOUS
 62
     7
 10
3.03664287760332
 20
-2.42832278350992
 30
0.0
  0
VERTEX
  5
278
  8
0
  6
CONTINUOUS
 62
     7
 10
3.03662693983608
 20
-2.42642127634471
 30
0.0
  0
VERTEX
  5
279
  8
0
  6
CONTINUOUS
 62
     7
 10
3.03661101456284
 20
-2.4245197690699
 30
0.0
  0
VERTEX
  5
27A
  8
0
  6
CONTINUOUS
 62
     7
 10
3.0365950955366
 20
-2.4226182617403
 30
0.0
  0
SEQEND
  5
27B
  8
0
  6
CONTINUOUS
 62
     7
  0
POLYLINE
  5
145
  8
0
  6
CONTINUOUS
 62
     7
 66
     1
 10
0.0
 20
0.0
 30
0.0
  0
VERTEX
  5
27C
  8
0
  6
CONTINUOUS
 62
     7
 10
48.9475852431959
 20
-2.99999999999969
 30
0.0
  0
VERTEX
  5
27D
  8
0
  6
CONTINUOUS
 62
     7
 10
48.9486809665842
 20
-2.99830249996212
 30
0.0
  0
VERTEX
  5
27E
  8
0
  6
CONTINUOUS
 62
     7
 10
48.94906686378615
 20
-2.99622495490394
 30
0.0
  0
VERTEX
  5
27F
  8
0
  6
CONTINUOUS
 62
     7
 10
48.94943830925391
 20
-2.9941974023345
 30
0.0
  0
VERTEX
  5
280
  8
0
  6
CONTINUOUS
 62
     7
 10
48.94977576878316
 20
-2.99217996753595
 30
0.0
  0
VERTEX
  5
281
  8
0
  6
CONTINUOUS
 62
     7
 10
48.95004755644946
 20
-2.99013575017516
 30
0.0
  0
VERTEX
  5
282
  8
0
  6
CONTINUOUS
 62
     7
 10
48.95027686288655
 20
-2.9880769163619
 30
0.0
  0
VERTEX
  5
283
  8
0
  6
CONTINUOUS
 62
     7
 10
48.95048882354052
 20
-2.9860177409566
 30
0.0
  0
VERTEX
  5
284
  8
0
  6
CONTINUOUS
 62
     7
 10
48.95069261812288
 20
-2.98396246074733
 30
0.0
  0
VERTEX
  5
285
  8
0
  6
CONTINUOUS
 62
     7
 10
48.95088725838599
 20
-2.98190891565528
 30
0.0
  0
VERTEX
  5
286
  8
0
  6
CONTINUOUS
 62
     7
 10
48.95107159315063
 20
-2.97985484351622
 30
0.0
  0
VERTEX
  5
287
  8
0
  6
CONTINUOUS
 62
     7
 10
48.95124511069
 20
-2.97779866303052
 30
0.0
  0
VERTEX
  5
288
  8
0
  6
CONTINUOUS
 62
     7
 10
48.95140904556985
 20
-2.97574065228469
 30
0.0
  0
VERTEX
  5
289
  8
0
  6
CONTINUOUS
 62
     7
 10
48.95156492772566
 20
-2.97368140386367
 30
0.0
  0
VERTEX
  5
28A
  8
0
  6
CONTINUOUS
 62
     7
 10
48.95171428709294
 20
-2.97162151035242
 30
0.0
  0
VERTEX
  5
28B
  8
0
  6
CONTINUOUS
 62
     7
 10
48.95185854277413
 20
-2.96956150759378
 30
0.0
  0
VERTEX
  5
28C
  8
0
  6
CONTINUOUS
 62
     7
 10
48.95199829408602
 20
-2.96750151173298
 30
0.0
  0
VERTEX
  5
28D
  8
0
  6
CONTINUOUS
 62
     7
 10
48.95213377265641
 20
-2.9654414506731
 30
0.0
  0
VERTEX
  5
28E
  8
0
  6
CONTINUOUS
 62
     7
 10
48.95226520837323
 20
-2.96338125142648
 30
0.0
  0
VERTEX
  5
28F
  8
0
  6
CONTINUOUS
 62
     7
 10
48.95239283112439
 20
-2.96132084100546
 30
0.0
  0
VERTEX
  5
290
  8
0
  6
CONTINUOUS
 62
     7
 10
48.9525168699386
 20
-2.95926015236939
 30
0.0
  0
VERTEX
  5
291
  8
0
  6
CONTINUOUS
 62
     7
 10
48.95263754458356
 20
-2.95719918257982
 30
0.0
  0
VERTEX
  5
292
  8
0
  6
CONTINUOUS
 62
     7
 10
48.95275506918016
 20
-2.95513796778424
 30
0.0
  0
VERTEX
  5
293
  8
0
  6
CONTINUOUS
 62
     7
 10
48.95286965776884
 20
-2.95307654468675
 30
0.0
  0
VERTEX
  5
294
  8
0
  6
CONTINUOUS
 62
     7
 10
48.95298152439005
 20
-2.95101494999145
 30
0.0
  0
VERTEX
  5
295
  8
0
  6
CONTINUOUS
 62
     7
 10
48.95309088308424
 20
-2.94895322040242
 30
0.0
  0
VERTEX
  5
296
  8
0
  6
CONTINUOUS
 62
     7
 10
48.95319793755689
 20
-2.94689138964547
 30
0.0
  0
VERTEX
  5
297
  8
0
  6
CONTINUOUS
 62
     7
 10
48.95330281454274
 20
-2.9448294692651
 30
0.0
  0
VERTEX
  5
298
  8
0
  6
CONTINUOUS
 62
     7
 10
48.9534056060463
 20
-2.94276746079736
 30
0.0
  0
VERTEX
  5
299
  8
0
  6
CONTINUOUS
 62
     7
 10
48.95350640390321
 20
-2.94070536572961
 30
0.0
  0
VERTEX
  5
29A
  8
0
  6
CONTINUOUS
 62
     7
 10
48.95360529994913
 20
-2.93864318554922
 30
0.0
  0
VERTEX
  5
29B
  8
0
  6
CONTINUOUS
 62
     7
 10
48.95370238601971
 20
-2.93658092174356
 30
0.0
  0
VERTEX
  5
29C
  8
0
  6
CONTINUOUS
 62
     7
 10
48.95379775393572
 20
-2.93451857580138
 30
0.0
  0
VERTEX
  5
29D
  8
0
  6
CONTINUOUS
 62
     7
 10
48.95389148739535
 20
-2.93245614996289
 30
0.0
  0
VERTEX
  5
29E
  8
0
  6
CONTINUOUS
 62
     7
 10
48.95398364854523
 20
-2.93039364846213
 30
0.0
  0
VERTEX
  5
29F
  8
0
  6
CONTINUOUS
 62
     7
 10
48.9540742959977
 20
-2.92833107586012
 30
0.0
  0
VERTEX
  5
2A0
  8
0
  6
CONTINUOUS
 62
     7
 10
48.9541634883651
 20
-2.92626843671788
 30
0.0
  0
VERTEX
  5
2A1
  8
0
  6
CONTINUOUS
 62
     7
 10
48.95425128425978
 20
-2.92420573559643
 30
0.0
  0
VERTEX
  5
2A2
  8
0
  6
CONTINUOUS
 62
     7
 10
48.95433774229409
 20
-2.92214297705679
 30
0.0
  0
VERTEX
  5
2A3
  8
0
  6
CONTINUOUS
 62
     7
 10
48.95442292108037
 20
-2.92008016565998
 30
0.0
  0
VERTEX
  5
2A4
  8
0
  6
CONTINUOUS
 62
     7
 10
48.95450687765581
 20
-2.91801730577381
 30
0.0
  0
VERTEX
  5
2A5
  8
0
  6
CONTINUOUS
 62
     7
 10
48.95458965449855
 20
-2.91595439998043
 30
0.0
  0
VERTEX
  5
2A6
  8
0
  6
CONTINUOUS
 62
     7
 10
48.95467128621453
 20
-2.91389144989645
 30
0.0
  0
VERTEX
  5
2A7
  8
0
  6
CONTINUOUS
 62
     7
 10
48.95475180733251
 20
-2.91182845712899
 30
0.0
  0
VERTEX
  5
2A8
  8
0
  6
CONTINUOUS
 62
     7
 10
48.9548312523813
 20
-2.90976542328521
 30
0.0
  0
VERTEX
  5
2A9
  8
0
  6
CONTINUOUS
 62
     7
 10
48.95490965588967
 20
-2.90770234997223
 30
0.0
  0
VERTEX
  5
2AA
  8
0
  6
CONTINUOUS
 62
     7
 10
48.9549870523864
 20
-2.90563923879719
 30
0.0
  0
VERTEX
  5
2AB
  8
0
  6
CONTINUOUS
 62
     7
 10
48.95506347640026
 20
-2.90357609136725
 30
0.0
  0
VERTEX
  5
2AC
  8
0
  6
CONTINUOUS
 62
     7
 10
48.95513896205217
 20
-2.90151290927443
 30
0.0
  0
VERTEX
  5
2AD
  8
0
  6
CONTINUOUS
 62
     7
 10
48.95521353704927
 20
-2.89944969387348
 30
0.0
  0
VERTEX
  5
2AE
  8
0
  6
CONTINUOUS
 62
     7
 10
48.95528722399716
 20
-2.89738644633037
 30
0.0
  0
VERTEX
  5
2AF
  8
0
  6
CONTINUOUS
 62
     7
 10
48.95536004536041
 20
-2.89532316780585
 30
0.0
  0
VERTEX
  5
2B0
  8
0
  6
CONTINUOUS
 62
     7
 10
48.95543202360358
 20
-2.89325985946068
 30
0.0
  0
VERTEX
  5
2B1
  8
0
  6
CONTINUOUS
 62
     7
 10
48.95550318119125
 20
-2.89119652245561
 30
0.0
  0
VERTEX
  5
2B2
  8
0
  6
CONTINUOUS
 62
     7
 10
48.95557354058795
 20
-2.88913315795139
 30
0.0
  0
VERTEX
  5
2B3
  8
0
  6
CONTINUOUS
 62
     7
 10
48.95564312425827
 20
-2.88706976710878
 30
0.0
  0
VERTEX
  5
2B4
  8
0
  6
CONTINUOUS
 62
     7
 10
48.95571195466675
 20
-2.88500635108853
 30
0.0
  0
VERTEX
  5
2B5
  8
0
  6
CONTINUOUS
 62
     7
 10
48.95578005381071
 20
-2.88294291102042
 30
0.0
  0
VERTEX
  5
2B6
  8
0
  6
CONTINUOUS
 62
     7
 10
48.95584743912315
 20
-2.88087944773152
 30
0.0
  0
VERTEX
  5
2B7
  8
0
  6
CONTINUOUS
 62
     7
 10
48.95591412545782
 20
-2.87881596187789
 30
0.0
  0
VERTEX
  5
2B8
  8
0
  6
CONTINUOUS
 62
     7
 10
48.95598012763934
 20
-2.87675245411362
 30
0.0
  0
VERTEX
  5
2B9
  8
0
  6
CONTINUOUS
 62
     7
 10
48.95604546049229
 20
-2.87468892509285
 30
0.0
  0
VERTEX
  5
2BA
  8
0
  6
CONTINUOUS
 62
     7
 10
48.95611013884129
 20
-2.87262537546967
 30
0.0
  0
VERTEX
  5
2BB
  8
0
  6
CONTINUOUS
 62
     7
 10
48.95617417751092
 20
-2.87056180589819
 30
0.0
  0
VERTEX
  5
2BC
  8
0
  6
CONTINUOUS
 62
     7
 10
48.9562375913258
 20
-2.86849821703253
 30
0.0
  0
VERTEX
  5
2BD
  8
0
  6
CONTINUOUS
 62
     7
 10
48.9563003951105
 20
-2.8664346095268
 30
0.0
  0
VERTEX
  5
2BE
  8
0
  6
CONTINUOUS
 62
     7
 10
48.9563626036881
 20
-2.86437098403504
 30
0.0
  0
VERTEX
  5
2BF
  8
0
  6
CONTINUOUS
 62
     7
 10
48.95642423083763
 20
-2.86230734115928
 30
0.0
  0
VERTEX
  5
2C0
  8
0
  6
CONTINUOUS
 62
     7
 10
48.95648528747754
 20
-2.8602436813591
 30
0.0
  0
VERTEX
  5
2C1
  8
0
  6
CONTINUOUS
 62
     7
 10
48.95654578404081
 20
-2.85818000506991
 30
0.0
  0
VERTEX
  5
2C2
  8
0
  6
CONTINUOUS
 62
     7
 10
48.95660573096038
 20
-2.85611631272712
 30
0.0
  0
VERTEX
  5
2C3
  8
0
  6
CONTINUOUS
 62
     7
 10
48.95666513866922
 20
-2.85405260476612
 30
0.0
  0
VERTEX
  5
2C4
  8
0
  6
CONTINUOUS
 62
     7
 10
48.95672401760025
 20
-2.85198888162232
 30
0.0
  0
VERTEX
  5
2C5
  8
0
  6
CONTINUOUS
 62
     7
 10
48.95678237818645
 20
-2.84992514373112
 30
0.0
  0
VERTEX
  5
2C6
  8
0
  6
CONTINUOUS
 62
     7
 10
48.95684023086077
 20
-2.84786139152793
 30
0.0
  0
VERTEX
  5
2C7
  8
0
  6
CONTINUOUS
 62
     7
 10
48.95689758605617
 20
-2.84579762544815
 30
0.0
  0
VERTEX
  5
2C8
  8
0
  6
CONTINUOUS
 62
     7
 10
48.95695445420557
 20
-2.84373384592718
 30
0.0
  0
VERTEX
  5
2C9
  8
0
  6
CONTINUOUS
 62
     7
 10
48.95701084542709
 20
-2.84167005338515
 30
0.0
  0
VERTEX
  5
2CA
  8
0
  6
CONTINUOUS
 62
     7
 10
48.95706676775044
 20
-2.83960624814087
 30
0.0
  0
VERTEX
  5
2CB
  8
0
  6
CONTINUOUS
 62
     7
 10
48.95712222835527
 20
-2.8375424304719
 30
0.0
  0
VERTEX
  5
2CC
  8
0
  6
CONTINUOUS
 62
     7
 10
48.95717723441874
 20
-2.83547860065569
 30
0.0
  0
VERTEX
  5
2CD
  8
0
  6
CONTINUOUS
 62
     7
 10
48.95723179311805
 20
-2.83341475896969
 30
0.0
  0
VERTEX
  5
2CE
  8
0
  6
CONTINUOUS
 62
     7
 10
48.95728591163034
 20
-2.83135090569133
 30
0.0
  0
VERTEX
  5
2CF
  8
0
  6
CONTINUOUS
 62
     7
 10
48.95733959713279
 20
-2.82928704109807
 30
0.0
  0
VERTEX
  5
2D0
  8
0
  6
CONTINUOUS
 62
     7
 10
48.95739285680257
 20
-2.82722316546735
 30
0.0
  0
VERTEX
  5
2D1
  8
0
  6
CONTINUOUS
 62
     7
 10
48.95744569781686
 20
-2.82515927907662
 30
0.0
  0
VERTEX
  5
2D2
  8
0
  6
CONTINUOUS
 62
     7
 10
48.95749812735281
 20
-2.82309538220332
 30
0.0
  0
VERTEX
  5
2D3
  8
0
  6
CONTINUOUS
 62
     7
 10
48.95755015258693
 20
-2.82103147512486
 30
0.0
  0
VERTEX
  5
2D4
  8
0
  6
CONTINUOUS
 62
     7
 10
48.95760178023121
 20
-2.81896755809819
 30
0.0
  0
VERTEX
  5
2D5
  8
0
  6
CONTINUOUS
 62
     7
 10
48.95765301572454
 20
-2.8169036313241
 30
0.0
  0
VERTEX
  5
2D6
  8
0
  6
CONTINUOUS
 62
     7
 10
48.95770386428971
 20
-2.81483969499389
 30
0.0
  0
VERTEX
  5
2D7
  8
0
  6
CONTINUOUS
 62
     7
 10
48.95775433114948
 20
-2.81277574929883
 30
0.0
  0
VERTEX
  5
2D8
  8
0
  6
CONTINUOUS
 62
     7
 10
48.95780442152661
 20
-2.81071179443019
 30
0.0
  0
VERTEX
  5
2D9
  8
0
  6
CONTINUOUS
 62
     7
 10
48.95785414064387
 20
-2.80864783057925
 30
0.0
  0
VERTEX
  5
2DA
  8
0
  6
CONTINUOUS
 62
     7
 10
48.95790349372402
 20
-2.8065838579373
 30
0.0
  0
VERTEX
  5
2DB
  8
0
  6
CONTINUOUS
 62
     7
 10
48.95795248598983
 20
-2.80451987669561
 30
0.0
  0
VERTEX
  5
2DC
  8
0
  6
CONTINUOUS
 62
     7
 10
48.95800112266406
 20
-2.80245588704546
 30
0.0
  0
VERTEX
  5
2DD
  8
0
  6
CONTINUOUS
 62
     7
 10
48.95804940896947
 20
-2.80039188917813
 30
0.0
  0
VERTEX
  5
2DE
  8
0
  6
CONTINUOUS
 62
     7
 10
48.95809735012806
 20
-2.79832788328486
 30
0.0
  0
VERTEX
  5
2DF
  8
0
  6
CONTINUOUS
 62
     7
 10
48.95814495105999
 20
-2.79626386954334
 30
0.0
  0
VERTEX
  5
2E0
  8
0
  6
CONTINUOUS
 62
     7
 10
48.95819221592969
 20
-2.79419984809732
 30
0.0
  0
VERTEX
  5
2E1
  8
0
  6
CONTINUOUS
 62
     7
 10
48.95823914878516
 20
-2.79213581908533
 30
0.0
  0
VERTEX
  5
2E2
  8
0
  6
CONTINUOUS
 62
     7
 10
48.95828575367439
 20
-2.79007178264588
 30
0.0
  0
VERTEX
  5
2E3
  8
0
  6
CONTINUOUS
 62
     7
 10
48.95833203464539
 20
-2.7880077389175
 30
0.0
  0
VERTEX
  5
2E4
  8
0
  6
CONTINUOUS
 62
     7
 10
48.95837799574618
 20
-2.7859436880387
 30
0.0
  0
VERTEX
  5
2E5
  8
0
  6
CONTINUOUS
 62
     7
 10
48.95842364102473
 20
-2.78387963014802
 30
0.0
  0
VERTEX
  5
2E6
  8
0
  6
CONTINUOUS
 62
     7
 10
48.95846897452905
 20
-2.78181556538396
 30
0.0
  0
VERTEX
  5
2E7
  8
0
  6
CONTINUOUS
 62
     7
 10
48.95851400030716
 20
-2.77975149388506
 30
0.0
  0
VERTEX
  5
2E8
  8
0
  6
CONTINUOUS
 62
     7
 10
48.95855872240706
 20
-2.77768741578984
 30
0.0
  0
VERTEX
  5
2E9
  8
0
  6
CONTINUOUS
 62
     7
 10
48.95860314487672
 20
-2.77562333123682
 30
0.0
  0
VERTEX
  5
2EA
  8
0
  6
CONTINUOUS
 62
     7
 10
48.95864727161694
 20
-2.7735592403585
 30
0.0
  0
VERTEX
  5
2EB
  8
0
  6
CONTINUOUS
 62
     7
 10
48.958691105935
 20
-2.7714951432632
 30
0.0
  0
VERTEX
  5
2EC
  8
0
  6
CONTINUOUS
 62
     7
 10
48.95873465098869
 20
-2.76943104005311
 30
0.0
  0
VERTEX
  5
2ED
  8
0
  6
CONTINUOUS
 62
     7
 10
48.95877790993577
 20
-2.76736693083044
 30
0.0
  0
VERTEX
  5
2EE
  8
0
  6
CONTINUOUS
 62
     7
 10
48.95882088593404
 20
-2.76530281569737
 30
0.0
  0
VERTEX
  5
2EF
  8
0
  6
CONTINUOUS
 62
     7
 10
48.95886358214128
 20
-2.76323869475612
 30
0.0
  0
VERTEX
  5
2F0
  8
0
  6
CONTINUOUS
 62
     7
 10
48.95890600171525
 20
-2.76117456810889
 30
0.0
  0
VERTEX
  5
2F1
  8
0
  6
CONTINUOUS
 62
     7
 10
48.95894814781375
 20
-2.75911043585786
 30
0.0
  0
VERTEX
  5
2F2
  8
0
  6
CONTINUOUS
 62
     7
 10
48.95899002359457
 20
-2.75704629810525
 30
0.0
  0
VERTEX
  5
2F3
  8
0
  6
CONTINUOUS
 62
     7
 10
48.95903163221547
 20
-2.75498215495325
 30
0.0
  0
VERTEX
  5
2F4
  8
0
  6
CONTINUOUS
 62
     7
 10
48.95907297683424
 20
-2.75291800650407
 30
0.0
  0
VERTEX
  5
2F5
  8
0
  6
CONTINUOUS
 62
     7
 10
48.95911406057024
 20
-2.7508538528584
 30
0.0
  0
VERTEX
  5
2F6
  8
0
  6
CONTINUOUS
 62
     7
 10
48.95915488616214
 20
-2.74878969410219
 30
0.0
  0
VERTEX
  5
2F7
  8
0
  6
CONTINUOUS
 62
     7
 10
48.95919545613119
 20
-2.74672553031289
 30
0.0
  0
VERTEX
  5
2F8
  8
0
  6
CONTINUOUS
 62
     7
 10
48.95923577299609
 20
-2.74466136156791
 30
0.0
  0
VERTEX
  5
2F9
  8
0
  6
CONTINUOUS
 62
     7
 10
48.95927583927553
 20
-2.74259718794462
 30
0.0
  0
VERTEX
  5
2FA
  8
0
  6
CONTINUOUS
 62
     7
 10
48.95931565748819
 20
-2.7405330095204
 30
0.0
  0
VERTEX
  5
2FB
  8
0
  6
CONTINUOUS
 62
     7
 10
48.9593552301528
 20
-2.73846882637263
 30
0.0
  0
VERTEX
  5
2FC
  8
0
  6
CONTINUOUS
 62
     7
 10
48.95939455978803
 20
-2.73640463857871
 30
0.0
  0
VERTEX
  5
2FD
  8
0
  6
CONTINUOUS
 62
     7
 10
48.95943364891257
 20
-2.73434044621599
 30
0.0
  0
VERTEX
  5
2FE
  8
0
  6
CONTINUOUS
 62
     7
 10
48.95947250004514
 20
-2.73227624936188
 30
0.0
  0
VERTEX
  5
2FF
  8
0
  6
CONTINUOUS
 62
     7
 10
48.95951111570441
 20
-2.73021204809375
 30
0.0
  0
VERTEX
  5
300
  8
0
  6
CONTINUOUS
 62
     7
 10
48.95954949840495
 20
-2.72814784248883
 30
0.0
  0
VERTEX
  5
301
  8
0
  6
CONTINUOUS
 62
     7
 10
48.95958765047041
 20
-2.72608363261739
 30
0.0
  0
VERTEX
  5
302
  8
0
  6
CONTINUOUS
 62
     7
 10
48.95962557395725
 20
-2.72401941853992
 30
0.0
  0
VERTEX
  5
303
  8
0
  6
CONTINUOUS
 62
     7
 10
48.95966327090203
 20
-2.72195520031622
 30
0.0
  0
VERTEX
  5
304
  8
0
  6
CONTINUOUS
 62
     7
 10
48.95970074334131
 20
-2.71989097800605
 30
0.0
  0
VERTEX
  5
305
  8
0
  6
CONTINUOUS
 62
     7
 10
48.95973799331162
 20
-2.71782675166921
 30
0.0
  0
VERTEX
  5
306
  8
0
  6
CONTINUOUS
 62
     7
 10
48.95977502284952
 20
-2.71576252136546
 30
0.0
  0
VERTEX
  5
307
  8
0
  6
CONTINUOUS
 62
     7
 10
48.95981183399156
 20
-2.71369828715459
 30
0.0
  0
VERTEX
  5
308
  8
0
  6
CONTINUOUS
 62
     7
 10
48.9598484287743
 20
-2.71163404909639
 30
0.0
  0
VERTEX
  5
309
  8
0
  6
CONTINUOUS
 62
     7
 10
48.95988480923429
 20
-2.70956980725062
 30
0.0
  0
VERTEX
  5
30A
  8
0
  6
CONTINUOUS
 62
     7
 10
48.95992097740806
 20
-2.70750556167707
 30
0.0
  0
VERTEX
  5
30B
  8
0
  6
CONTINUOUS
 62
     7
 10
48.95995693533219
 20
-2.70544131243552
 30
0.0
  0
VERTEX
  5
30C
  8
0
  6
CONTINUOUS
 62
     7
 10
48.95999268497307
 20
-2.70337705958333
 30
0.0
  0
VERTEX
  5
30D
  8
0
  6
CONTINUOUS
 62
     7
 10
48.96002822805292
 20
-2.70131280316942
 30
0.0
  0
VERTEX
  5
30E
  8
0
  6
CONTINUOUS
 62
     7
 10
48.96006356624087
 20
-2.69924854324088
 30
0.0
  0
VERTEX
  5
30F
  8
0
  6
CONTINUOUS
 62
     7
 10
48.96009870120603
 20
-2.6971842798448
 30
0.0
  0
VERTEX
  5
310
  8
0
  6
CONTINUOUS
 62
     7
 10
48.96013363461751
 20
-2.69512001302826
 30
0.0
  0
VERTEX
  5
311
  8
0
  6
CONTINUOUS
 62
     7
 10
48.96016836814444
 20
-2.69305574283837
 30
0.0
  0
VERTEX
  5
312
  8
0
  6
CONTINUOUS
 62
     7
 10
48.96020290345594
 20
-2.6909914693222
 30
0.0
  0
VERTEX
  5
313
  8
0
  6
CONTINUOUS
 62
     7
 10
48.9602372422211
 20
-2.68892719252686
 30
0.0
  0
VERTEX
  5
314
  8
0
  6
CONTINUOUS
 62
     7
 10
48.96027138610907
 20
-2.68686291249942
 30
0.0
  0
VERTEX
  5
315
  8
0
  6
CONTINUOUS
 62
     7
 10
48.96030533678895
 20
-2.68479862928698
 30
0.0
  0
VERTEX
  5
316
  8
0
  6
CONTINUOUS
 62
     7
 10
48.96033909592985
 20
-2.68273434293663
 30
0.0
  0
VERTEX
  5
317
  8
0
  6
CONTINUOUS
 62
     7
 10
48.96037266517601
 20
-2.68067005349464
 30
0.0
  0
VERTEX
  5
318
  8
0
  6
CONTINUOUS
 62
     7
 10
48.96040604599055
 20
-2.67860576100139
 30
0.0
  0
VERTEX
  5
319
  8
0
  6
CONTINUOUS
 62
     7
 10
48.96043923975653
 20
-2.67654146549463
 30
0.0
  0
VERTEX
  5
31A
  8
0
  6
CONTINUOUS
 62
     7
 10
48.96047224785666
 20
-2.67447716701211
 30
0.0
  0
VERTEX
  5
31B
  8
0
  6
CONTINUOUS
 62
     7
 10
48.96050507167366
 20
-2.67241286559157
 30
0.0
  0
VERTEX
  5
31C
  8
0
  6
CONTINUOUS
 62
     7
 10
48.96053771259021
 20
-2.67034856127077
 30
0.0
  0
VERTEX
  5
31D
  8
0
  6
CONTINUOUS
 62
     7
 10
48.96057017198903
 20
-2.66828425408743
 30
0.0
  0
VERTEX
  5
31E
  8
0
  6
CONTINUOUS
 62
     7
 10
48.96060245125283
 20
-2.66621994407932
 30
0.0
  0
VERTEX
  5
31F
  8
0
  6
CONTINUOUS
 62
     7
 10
48.96063455176431
 20
-2.66415563128418
 30
0.0
  0
VERTEX
  5
320
  8
0
  6
CONTINUOUS
 62
     7
 10
48.96066647490619
 20
-2.66209131573975
 30
0.0
  0
VERTEX
  5
321
  8
0
  6
CONTINUOUS
 62
     7
 10
48.96069822206115
 20
-2.66002699748377
 30
0.0
  0
VERTEX
  5
322
  8
0
  6
CONTINUOUS
 62
     7
 10
48.960729794598
 20
-2.65796267655357
 30
0.0
  0
VERTEX
  5
323
  8
0
  6
CONTINUOUS
 62
     7
 10
48.96076119374987
 20
-2.65589835298229
 30
0.0
  0
VERTEX
  5
324
  8
0
  6
CONTINUOUS
 62
     7
 10
48.96079242067336
 20
-2.65383402680069
 30
0.0
  0
VERTEX
  5
325
  8
0
  6
CONTINUOUS
 62
     7
 10
48.96082347652421
 20
-2.65176969803954
 30
0.0
  0
VERTEX
  5
326
  8
0
  6
CONTINUOUS
 62
     7
 10
48.96085436245819
 20
-2.64970536672959
 30
0.0
  0
VERTEX
  5
327
  8
0
  6
CONTINUOUS
 62
     7
 10
48.96088507963104
 20
-2.64764103290159
 30
0.0
  0
VERTEX
  5
328
  8
0
  6
CONTINUOUS
 62
     7
 10
48.96091562919851
 20
-2.64557669658629
 30
0.0
  0
VERTEX
  5
329
  8
0
  6
CONTINUOUS
 62
     7
 10
48.96094601231635
 20
-2.64351235781444
 30
0.0
  0
VERTEX
  5
32A
  8
0
  6
CONTINUOUS
 62
     7
 10
48.9609762301403
 20
-2.6414480166168
 30
0.0
  0
VERTEX
  5
32B
  8
0
  6
CONTINUOUS
 62
     7
 10
48.96100628382612
 20
-2.63938367302413
 30
0.0
  0
VERTEX
  5
32C
  8
0
  6
CONTINUOUS
 62
     7
 10
48.96103617452955
 20
-2.63731932706716
 30
0.0
  0
VERTEX
  5
32D
  8
0
  6
CONTINUOUS
 62
     7
 10
48.96106590338759
 20
-2.63525497877612
 30
0.0
  0
VERTEX
  5
32E
  8
0
  6
CONTINUOUS
 62
     7
 10
48.96109547141909
 20
-2.63319062817778
 30
0.0
  0
VERTEX
  5
32F
  8
0
  6
CONTINUOUS
 62
     7
 10
48.96112487959705
 20
-2.63112627529758
 30
0.0
  0
VERTEX
  5
330
  8
0
  6
CONTINUOUS
 62
     7
 10
48.9611541288944
 20
-2.62906192016096
 30
0.0
  0
VERTEX
  5
331
  8
0
  6
CONTINUOUS
 62
     7
 10
48.96118322028405
 20
-2.62699756279337
 30
0.0
  0
VERTEX
  5
332
  8
0
  6
CONTINUOUS
 62
     7
 10
48.96121215473892
 20
-2.62493320322024
 30
0.0
  0
VERTEX
  5
333
  8
0
  6
CONTINUOUS
 62
     7
 10
48.96124093323191
 20
-2.62286884146703
 30
0.0
  0
VERTEX
  5
334
  8
0
  6
CONTINUOUS
 62
     7
 10
48.96126955673594
 20
-2.62080447755916
 30
0.0
  0
VERTEX
  5
335
  8
0
  6
CONTINUOUS
 62
     7
 10
48.96129802622393
 20
-2.61874011152209
 30
0.0
  0
VERTEX
  5
336
  8
0
  6
CONTINUOUS
 62
     7
 10
48.96132634266879
 20
-2.61667574338125
 30
0.0
  0
VERTEX
  5
337
  8
0
  6
CONTINUOUS
 62
     7
 10
48.96135450704291
 20
-2.61461137316208
 30
0.0
  0
VERTEX
  5
338
  8
0
  6
CONTINUOUS
 62
     7
 10
48.96138252026932
 20
-2.61254700088863
 30
0.0
  0
VERTEX
  5
339
  8
0
  6
CONTINUOUS
 62
     7
 10
48.96141038318198
 20
-2.61048262658255
 30
0.0
  0
VERTEX
  5
33A
  8
0
  6
CONTINUOUS
 62
     7
 10
48.96143809660547
 20
-2.60841825026519
 30
0.0
  0
VERTEX
  5
33B
  8
0
  6
CONTINUOUS
 62
     7
 10
48.9614656613644
 20
-2.60635387195793
 30
0.0
  0
VERTEX
  5
33C
  8
0
  6
CONTINUOUS
 62
     7
 10
48.96149307828335
 20
-2.60428949168214
 30
0.0
  0
VERTEX
  5
33D
  8
0
  6
CONTINUOUS
 62
     7
 10
48.96152034818692
 20
-2.60222510945918
 30
0.0
  0
VERTEX
  5
33E
  8
0
  6
CONTINUOUS
 62
     7
 10
48.96154747189971
 20
-2.60016072531043
 30
0.0
  0
VERTEX
  5
33F
  8
0
  6
CONTINUOUS
 62
     7
 10
48.96157445024632
 20
-2.59809633925725
 30
0.0
  0
VERTEX
  5
340
  8
0
  6
CONTINUOUS
 62
     7
 10
48.96160128405132
 20
-2.59603195132101
 30
0.0
  0
VERTEX
  5
341
  8
0
  6
CONTINUOUS
 62
     7
 10
48.96162797413933
 20
-2.59396756152308
 30
0.0
  0
VERTEX
  5
342
  8
0
  6
CONTINUOUS
 62
     7
 10
48.9616545213107
 20
-2.5919031698842
 30
0.0
  0
VERTEX
  5
343
  8
0
  6
CONTINUOUS
 62
     7
 10
48.96168092628584
 20
-2.58983877642304
 30
0.0
  0
VERTEX
  5
344
  8
0
  6
CONTINUOUS
 62
     7
 10
48.96170718976856
 20
-2.58777438115783
 30
0.0
  0
VERTEX
  5
345
  8
0
  6
CONTINUOUS
 62
     7
 10
48.96173331246275
 20
-2.58570998410682
 30
0.0
  0
VERTEX
  5
346
  8
0
  6
CONTINUOUS
 62
     7
 10
48.96175929507226
 20
-2.58364558528822
 30
0.0
  0
VERTEX
  5
347
  8
0
  6
CONTINUOUS
 62
     7
 10
48.96178513830092
 20
-2.58158118472029
 30
0.0
  0
VERTEX
  5
348
  8
0
  6
CONTINUOUS
 62
     7
 10
48.96181084285261
 20
-2.57951678242125
 30
0.0
  0
VERTEX
  5
349
  8
0
  6
CONTINUOUS
 62
     7
 10
48.96183640943117
 20
-2.57745237840935
 30
0.0
  0
VERTEX
  5
34A
  8
0
  6
CONTINUOUS
 62
     7
 10
48.96186183874047
 20
-2.57538797270281
 30
0.0
  0
VERTEX
  5
34B
  8
0
  6
CONTINUOUS
 62
     7
 10
48.96188713148403
 20
-2.57332356531988
 30
0.0
  0
VERTEX
  5
34C
  8
0
  6
CONTINUOUS
 62
     7
 10
48.96191228833626
 20
-2.57125915627798
 30
0.0
  0
VERTEX
  5
34D
  8
0
  6
CONTINUOUS
 62
     7
 10
48.96193730991967
 20
-2.56919474559318
 30
0.0
  0
VERTEX
  5
34E
  8
0
  6
CONTINUOUS
 62
     7
 10
48.96196219685134
 20
-2.56713033328139
 30
0.0
  0
VERTEX
  5
34F
  8
0
  6
CONTINUOUS
 62
     7
 10
48.9619869497484
 20
-2.56506591935851
 30
0.0
  0
VERTEX
  5
350
  8
0
  6
CONTINUOUS
 62
     7
 10
48.96201156922795
 20
-2.56300150384045
 30
0.0
  0
VERTEX
  5
351
  8
0
  6
CONTINUOUS
 62
     7
 10
48.9620360559071
 20
-2.56093708674312
 30
0.0
  0
VERTEX
  5
352
  8
0
  6
CONTINUOUS
 62
     7
 10
48.96206041040296
 20
-2.55887266808243
 30
0.0
  0
VERTEX
  5
353
  8
0
  6
CONTINUOUS
 62
     7
 10
48.96208463333264
 20
-2.55680824787428
 30
0.0
  0
VERTEX
  5
354
  8
0
  6
CONTINUOUS
 62
     7
 10
48.96210872531324
 20
-2.5547438261346
 30
0.0
  0
VERTEX
  5
355
  8
0
  6
CONTINUOUS
 62
     7
 10
48.96213268695089
 20
-2.552679402879
 30
0.0
  0
VERTEX
  5
356
  8
0
  6
CONTINUOUS
 62
     7
 10
48.96215651880739
 20
-2.55061497812202
 30
0.0
  0
VERTEX
  5
357
  8
0
  6
CONTINUOUS
 62
     7
 10
48.96218022143345
 20
-2.5485505518779
 30
0.0
  0
VERTEX
  5
358
  8
0
  6
CONTINUOUS
 62
     7
 10
48.96220379537974
 20
-2.5464861241609
 30
0.0
  0
VERTEX
  5
359
  8
0
  6
CONTINUOUS
 62
     7
 10
48.962227241197
 20
-2.54442169498525
 30
0.0
  0
VERTEX
  5
35A
  8
0
  6
CONTINUOUS
 62
     7
 10
48.96225055943588
 20
-2.54235726436522
 30
0.0
  0
VERTEX
  5
35B
  8
0
  6
CONTINUOUS
 62
     7
 10
48.96227375064709
 20
-2.54029283231504
 30
0.0
  0
VERTEX
  5
35C
  8
0
  6
CONTINUOUS
 62
     7
 10
48.96229681538131
 20
-2.53822839884898
 30
0.0
  0
VERTEX
  5
35D
  8
0
  6
CONTINUOUS
 62
     7
 10
48.96231975418959
 20
-2.53616396398126
 30
0.0
  0
VERTEX
  5
35E
  8
0
  6
CONTINUOUS
 62
     7
 10
48.96234256765334
 20
-2.53409952772605
 30
0.0
  0
VERTEX
  5
35F
  8
0
  6
CONTINUOUS
 62
     7
 10
48.96236525640771
 20
-2.53203509009734
 30
0.0
  0
VERTEX
  5
360
  8
0
  6
CONTINUOUS
 62
     7
 10
48.96238782109339
 20
-2.52997065110908
 30
0.0
  0
VERTEX
  5
361
  8
0
  6
CONTINUOUS
 62
     7
 10
48.96241026235104
 20
-2.52790621077526
 30
0.0
  0
VERTEX
  5
362
  8
0
  6
CONTINUOUS
 62
     7
 10
48.96243258082135
 20
-2.52584176910983
 30
0.0
  0
VERTEX
  5
363
  8
0
  6
CONTINUOUS
 62
     7
 10
48.96245477714498
 20
-2.52377732612677
 30
0.0
  0
VERTEX
  5
364
  8
0
  6
CONTINUOUS
 62
     7
 10
48.96247685196262
 20
-2.52171288184004
 30
0.0
  0
VERTEX
  5
365
  8
0
  6
CONTINUOUS
 62
     7
 10
48.96249880591482
 20
-2.51964843626362
 30
0.0
  0
VERTEX
  5
366
  8
0
  6
CONTINUOUS
 62
     7
 10
48.96252063961826
 20
-2.51758398941142
 30
0.0
  0
VERTEX
  5
367
  8
0
  6
CONTINUOUS
 62
     7
 10
48.96254235363765
 20
-2.51551954129729
 30
0.0
  0
VERTEX
  5
368
  8
0
  6
CONTINUOUS
 62
     7
 10
48.96256394853077
 20
-2.51345509193504
 30
0.0
  0
VERTEX
  5
369
  8
0
  6
CONTINUOUS
 62
     7
 10
48.96258542485544
 20
-2.51139064133849
 30
0.0
  0
VERTEX
  5
36A
  8
0
  6
CONTINUOUS
 62
     7
 10
48.96260678316948
 20
-2.50932618952147
 30
0.0
  0
VERTEX
  5
36B
  8
0
  6
CONTINUOUS
 62
     7
 10
48.96262802403067
 20
-2.5072617364978
 30
0.0
  0
VERTEX
  5
36C
  8
0
  6
CONTINUOUS
 62
     7
 10
48.96264914799685
 20
-2.50519728228129
 30
0.0
  0
VERTEX
  5
36D
  8
0
  6
CONTINUOUS
 62
     7
 10
48.96267015581184
 20
-2.5031328268869
 30
0.0
  0
VERTEX
  5
36E
  8
0
  6
CONTINUOUS
 62
     7
 10
48.96269104943279
 20
-2.5010683703369
 30
0.0
  0
VERTEX
  5
36F
  8
0
  6
CONTINUOUS
 62
     7
 10
48.96271183130329
 20
-2.49900391265652
 30
0.0
  0
VERTEX
  5
370
  8
0
  6
CONTINUOUS
 62
     7
 10
48.96273250386823
 20
-2.49693945387098
 30
0.0
  0
VERTEX
  5
371
  8
0
  6
CONTINUOUS
 62
     7
 10
48.96275306957251
 20
-2.49487499400552
 30
0.0
  0
VERTEX
  5
372
  8
0
  6
CONTINUOUS
 62
     7
 10
48.96277353086101
 20
-2.49281053308536
 30
0.0
  0
VERTEX
  5
373
  8
0
  6
CONTINUOUS
 62
     7
 10
48.96279389016728
 20
-2.49074607113564
 30
0.0
  0
VERTEX
  5
374
  8
0
  6
CONTINUOUS
 62
     7
 10
48.96281414851748
 20
-2.48868160817049
 30
0.0
  0
VERTEX
  5
375
  8
0
  6
CONTINUOUS
 62
     7
 10
48.96283430418699
 20
-2.48661714418248
 30
0.0
  0
VERTEX
  5
376
  8
0
  6
CONTINUOUS
 62
     7
 10
48.96285435513272
 20
-2.4845526791617
 30
0.0
  0
VERTEX
  5
377
  8
0
  6
CONTINUOUS
 62
     7
 10
48.96287429931154
 20
-2.48248821309824
 30
0.0
  0
VERTEX
  5
378
  8
0
  6
CONTINUOUS
 62
     7
 10
48.96289413468037
 20
-2.48042374598219
 30
0.0
  0
VERTEX
  5
379
  8
0
  6
CONTINUOUS
 62
     7
 10
48.96291385919609
 20
-2.47835927780364
 30
0.0
  0
VERTEX
  5
37A
  8
0
  6
CONTINUOUS
 62
     7
 10
48.9629334708156
 20
-2.47629480855266
 30
0.0
  0
VERTEX
  5
37B
  8
0
  6
CONTINUOUS
 62
     7
 10
48.96295296749579
 20
-2.47423033821936
 30
0.0
  0
VERTEX
  5
37C
  8
0
  6
CONTINUOUS
 62
     7
 10
48.96297234719356
 20
-2.47216586679382
 30
0.0
  0
VERTEX
  5
37D
  8
0
  6
CONTINUOUS
 62
     7
 10
48.9629916078658
 20
-2.47010139426613
 30
0.0
  0
VERTEX
  5
37E
  8
0
  6
CONTINUOUS
 62
     7
 10
48.96301074746941
 20
-2.46803692062637
 30
0.0
  0
VERTEX
  5
37F
  8
0
  6
CONTINUOUS
 62
     7
 10
48.96302976396128
 20
-2.46597244586463
 30
0.0
  0
VERTEX
  5
380
  8
0
  6
CONTINUOUS
 62
     7
 10
48.96304865529831
 20
-2.46390796997101
 30
0.0
  0
VERTEX
  5
381
  8
0
  6
CONTINUOUS
 62
     7
 10
48.96306741943739
 20
-2.46184349293558
 30
0.0
  0
VERTEX
  5
382
  8
0
  6
CONTINUOUS
 62
     7
 10
48.96308605433541
 20
-2.45977901474844
 30
0.0
  0
VERTEX
  5
383
  8
0
  6
CONTINUOUS
 62
     7
 10
48.96310455794927
 20
-2.45771453539967
 30
0.0
  0
VERTEX
  5
384
  8
0
  6
CONTINUOUS
 62
     7
 10
48.96312292892013
 20
-2.45565005488482
 30
0.0
  0
VERTEX
  5
385
  8
0
  6
CONTINUOUS
 62
     7
 10
48.96314117200038
 20
-2.45358557324816
 30
0.0
  0
VERTEX
  5
386
  8
0
  6
CONTINUOUS
 62
     7
 10
48.96315929515634
 20
-2.45152109055959
 30
0.0
  0
VERTEX
  5
387
  8
0
  6
CONTINUOUS
 62
     7
 10
48.96317730638299
 20
-2.44945660688923
 30
0.0
  0
VERTEX
  5
388
  8
0
  6
CONTINUOUS
 62
     7
 10
48.96319521367525
 20
-2.44739212230722
 30
0.0
  0
VERTEX
  5
389
  8
0
  6
CONTINUOUS
 62
     7
 10
48.96321302502809
 20
-2.44532763688368
 30
0.0
  0
VERTEX
  5
38A
  8
0
  6
CONTINUOUS
 62
     7
 10
48.96323074843645
 20
-2.44326315068874
 30
0.0
  0
VERTEX
  5
38B
  8
0
  6
CONTINUOUS
 62
     7
 10
48.9632483918953
 20
-2.44119866379253
 30
0.0
  0
VERTEX
  5
38C
  8
0
  6
CONTINUOUS
 62
     7
 10
48.96326596339957
 20
-2.43913417626517
 30
0.0
  0
VERTEX
  5
38D
  8
0
  6
CONTINUOUS
 62
     7
 10
48.96328347094423
 20
-2.43706968817679
 30
0.0
  0
VERTEX
  5
38E
  8
0
  6
CONTINUOUS
 62
     7
 10
48.96330092252423
 20
-2.43500519959751
 30
0.0
  0
VERTEX
  5
38F
  8
0
  6
CONTINUOUS
 62
     7
 10
48.96331832613451
 20
-2.43294071059748
 30
0.0
  0
VERTEX
  5
390
  8
0
  6
CONTINUOUS
 62
     7
 10
48.96333568977003
 20
-2.43087622124681
 30
0.0
  0
VERTEX
  5
391
  8
0
  6
CONTINUOUS
 62
     7
 10
48.96335302142574
 20
-2.42881173161562
 30
0.0
  0
VERTEX
  5
392
  8
0
  6
CONTINUOUS
 62
     7
 10
48.9633703290966
 20
-2.42674724177406
 30
0.0
  0
VERTEX
  5
393
  8
0
  6
CONTINUOUS
 62
     7
 10
48.96338762077755
 20
-2.42468275179224
 30
0.0
  0
VERTEX
  5
394
  8
0
  6
CONTINUOUS
 62
     7
 10
48.96340490446355
 20
-2.4226182617403
 30
0.0
  0
SEQEND
  5
395
  8
0
  6
CONTINUOUS
 62
     7
  0
POLYLINE
  5
146
  8
0
  6
CONTINUOUS
 62
     7
 66
     1
 10
0.0
 20
0.0
 30
0.0
  0
VERTEX
  5
396
  8
0
  6
CONTINUOUS
 62
     7
 10
40.03659509553663
 20
-2.4226182617405
 30
0.0
  0
VERTEX
  5
397
  8
0
  6
CONTINUOUS
 62
     7
 10
40.0366119007093
 20
-2.42462540522498
 30
0.0
  0
VERTEX
  5
398
  8
0
  6
CONTINUOUS
 62
     7
 10
40.03662871320542
 20
-2.4266325486452
 30
0.0
  0
VERTEX
  5
399
  8
0
  6
CONTINUOUS
 62
     7
 10
40.03664554034845
 20
-2.4286396919369
 30
0.0
  0
VERTEX
  5
39A
  8
0
  6
CONTINUOUS
 62
     7
 10
40.03666238946182
 20
-2.43064683503581
 30
0.0
  0
VERTEX
  5
39B
  8
0
  6
CONTINUOUS
 62
     7
 10
40.03667926786901
 20
-2.43265397787768
 30
0.0
  0
VERTEX
  5
39C
  8
0
  6
CONTINUOUS
 62
     7
 10
40.03669618289347
 20
-2.43466112039824
 30
0.0
  0
VERTEX
  5
39D
  8
0
  6
CONTINUOUS
 62
     7
 10
40.03671314185864
 20
-2.43666826253323
 30
0.0
  0
VERTEX
  5
39E
  8
0
  6
CONTINUOUS
 62
     7
 10
40.03673015208798
 20
-2.43867540421839
 30
0.0
  0
VERTEX
  5
39F
  8
0
  6
CONTINUOUS
 62
     7
 10
40.03674722090494
 20
-2.44068254538946
 30
0.0
  0
VERTEX
  5
3A0
  8
0
  6
CONTINUOUS
 62
     7
 10
40.03676435563296
 20
-2.44268968598218
 30
0.0
  0
VERTEX
  5
3A1
  8
0
  6
CONTINUOUS
 62
     7
 10
40.0367815635955
 20
-2.44469682593227
 30
0.0
  0
VERTEX
  5
3A2
  8
0
  6
CONTINUOUS
 62
     7
 10
40.03679885211603
 20
-2.4467039651755
 30
0.0
  0
VERTEX
  5
3A3
  8
0
  6
CONTINUOUS
 62
     7
 10
40.036816228518
 20
-2.44871110364758
 30
0.0
  0
VERTEX
  5
3A4
  8
0
  6
CONTINUOUS
 62
     7
 10
40.03683370012483
 20
-2.45071824128426
 30
0.0
  0
VERTEX
  5
3A5
  8
0
  6
CONTINUOUS
 62
     7
 10
40.03685127426
 20
-2.45272537802129
 30
0.0
  0
VERTEX
  5
3A6
  8
0
  6
CONTINUOUS
 62
     7
 10
40.03686895824696
 20
-2.45473251379438
 30
0.0
  0
VERTEX
  5
3A7
  8
0
  6
CONTINUOUS
 62
     7
 10
40.03688675940916
 20
-2.4567396485393
 30
0.0
  0
VERTEX
  5
3A8
  8
0
  6
CONTINUOUS
 62
     7
 10
40.0369046845256
 20
-2.45874678219611
 30
0.0
  0
VERTEX
  5
3A9
  8
0
  6
CONTINUOUS
 62
     7
 10
40.03692273490275
 20
-2.46075391474854
 30
0.0
  0
VERTEX
  5
3AA
  8
0
  6
CONTINUOUS
 62
     7
 10
40.03694090868479
 20
-2.46276104620554
 30
0.0
  0
VERTEX
  5
3AB
  8
0
  6
CONTINUOUS
 62
     7
 10
40.0369592039775
 20
-2.46476817657637
 30
0.0
  0
VERTEX
  5
3AC
  8
0
  6
CONTINUOUS
 62
     7
 10
40.03697761888665
 20
-2.46677530587027
 30
0.0
  0
VERTEX
  5
3AD
  8
0
  6
CONTINUOUS
 62
     7
 10
40.03699615151803
 20
-2.46878243409649
 30
0.0
  0
VERTEX
  5
3AE
  8
0
  6
CONTINUOUS
 62
     7
 10
40.03701479997744
 20
-2.47078956126429
 30
0.0
  0
VERTEX
  5
3AF
  8
0
  6
CONTINUOUS
 62
     7
 10
40.03703356237065
 20
-2.47279668738293
 30
0.0
  0
VERTEX
  5
3B0
  8
0
  6
CONTINUOUS
 62
     7
 10
40.03705243680345
 20
-2.47480381246165
 30
0.0
  0
VERTEX
  5
3B1
  8
0
  6
CONTINUOUS
 62
     7
 10
40.03707142138163
 20
-2.47681093650971
 30
0.0
  0
VERTEX
  5
3B2
  8
0
  6
CONTINUOUS
 62
     7
 10
40.03709051421096
 20
-2.47881805953636
 30
0.0
  0
VERTEX
  5
3B3
  8
0
  6
CONTINUOUS
 62
     7
 10
40.03710971339723
 20
-2.48082518155085
 30
0.0
  0
VERTEX
  5
3B4
  8
0
  6
CONTINUOUS
 62
     7
 10
40.03712901704623
 20
-2.48283230256244
 30
0.0
  0
VERTEX
  5
3B5
  8
0
  6
CONTINUOUS
 62
     7
 10
40.03714842326374
 20
-2.48483942258038
 30
0.0
  0
VERTEX
  5
3B6
  8
0
  6
CONTINUOUS
 62
     7
 10
40.03716793015555
 20
-2.48684654161392
 30
0.0
  0
VERTEX
  5
3B7
  8
0
  6
CONTINUOUS
 62
     7
 10
40.03718753582744
 20
-2.48885365967231
 30
0.0
  0
VERTEX
  5
3B8
  8
0
  6
CONTINUOUS
 62
     7
 10
40.03720723838521
 20
-2.49086077676481
 30
0.0
  0
VERTEX
  5
3B9
  8
0
  6
CONTINUOUS
 62
     7
 10
40.0372270362916
 20
-2.49286789289788
 30
0.0
  0
VERTEX
  5
3BA
  8
0
  6
CONTINUOUS
 62
     7
 10
40.03724693062771
 20
-2.49487500805744
 30
0.0
  0
VERTEX
  5
3BB
  8
0
  6
CONTINUOUS
 62
     7
 10
40.03726692364022
 20
-2.49688212222029
 30
0.0
  0
VERTEX
  5
3BC
  8
0
  6
CONTINUOUS
 62
     7
 10
40.03728701758121
 20
-2.49888923536319
 30
0.0
  0
VERTEX
  5
3BD
  8
0
  6
CONTINUOUS
 62
     7
 10
40.03730721470274
 20
-2.50089634746291
 30
0.0
  0
VERTEX
  5
3BE
  8
0
  6
CONTINUOUS
 62
     7
 10
40.03732751725683
 20
-2.50290345849618
 30
0.0
  0
VERTEX
  5
3BF
  8
0
  6
CONTINUOUS
 62
     7
 10
40.03734792749556
 20
-2.50491056843978
 30
0.0
  0
VERTEX
  5
3C0
  8
0
  6
CONTINUOUS
 62
     7
 10
40.03736844736101
 20
-2.50691767727234
 30
0.0
  0
VERTEX
  5
3C1
  8
0
  6
CONTINUOUS
 62
     7
 10
40.03738907763572
 20
-2.50892478497952
 30
0.0
  0
VERTEX
  5
3C2
  8
0
  6
CONTINUOUS
 62
     7
 10
40.03740981883107
 20
-2.51093189154865
 30
0.0
  0
VERTEX
  5
3C3
  8
0
  6
CONTINUOUS
 62
     7
 10
40.03743067145847
 20
-2.51293899696702
 30
0.0
  0
VERTEX
  5
3C4
  8
0
  6
CONTINUOUS
 62
     7
 10
40.03745163602932
 20
-2.51494610122195
 30
0.0
  0
VERTEX
  5
3C5
  8
0
  6
CONTINUOUS
 62
     7
 10
40.03747271305505
 20
-2.51695320430076
 30
0.0
  0
VERTEX
  5
3C6
  8
0
  6
CONTINUOUS
 62
     7
 10
40.03749390304702
 20
-2.51896030619076
 30
0.0
  0
VERTEX
  5
3C7
  8
0
  6
CONTINUOUS
 62
     7
 10
40.03751520651779
 20
-2.52096740687925
 30
0.0
  0
VERTEX
  5
3C8
  8
0
  6
CONTINUOUS
 62
     7
 10
40.03753662401427
 20
-2.52297450635349
 30
0.0
  0
VERTEX
  5
3C9
  8
0
  6
CONTINUOUS
 62
     7
 10
40.03755815612327
 20
-2.52498160460063
 30
0.0
  0
VERTEX
  5
3CA
  8
0
  6
CONTINUOUS
 62
     7
 10
40.03757980343383
 20
-2.52698870160783
 30
0.0
  0
VERTEX
  5
3CB
  8
0
  6
CONTINUOUS
 62
     7
 10
40.03760156653497
 20
-2.52899579736226
 30
0.0
  0
VERTEX
  5
3CC
  8
0
  6
CONTINUOUS
 62
     7
 10
40.03762344601574
 20
-2.53100289185107
 30
0.0
  0
VERTEX
  5
3CD
  8
0
  6
CONTINUOUS
 62
     7
 10
40.03764544246518
 20
-2.53300998506143
 30
0.0
  0
VERTEX
  5
3CE
  8
0
  6
CONTINUOUS
 62
     7
 10
40.03766755647231
 20
-2.5350170769805
 30
0.0
  0
VERTEX
  5
3CF
  8
0
  6
CONTINUOUS
 62
     7
 10
40.03768978862615
 20
-2.53702416759543
 30
0.0
  0
VERTEX
  5
3D0
  8
0
  6
CONTINUOUS
 62
     7
 10
40.03771213949549
 20
-2.53903125689333
 30
0.0
  0
VERTEX
  5
3D1
  8
0
  6
CONTINUOUS
 62
     7
 10
40.03773460959527
 20
-2.54103834486113
 30
0.0
  0
VERTEX
  5
3D2
  8
0
  6
CONTINUOUS
 62
     7
 10
40.03775719943147
 20
-2.54304543148574
 30
0.0
  0
VERTEX
  5
3D3
  8
0
  6
CONTINUOUS
 62
     7
 10
40.0377799095101
 20
-2.54505251675406
 30
0.0
  0
VERTEX
  5
3D4
  8
0
  6
CONTINUOUS
 62
     7
 10
40.03780274033715
 20
-2.547059600653
 30
0.0
  0
VERTEX
  5
3D5
  8
0
  6
CONTINUOUS
 62
     7
 10
40.03782569241862
 20
-2.54906668316947
 30
0.0
  0
VERTEX
  5
3D6
  8
0
  6
CONTINUOUS
 62
     7
 10
40.0378487662605
 20
-2.55107376429038
 30
0.0
  0
VERTEX
  5
3D7
  8
0
  6
CONTINUOUS
 62
     7
 10
40.0378719623688
 20
-2.55308084400262
 30
0.0
  0
VERTEX
  5
3D8
  8
0
  6
CONTINUOUS
 62
     7
 10
40.03789528124958
 20
-2.55508792229312
 30
0.0
  0
VERTEX
  5
3D9
  8
0
  6
CONTINUOUS
 62
     7
 10
40.03791872342511
 20
-2.55709499914836
 30
0.0
  0
VERTEX
  5
3DA
  8
0
  6
CONTINUOUS
 62
     7
 10
40.03794228945677
 20
-2.55910207455388
 30
0.0
  0
VERTEX
  5
3DB
  8
0
  6
CONTINUOUS
 62
     7
 10
40.03796597991166
 20
-2.56110914849505
 30
0.0
  0
VERTEX
  5
3DC
  8
0
  6
CONTINUOUS
 62
     7
 10
40.03798979535692
 20
-2.56311622095725
 30
0.0
  0
VERTEX
  5
3DD
  8
0
  6
CONTINUOUS
 62
     7
 10
40.03801373635966
 20
-2.56512329192586
 30
0.0
  0
VERTEX
  5
3DE
  8
0
  6
CONTINUOUS
 62
     7
 10
40.03803780348699
 20
-2.56713036138627
 30
0.0
  0
VERTEX
  5
3DF
  8
0
  6
CONTINUOUS
 62
     7
 10
40.03806199730601
 20
-2.56913742932385
 30
0.0
  0
VERTEX
  5
3E0
  8
0
  6
CONTINUOUS
 62
     7
 10
40.03808631838387
 20
-2.57114449572398
 30
0.0
  0
VERTEX
  5
3E1
  8
0
  6
CONTINUOUS
 62
     7
 10
40.03811076728766
 20
-2.57315156057205
 30
0.0
  0
VERTEX
  5
3E2
  8
0
  6
CONTINUOUS
 62
     7
 10
40.03813534458775
 20
-2.57515862385335
 30
0.0
  0
VERTEX
  5
3E3
  8
0
  6
CONTINUOUS
 62
     7
 10
40.03816005089853
 20
-2.57716568555199
 30
0.0
  0
VERTEX
  5
3E4
  8
0
  6
CONTINUOUS
 62
     7
 10
40.03818488686612
 20
-2.57917274565123
 30
0.0
  0
VERTEX
  5
3E5
  8
0
  6
CONTINUOUS
 62
     7
 10
40.03820985313732
 20
-2.58117980413432
 30
0.0
  0
VERTEX
  5
3E6
  8
0
  6
CONTINUOUS
 62
     7
 10
40.03823495035893
 20
-2.58318686098448
 30
0.0
  0
VERTEX
  5
3E7
  8
0
  6
CONTINUOUS
 62
     7
 10
40.03826017917778
 20
-2.58519391618498
 30
0.0
  0
VERTEX
  5
3E8
  8
0
  6
CONTINUOUS
 62
     7
 10
40.03828554024069
 20
-2.58720096971904
 30
0.0
  0
VERTEX
  5
3E9
  8
0
  6
CONTINUOUS
 62
     7
 10
40.03831103419443
 20
-2.58920802156991
 30
0.0
  0
VERTEX
  5
3EA
  8
0
  6
CONTINUOUS
 62
     7
 10
40.03833666168585
 20
-2.59121507172083
 30
0.0
  0
VERTEX
  5
3EB
  8
0
  6
CONTINUOUS
 62
     7
 10
40.03836242336173
 20
-2.59322212015504
 30
0.0
  0
VERTEX
  5
3EC
  8
0
  6
CONTINUOUS
 62
     7
 10
40.03838831987221
 20
-2.59522916685571
 30
0.0
  0
VERTEX
  5
3ED
  8
0
  6
CONTINUOUS
 62
     7
 10
40.03841435192479
 20
-2.59723621180449
 30
0.0
  0
VERTEX
  5
3EE
  8
0
  6
CONTINUOUS
 62
     7
 10
40.0384405202757
 20
-2.59924325498178
 30
0.0
  0
VERTEX
  5
3EF
  8
0
  6
CONTINUOUS
 62
     7
 10
40.03846682568273
 20
-2.60125029636796
 30
0.0
  0
VERTEX
  5
3F0
  8
0
  6
CONTINUOUS
 62
     7
 10
40.03849326890362
 20
-2.60325733594338
 30
0.0
  0
VERTEX
  5
3F1
  8
0
  6
CONTINUOUS
 62
     7
 10
40.03851985069617
 20
-2.60526437368841
 30
0.0
  0
VERTEX
  5
3F2
  8
0
  6
CONTINUOUS
 62
     7
 10
40.03854657181814
 20
-2.60727140958341
 30
0.0
  0
VERTEX
  5
3F3
  8
0
  6
CONTINUOUS
 62
     7
 10
40.0385734330273
 20
-2.60927844360874
 30
0.0
  0
VERTEX
  5
3F4
  8
0
  6
CONTINUOUS
 62
     7
 10
40.03860043508141
 20
-2.61128547574477
 30
0.0
  0
VERTEX
  5
3F5
  8
0
  6
CONTINUOUS
 62
     7
 10
40.03862757873826
 20
-2.61329250597185
 30
0.0
  0
VERTEX
  5
3F6
  8
0
  6
CONTINUOUS
 62
     7
 10
40.03865486475563
 20
-2.61529953427035
 30
0.0
  0
VERTEX
  5
3F7
  8
0
  6
CONTINUOUS
 62
     7
 10
40.03868229391817
 20
-2.6173065606199
 30
0.0
  0
VERTEX
  5
3F8
  8
0
  6
CONTINUOUS
 62
     7
 10
40.038709867101
 20
-2.61931358499763
 30
0.0
  0
VERTEX
  5
3F9
  8
0
  6
CONTINUOUS
 62
     7
 10
40.03873758519816
 20
-2.62132060738017
 30
0.0
  0
VERTEX
  5
3FA
  8
0
  6
CONTINUOUS
 62
     7
 10
40.03876544910375
 20
-2.62332762774413
 30
0.0
  0
VERTEX
  5
3FB
  8
0
  6
CONTINUOUS
 62
     7
 10
40.03879345971182
 20
-2.62533464606614
 30
0.0
  0
VERTEX
  5
3FC
  8
0
  6
CONTINUOUS
 62
     7
 10
40.03882161791643
 20
-2.62734166232282
 30
0.0
  0
VERTEX
  5
3FD
  8
0
  6
CONTINUOUS
 62
     7
 10
40.03884992461169
 20
-2.62934867649078
 30
0.0
  0
VERTEX
  5
3FE
  8
0
  6
CONTINUOUS
 62
     7
 10
40.03887838069163
 20
-2.63135568854664
 30
0.0
  0
VERTEX
  5
3FF
  8
0
  6
CONTINUOUS
 62
     7
 10
40.03890698705032
 20
-2.63336269846704
 30
0.0
  0
VERTEX
  5
400
  8
0
  6
CONTINUOUS
 62
     7
 10
40.03893574458186
 20
-2.63536970622858
 30
0.0
  0
VERTEX
  5
401
  8
0
  6
CONTINUOUS
 62
     7
 10
40.03896465418047
 20
-2.63737671180788
 30
0.0
  0
VERTEX
  5
402
  8
0
  6
CONTINUOUS
 62
     7
 10
40.03899371678595
 20
-2.63938371518023
 30
0.0
  0
VERTEX
  5
403
  8
0
  6
CONTINUOUS
 62
     7
 10
40.03902293344509
 20
-2.64139071631782
 30
0.0
  0
VERTEX
  5
404
  8
0
  6
CONTINUOUS
 62
     7
 10
40.03905230521996
 20
-2.64339771519239
 30
0.0
  0
VERTEX
  5
405
  8
0
  6
CONTINUOUS
 62
     7
 10
40.03908183317265
 20
-2.64540471177567
 30
0.0
  0
VERTEX
  5
406
  8
0
  6
CONTINUOUS
 62
     7
 10
40.03911151836526
 20
-2.64741170603941
 30
0.0
  0
VERTEX
  5
407
  8
0
  6
CONTINUOUS
 62
     7
 10
40.03914136185986
 20
-2.64941869795534
 30
0.0
  0
VERTEX
  5
408
  8
0
  6
CONTINUOUS
 62
     7
 10
40.03917136471855
 20
-2.65142568749521
 30
0.0
  0
VERTEX
  5
409
  8
0
  6
CONTINUOUS
 62
     7
 10
40.03920152800342
 20
-2.65343267463075
 30
0.0
  0
VERTEX
  5
40A
  8
0
  6
CONTINUOUS
 62
     7
 10
40.03923185277655
 20
-2.6554396593337
 30
0.0
  0
VERTEX
  5
40B
  8
0
  6
CONTINUOUS
 62
     7
 10
40.03926234010003
 20
-2.65744664157581
 30
0.0
  0
VERTEX
  5
40C
  8
0
  6
CONTINUOUS
 62
     7
 10
40.03929299103595
 20
-2.65945362132881
 30
0.0
  0
VERTEX
  5
40D
  8
0
  6
CONTINUOUS
 62
     7
 10
40.03932380668176
 20
-2.66146059856335
 30
0.0
  0
VERTEX
  5
40E
  8
0
  6
CONTINUOUS
 62
     7
 10
40.03935478827398
 20
-2.66346757324579
 30
0.0
  0
VERTEX
  5
40F
  8
0
  6
CONTINUOUS
 62
     7
 10
40.03938593708323
 20
-2.66547454534146
 30
0.0
  0
VERTEX
  5
410
  8
0
  6
CONTINUOUS
 62
     7
 10
40.03941725438018
 20
-2.66748151481566
 30
0.0
  0
VERTEX
  5
411
  8
0
  6
CONTINUOUS
 62
     7
 10
40.03944874143549
 20
-2.6694884816337
 30
0.0
  0
VERTEX
  5
412
  8
0
  6
CONTINUOUS
 62
     7
 10
40.03948039951979
 20
-2.67149544576091
 30
0.0
  0
VERTEX
  5
413
  8
0
  6
CONTINUOUS
 62
     7
 10
40.03951222990375
 20
-2.67350240716259
 30
0.0
  0
VERTEX
  5
414
  8
0
  6
CONTINUOUS
 62
     7
 10
40.03954423385802
 20
-2.67550936580405
 30
0.0
  0
VERTEX
  5
415
  8
0
  6
CONTINUOUS
 62
     7
 10
40.03957641265325
 20
-2.67751632165062
 30
0.0
  0
VERTEX
  5
416
  8
0
  6
CONTINUOUS
 62
     7
 10
40.0396087675601
 20
-2.6795232746676
 30
0.0
  0
VERTEX
  5
417
  8
0
  6
CONTINUOUS
 62
     7
 10
40.03964129984922
 20
-2.6815302248203
 30
0.0
  0
VERTEX
  5
418
  8
0
  6
CONTINUOUS
 62
     7
 10
40.03967401080076
 20
-2.68353717207373
 30
0.0
  0
VERTEX
  5
419
  8
0
  6
CONTINUOUS
 62
     7
 10
40.03970690183677
 20
-2.68554411638827
 30
0.0
  0
VERTEX
  5
41A
  8
0
  6
CONTINUOUS
 62
     7
 10
40.03973997448833
 20
-2.68755105772073
 30
0.0
  0
VERTEX
  5
41B
  8
0
  6
CONTINUOUS
 62
     7
 10
40.03977323028927
 20
-2.68955799602783
 30
0.0
  0
VERTEX
  5
41C
  8
0
  6
CONTINUOUS
 62
     7
 10
40.03980667077345
 20
-2.6915649312663
 30
0.0
  0
VERTEX
  5
41D
  8
0
  6
CONTINUOUS
 62
     7
 10
40.03984029747473
 20
-2.69357186339288
 30
0.0
  0
VERTEX
  5
41E
  8
0
  6
CONTINUOUS
 62
     7
 10
40.03987411192696
 20
-2.69557879236427
 30
0.0
  0
VERTEX
  5
41F
  8
0
  6
CONTINUOUS
 62
     7
 10
40.03990811566398
 20
-2.69758571813722
 30
0.0
  0
VERTEX
  5
420
  8
0
  6
CONTINUOUS
 62
     7
 10
40.03994231021967
 20
-2.69959264066844
 30
0.0
  0
VERTEX
  5
421
  8
0
  6
CONTINUOUS
 62
     7
 10
40.03997669712786
 20
-2.70159955991467
 30
0.0
  0
VERTEX
  5
422
  8
0
  6
CONTINUOUS
 62
     7
 10
40.04001127792241
 20
-2.70360647583262
 30
0.0
  0
VERTEX
  5
423
  8
0
  6
CONTINUOUS
 62
     7
 10
40.04004605413718
 20
-2.70561338837903
 30
0.0
  0
VERTEX
  5
424
  8
0
  6
CONTINUOUS
 62
     7
 10
40.04008102736896
 20
-2.70762029750844
 30
0.0
  0
VERTEX
  5
425
  8
0
  6
CONTINUOUS
 62
     7
 10
40.04011619943915
 20
-2.70962720316766
 30
0.0
  0
VERTEX
  5
426
  8
0
  6
CONTINUOUS
 62
     7
 10
40.04015157221927
 20
-2.71163410530174
 30
0.0
  0
VERTEX
  5
427
  8
0
  6
CONTINUOUS
 62
     7
 10
40.04018714758083
 20
-2.71364100385576
 30
0.0
  0
VERTEX
  5
428
  8
0
  6
CONTINUOUS
 62
     7
 10
40.04022292739534
 20
-2.71564789877478
 30
0.0
  0
VERTEX
  5
429
  8
0
  6
CONTINUOUS
 62
     7
 10
40.0402589135343
 20
-2.71765479000387
 30
0.0
  0
VERTEX
  5
42A
  8
0
  6
CONTINUOUS
 62
     7
 10
40.04029510786923
 20
-2.71966167748809
 30
0.0
  0
VERTEX
  5
42B
  8
0
  6
CONTINUOUS
 62
     7
 10
40.04033151227161
 20
-2.72166856117251
 30
0.0
  0
VERTEX
  5
42C
  8
0
  6
CONTINUOUS
 62
     7
 10
40.04036812861298
 20
-2.7236754410022
 30
0.0
  0
VERTEX
  5
42D
  8
0
  6
CONTINUOUS
 62
     7
 10
40.04040495876484
 20
-2.72568231692221
 30
0.0
  0
VERTEX
  5
42E
  8
0
  6
CONTINUOUS
 62
     7
 10
40.04044200459869
 20
-2.72768918887763
 30
0.0
  0
VERTEX
  5
42F
  8
0
  6
CONTINUOUS
 62
     7
 10
40.04047926799039
 20
-2.72969605681335
 30
0.0
  0
VERTEX
  5
430
  8
0
  6
CONTINUOUS
 62
     7
 10
40.04051675099632
 20
-2.73170292066769
 30
0.0
  0
VERTEX
  5
431
  8
0
  6
CONTINUOUS
 62
     7
 10
40.04055445591422
 20
-2.73370978037014
 30
0.0
  0
VERTEX
  5
432
  8
0
  6
CONTINUOUS
 62
     7
 10
40.04059238505868
 20
-2.7357166358496
 30
0.0
  0
VERTEX
  5
433
  8
0
  6
CONTINUOUS
 62
     7
 10
40.0406305407443
 20
-2.73772348703495
 30
0.0
  0
VERTEX
  5
434
  8
0
  6
CONTINUOUS
 62
     7
 10
40.04066892528564
 20
-2.73973033385506
 30
0.0
  0
VERTEX
  5
435
  8
0
  6
CONTINUOUS
 62
     7
 10
40.04070754099732
 20
-2.74173717623883
 30
0.0
  0
VERTEX
  5
436
  8
0
  6
CONTINUOUS
 62
     7
 10
40.04074639019393
 20
-2.74374401411513
 30
0.0
  0
VERTEX
  5
437
  8
0
  6
CONTINUOUS
 62
     7
 10
40.04078547519004
 20
-2.74575084741286
 30
0.0
  0
VERTEX
  5
438
  8
0
  6
CONTINUOUS
 62
     7
 10
40.04082479830025
 20
-2.74775767606089
 30
0.0
  0
VERTEX
  5
439
  8
0
  6
CONTINUOUS
 62
     7
 10
40.04086436183916
 20
-2.7497644999881
 30
0.0
  0
VERTEX
  5
43A
  8
0
  6
CONTINUOUS
 62
     7
 10
40.04090416812134
 20
-2.75177131912339
 30
0.0
  0
VERTEX
  5
43B
  8
0
  6
CONTINUOUS
 62
     7
 10
40.04094421949867
 20
-2.75377813339419
 30
0.0
  0
VERTEX
  5
43C
  8
0
  6
CONTINUOUS
 62
     7
 10
40.0409845186762
 20
-2.75578494271424
 30
0.0
  0
VERTEX
  5
43D
  8
0
  6
CONTINUOUS
 62
     7
 10
40.04102506855376
 20
-2.75779174698971
 30
0.0
  0
VERTEX
  5
43E
  8
0
  6
CONTINUOUS
 62
     7
 10
40.04106587203317
 20
-2.75979854612671
 30
0.0
  0
VERTEX
  5
43F
  8
0
  6
CONTINUOUS
 62
     7
 10
40.04110693201629
 20
-2.76180534003135
 30
0.0
  0
VERTEX
  5
440
  8
0
  6
CONTINUOUS
 62
     7
 10
40.04114825140495
 20
-2.76381212860972
 30
0.0
  0
VERTEX
  5
441
  8
0
  6
CONTINUOUS
 62
     7
 10
40.04118983310101
 20
-2.76581891176792
 30
0.0
  0
VERTEX
  5
442
  8
0
  6
CONTINUOUS
 62
     7
 10
40.04123168000629
 20
-2.76782568941207
 30
0.0
  0
VERTEX
  5
443
  8
0
  6
CONTINUOUS
 62
     7
 10
40.04127379502267
 20
-2.76983246144825
 30
0.0
  0
VERTEX
  5
444
  8
0
  6
CONTINUOUS
 62
     7
 10
40.04131618105197
 20
-2.77183922778258
 30
0.0
  0
VERTEX
  5
445
  8
0
  6
CONTINUOUS
 62
     7
 10
40.04135884099604
 20
-2.77384598832116
 30
0.0
  0
VERTEX
  5
446
  8
0
  6
CONTINUOUS
 62
     7
 10
40.04140177775694
 20
-2.77585274297008
 30
0.0
  0
VERTEX
  5
447
  8
0
  6
CONTINUOUS
 62
     7
 10
40.0414449944259
 20
-2.77785949162769
 30
0.0
  0
VERTEX
  5
448
  8
0
  6
CONTINUOUS
 62
     7
 10
40.04148849462909
 20
-2.77986623417047
 30
0.0
  0
VERTEX
  5
449
  8
0
  6
CONTINUOUS
 62
     7
 10
40.04153228208657
 20
-2.78187297047103
 30
0.0
  0
VERTEX
  5
44A
  8
0
  6
CONTINUOUS
 62
     7
 10
40.04157636051842
 20
-2.78387970040202
 30
0.0
  0
VERTEX
  5
44B
  8
0
  6
CONTINUOUS
 62
     7
 10
40.04162073364473
 20
-2.78588642383605
 30
0.0
  0
VERTEX
  5
44C
  8
0
  6
CONTINUOUS
 62
     7
 10
40.04166540518556
 20
-2.78789314064575
 30
0.0
  0
VERTEX
  5
44D
  8
0
  6
CONTINUOUS
 62
     7
 10
40.041710378861
 20
-2.78989985070374
 30
0.0
  0
VERTEX
  5
44E
  8
0
  6
CONTINUOUS
 62
     7
 10
40.0417556583911
 20
-2.79190655388267
 30
0.0
  0
VERTEX
  5
44F
  8
0
  6
CONTINUOUS
 62
     7
 10
40.04180124749597
 20
-2.79391325005515
 30
0.0
  0
VERTEX
  5
450
  8
0
  6
CONTINUOUS
 62
     7
 10
40.04184714989566
 20
-2.7959199390938
 30
0.0
  0
VERTEX
  5
451
  8
0
  6
CONTINUOUS
 62
     7
 10
40.04189336931025
 20
-2.79792662087127
 30
0.0
  0
VERTEX
  5
452
  8
0
  6
CONTINUOUS
 62
     7
 10
40.04193990950616
 20
-2.7999332952581
 30
0.0
  0
VERTEX
  5
453
  8
0
  6
CONTINUOUS
 62
     7
 10
40.04198677485236
 20
-2.80193996209799
 30
0.0
  0
VERTEX
  5
454
  8
0
  6
CONTINUOUS
 62
     7
 10
40.04203397013929
 20
-2.80394662121585
 30
0.0
  0
VERTEX
  5
455
  8
0
  6
CONTINUOUS
 62
     7
 10
40.04208150016596
 20
-2.80595327243618
 30
0.0
  0
VERTEX
  5
456
  8
0
  6
CONTINUOUS
 62
     7
 10
40.04212936973146
 20
-2.80795991558352
 30
0.0
  0
VERTEX
  5
457
  8
0
  6
CONTINUOUS
 62
     7
 10
40.04217758363481
 20
-2.80996655048236
 30
0.0
  0
VERTEX
  5
458
  8
0
  6
CONTINUOUS
 62
     7
 10
40.04222614667509
 20
-2.81197317695724
 30
0.0
  0
VERTEX
  5
459
  8
0
  6
CONTINUOUS
 62
     7
 10
40.04227506365133
 20
-2.81397979483266
 30
0.0
  0
VERTEX
  5
45A
  8
0
  6
CONTINUOUS
 62
     7
 10
40.0423243393626
 20
-2.81598640393315
 30
0.0
  0
VERTEX
  5
45B
  8
0
  6
CONTINUOUS
 62
     7
 10
40.04237397860793
 20
-2.81799300408322
 30
0.0
  0
VERTEX
  5
45C
  8
0
  6
CONTINUOUS
 62
     7
 10
40.04242398618641
 20
-2.81999959510738
 30
0.0
  0
VERTEX
  5
45D
  8
0
  6
CONTINUOUS
 62
     7
 10
40.04247436691038
 20
-2.82200617682957
 30
0.0
  0
VERTEX
  5
45E
  8
0
  6
CONTINUOUS
 62
     7
 10
40.04252512628346
 20
-2.8240127490427
 30
0.0
  0
VERTEX
  5
45F
  8
0
  6
CONTINUOUS
 62
     7
 10
40.04257627082228
 20
-2.8260193114943
 30
0.0
  0
VERTEX
  5
460
  8
0
  6
CONTINUOUS
 62
     7
 10
40.04262780712418
 20
-2.82802586392827
 30
0.0
  0
VERTEX
  5
461
  8
0
  6
CONTINUOUS
 62
     7
 10
40.04267974178649
 20
-2.83003240608851
 30
0.0
  0
VERTEX
  5
462
  8
0
  6
CONTINUOUS
 62
     7
 10
40.04273208140651
 20
-2.83203893771892
 30
0.0
  0
VERTEX
  5
463
  8
0
  6
CONTINUOUS
 62
     7
 10
40.04278483258158
 20
-2.8340454585634
 30
0.0
  0
VERTEX
  5
464
  8
0
  6
CONTINUOUS
 62
     7
 10
40.04283800190904
 20
-2.83605196836586
 30
0.0
  0
VERTEX
  5
465
  8
0
  6
CONTINUOUS
 62
     7
 10
40.0428915959862
 20
-2.8380584668702
 30
0.0
  0
VERTEX
  5
466
  8
0
  6
CONTINUOUS
 62
     7
 10
40.0429456214104
 20
-2.84006495382031
 30
0.0
  0
VERTEX
  5
467
  8
0
  6
CONTINUOUS
 62
     7
 10
40.04300008477894
 20
-2.8420714289601
 30
0.0
  0
VERTEX
  5
468
  8
0
  6
CONTINUOUS
 62
     7
 10
40.04305499270909
 20
-2.84407789203254
 30
0.0
  0
VERTEX
  5
469
  8
0
  6
CONTINUOUS
 62
     7
 10
40.04311035294036
 20
-2.8460843427281
 30
0.0
  0
VERTEX
  5
46A
  8
0
  6
CONTINUOUS
 62
     7
 10
40.04316617491161
 20
-2.84809078065779
 30
0.0
  0
VERTEX
  5
46B
  8
0
  6
CONTINUOUS
 62
     7
 10
40.04322246820325
 20
-2.85009720542597
 30
0.0
  0
VERTEX
  5
46C
  8
0
  6
CONTINUOUS
 62
     7
 10
40.04327924239566
 20
-2.85210361663703
 30
0.0
  0
VERTEX
  5
46D
  8
0
  6
CONTINUOUS
 62
     7
 10
40.04333650706926
 20
-2.85411001389533
 30
0.0
  0
VERTEX
  5
46E
  8
0
  6
CONTINUOUS
 62
     7
 10
40.04339427180444
 20
-2.85611639680525
 30
0.0
  0
VERTEX
  5
46F
  8
0
  6
CONTINUOUS
 62
     7
 10
40.04345254618161
 20
-2.85812276497117
 30
0.0
  0
VERTEX
  5
470
  8
0
  6
CONTINUOUS
 62
     7
 10
40.04351133978116
 20
-2.86012911799746
 30
0.0
  0
VERTEX
  5
471
  8
0
  6
CONTINUOUS
 62
     7
 10
40.04357066218351
 20
-2.8621354554885
 30
0.0
  0
VERTEX
  5
472
  8
0
  6
CONTINUOUS
 62
     7
 10
40.04363052296906
 20
-2.86414177704866
 30
0.0
  0
VERTEX
  5
473
  8
0
  6
CONTINUOUS
 62
     7
 10
40.0436909320094
 20
-2.8661480822663
 30
0.0
  0
VERTEX
  5
474
  8
0
  6
CONTINUOUS
 62
     7
 10
40.04375190167506
 20
-2.86815437059225
 30
0.0
  0
VERTEX
  5
475
  8
0
  6
CONTINUOUS
 62
     7
 10
40.04381344560846
 20
-2.8701606414074
 30
0.0
  0
VERTEX
  5
476
  8
0
  6
CONTINUOUS
 62
     7
 10
40.04387557746204
 20
-2.87216689409205
 30
0.0
  0
VERTEX
  5
477
  8
0
  6
CONTINUOUS
 62
     7
 10
40.04393831088829
 20
-2.87417312802651
 30
0.0
  0
VERTEX
  5
478
  8
0
  6
CONTINUOUS
 62
     7
 10
40.04400165953965
 20
-2.8761793425911
 30
0.0
  0
VERTEX
  5
479
  8
0
  6
CONTINUOUS
 62
     7
 10
40.04406563706861
 20
-2.87818553716614
 30
0.0
  0
VERTEX
  5
47A
  8
0
  6
CONTINUOUS
 62
     7
 10
40.04413025712761
 20
-2.88019171113192
 30
0.0
  0
VERTEX
  5
47B
  8
0
  6
CONTINUOUS
 62
     7
 10
40.04419553336915
 20
-2.88219786386877
 30
0.0
  0
VERTEX
  5
47C
  8
0
  6
CONTINUOUS
 62
     7
 10
40.04426147944567
 20
-2.884203994757
 30
0.0
  0
VERTEX
  5
47D
  8
0
  6
CONTINUOUS
 62
     7
 10
40.0443281098228
 20
-2.88621010313323
 30
0.0
  0
VERTEX
  5
47E
  8
0
  6
CONTINUOUS
 62
     7
 10
40.04439544347007
 20
-2.88821618809206
 30
0.0
  0
VERTEX
  5
47F
  8
0
  6
CONTINUOUS
 62
     7
 10
40.04446350090747
 20
-2.89022224864479
 30
0.0
  0
VERTEX
  5
480
  8
0
  6
CONTINUOUS
 62
     7
 10
40.04453230265649
 20
-2.89222828380263
 30
0.0
  0
VERTEX
  5
481
  8
0
  6
CONTINUOUS
 62
     7
 10
40.04460186923858
 20
-2.8942342925768
 30
0.0
  0
VERTEX
  5
482
  8
0
  6
CONTINUOUS
 62
     7
 10
40.04467222117523
 20
-2.8962402739785
 30
0.0
  0
VERTEX
  5
483
  8
0
  6
CONTINUOUS
 62
     7
 10
40.04474337898789
 20
-2.89824622701897
 30
0.0
  0
VERTEX
  5
484
  8
0
  6
CONTINUOUS
 62
     7
 10
40.04481536319802
 20
-2.9002521507094
 30
0.0
  0
VERTEX
  5
485
  8
0
  6
CONTINUOUS
 62
     7
 10
40.04488819432709
 20
-2.90225804406102
 30
0.0
  0
VERTEX
  5
486
  8
0
  6
CONTINUOUS
 62
     7
 10
40.04496189377907
 20
-2.90426390602346
 30
0.0
  0
VERTEX
  5
487
  8
0
  6
CONTINUOUS
 62
     7
 10
40.04503649021537
 20
-2.90626973503981
 30
0.0
  0
VERTEX
  5
488
  8
0
  6
CONTINUOUS
 62
     7
 10
40.04511201586191
 20
-2.90827552930443
 30
0.0
  0
VERTEX
  5
489
  8
0
  6
CONTINUOUS
 62
     7
 10
40.04518850296931
 20
-2.91028128700993
 30
0.0
  0
VERTEX
  5
48A
  8
0
  6
CONTINUOUS
 62
     7
 10
40.04526598378818
 20
-2.91228700634892
 30
0.0
  0
VERTEX
  5
48B
  8
0
  6
CONTINUOUS
 62
     7
 10
40.04534449056916
 20
-2.91429268551403
 30
0.0
  0
VERTEX
  5
48C
  8
0
  6
CONTINUOUS
 62
     7
 10
40.04542405556284
 20
-2.91629832269787
 30
0.0
  0
VERTEX
  5
48D
  8
0
  6
CONTINUOUS
 62
     7
 10
40.04550471101985
 20
-2.91830391609305
 30
0.0
  0
VERTEX
  5
48E
  8
0
  6
CONTINUOUS
 62
     7
 10
40.04558648938215
 20
-2.9203094638827
 30
0.0
  0
VERTEX
  5
48F
  8
0
  6
CONTINUOUS
 62
     7
 10
40.04566943099568
 20
-2.92231496385748
 30
0.0
  0
VERTEX
  5
490
  8
0
  6
CONTINUOUS
 62
     7
 10
40.04575358675181
 20
-2.92432041328446
 30
0.0
  0
VERTEX
  5
491
  8
0
  6
CONTINUOUS
 62
     7
 10
40.04583900827532
 20
-2.92632580939431
 30
0.0
  0
VERTEX
  5
492
  8
0
  6
CONTINUOUS
 62
     7
 10
40.04592574719099
 20
-2.92833114941769
 30
0.0
  0
VERTEX
  5
493
  8
0
  6
CONTINUOUS
 62
     7
 10
40.04601385512362
 20
-2.93033643058526
 30
0.0
  0
VERTEX
  5
494
  8
0
  6
CONTINUOUS
 62
     7
 10
40.04610338369801
 20
-2.93234165012767
 30
0.0
  0
VERTEX
  5
495
  8
0
  6
CONTINUOUS
 62
     7
 10
40.04619438453893
 20
-2.93434680527558
 30
0.0
  0
VERTEX
  5
496
  8
0
  6
CONTINUOUS
 62
     7
 10
40.04628691252717
 20
-2.93635189289067
 30
0.0
  0
VERTEX
  5
497
  8
0
  6
CONTINUOUS
 62
     7
 10
40.04638104894984
 20
-2.93835690684221
 30
0.0
  0
VERTEX
  5
498
  8
0
  6
CONTINUOUS
 62
     7
 10
40.04647688791246
 20
-2.94036183954684
 30
0.0
  0
VERTEX
  5
499
  8
0
  6
CONTINUOUS
 62
     7
 10
40.04657452360541
 20
-2.94236668341159
 30
0.0
  0
VERTEX
  5
49A
  8
0
  6
CONTINUOUS
 62
     7
 10
40.04667405021904
 20
-2.94437143084349
 30
0.0
  0
VERTEX
  5
49B
  8
0
  6
CONTINUOUS
 62
     7
 10
40.04677556194367
 20
-2.94637607424958
 30
0.0
  0
VERTEX
  5
49C
  8
0
  6
CONTINUOUS
 62
     7
 10
40.04687915296966
 20
-2.94838060603689
 30
0.0
  0
VERTEX
  5
49D
  8
0
  6
CONTINUOUS
 62
     7
 10
40.04698492414119
 20
-2.95038501927851
 30
0.0
  0
VERTEX
  5
49E
  8
0
  6
CONTINUOUS
 62
     7
 10
40.04709300991037
 20
-2.9523893104117
 30
0.0
  0
VERTEX
  5
49F
  8
0
  6
CONTINUOUS
 62
     7
 10
40.04720355531591
 20
-2.95439347693347
 30
0.0
  0
VERTEX
  5
4A0
  8
0
  6
CONTINUOUS
 62
     7
 10
40.04731670540042
 20
-2.95639751634119
 30
0.0
  0
VERTEX
  5
4A1
  8
0
  6
CONTINUOUS
 62
     7
 10
40.04743261048707
 20
-2.95840142426133
 30
0.0
  0
VERTEX
  5
4A2
  8
0
  6
CONTINUOUS
 62
     7
 10
40.04755150359178
 20
-2.96040516702175
 30
0.0
  0
VERTEX
  5
4A3
  8
0
  6
CONTINUOUS
 62
     7
 10
40.04767368332375
 20
-2.96240868771019
 30
0.0
  0
VERTEX
  5
4A4
  8
0
  6
CONTINUOUS
 62
     7
 10
40.04779945009523
 20
-2.96441192877559
 30
0.0
  0
VERTEX
  5
4A5
  8
0
  6
CONTINUOUS
 62
     7
 10
40.04792910400433
 20
-2.9664148338418
 30
0.0
  0
VERTEX
  5
4A6
  8
0
  6
CONTINUOUS
 62
     7
 10
40.0480629284332
 20
-2.96841740906443
 30
0.0
  0
VERTEX
  5
4A7
  8
0
  6
CONTINUOUS
 62
     7
 10
40.04820118200949
 20
-2.97041975320123
 30
0.0
  0
VERTEX
  5
4A8
  8
0
  6
CONTINUOUS
 62
     7
 10
40.04834412136098
 20
-2.97242197249116
 30
0.0
  0
VERTEX
  5
4A9
  8
0
  6
CONTINUOUS
 62
     7
 10
40.04849201183411
 20
-2.97442416841047
 30
0.0
  0
VERTEX
  5
4AA
  8
0
  6
CONTINUOUS
 62
     7
 10
40.04864567599806
 20
-2.97642613804271
 30
0.0
  0
VERTEX
  5
4AB
  8
0
  6
CONTINUOUS
 62
     7
 10
40.04880682031954
 20
-2.97842719562693
 30
0.0
  0
VERTEX
  5
4AC
  8
0
  6
CONTINUOUS
 62
     7
 10
40.04897722971059
 20
-2.98042661255004
 30
0.0
  0
VERTEX
  5
4AD
  8
0
  6
CONTINUOUS
 62
     7
 10
40.04915855400829
 20
-2.98242379464633
 30
0.0
  0
VERTEX
  5
4AE
  8
0
  6
CONTINUOUS
 62
     7
 10
40.04935062815663
 20
-2.98441995421025
 30
0.0
  0
VERTEX
  5
4AF
  8
0
  6
CONTINUOUS
 62
     7
 10
40.04955198848322
 20
-2.98641759611871
 30
0.0
  0
VERTEX
  5
4B0
  8
0
  6
CONTINUOUS
 62
     7
 10
40.04976138676441
 20
-2.98841909737816
 30
0.0
  0
VERTEX
  5
4B1
  8
0
  6
CONTINUOUS
 62
     7
 10
40.04998857629687
 20
-2.99041979416327
 30
0.0
  0
VERTEX
  5
4B2
  8
0
  6
CONTINUOUS
 62
     7
 10
40.05025855614369
 20
-2.99240526555392
 30
0.0
  0
VERTEX
  5
4B3
  8
0
  6
CONTINUOUS
 62
     7
 10
40.05059222148159
 20
-2.99436501693642
 30
0.0
  0
VERTEX
  5
4B4
  8
0
  6
CONTINUOUS
 62
     7
 10
40.05095319390852
 20
-2.99633945710202
 30
0.0
  0
VERTEX
  5
4B5
  8
0
  6
CONTINUOUS
 62
     7
 10
40.05133488876869
 20
-2.99835797703994
 30
0.0
  0
VERTEX
  5
4B6
  8
0
  6
CONTINUOUS
 62
     7
 10
40.05241475680415
 20
-2.99999999999969
 30
0.0
  0
SEQEND
  5
4B7
  8
0
  6
CONTINUOUS
 62
     7
  0
POLYLINE
  5
147
  8
0
  6
CONTINUOUS
 62
     7
 66
     1
 10
0.0
 20
0.0
 30
0.0
  0
VERTEX
  5
4B8
  8
0
  6
CONTINUOUS
 62
     7
 10
11.96340490446352
 20
-2.4226182617405
 30
0.0
  0
VERTEX
  5
4B9
  8
0
  6
CONTINUOUS
 62
     7
 10
11.96338898544838
 20
-2.42451976907025
 30
0.0
  0
VERTEX
  5
4BA
  8
0
  6
CONTINUOUS
 62
     7
 10
11.96337306018609
 20
-2.4264212763452
 30
0.0
  0
VERTEX
  5
4BB
  8
0
  6
CONTINUOUS
 62
     7
 10
11.96335712242952
 20
-2.42832278351056
 30
0.0
  0
VERTEX
  5
4BC
  8
0
  6
CONTINUOUS
 62
     7
 10
11.96334116593152
 20
-2.43022429051153
 30
0.0
  0
VERTEX
  5
4BD
  8
0
  6
CONTINUOUS
 62
     7
 10
11.96332518444496
 20
-2.43212579729332
 30
0.0
  0
VERTEX
  5
4BE
  8
0
  6
CONTINUOUS
 62
     7
 10
11.96330917172268
 20
-2.43402730380112
 30
0.0
  0
VERTEX
  5
4BF
  8
0
  6
CONTINUOUS
 62
     7
 10
11.96329312151755
 20
-2.43592880998015
 30
0.0
  0
VERTEX
  5
4C0
  8
0
  6
CONTINUOUS
 62
     7
 10
11.96327702758243
 20
-2.4378303157756
 30
0.0
  0
VERTEX
  5
4C1
  8
0
  6
CONTINUOUS
 62
     7
 10
11.96326088367017
 20
-2.43973182113268
 30
0.0
  0
VERTEX
  5
4C2
  8
0
  6
CONTINUOUS
 62
     7
 10
11.96324468353363
 20
-2.44163332599659
 30
0.0
  0
VERTEX
  5
4C3
  8
0
  6
CONTINUOUS
 62
     7
 10
11.96322842092567
 20
-2.44353483031254
 30
0.0
  0
VERTEX
  5
4C4
  8
0
  6
CONTINUOUS
 62
     7
 10
11.96321208959915
 20
-2.44543633402573
 30
0.0
  0
VERTEX
  5
4C5
  8
0
  6
CONTINUOUS
 62
     7
 10
11.96319568330692
 20
-2.44733783708136
 30
0.0
  0
VERTEX
  5
4C6
  8
0
  6
CONTINUOUS
 62
     7
 10
11.96317919580184
 20
-2.44923933942464
 30
0.0
  0
VERTEX
  5
4C7
  8
0
  6
CONTINUOUS
 62
     7
 10
11.96316262083678
 20
-2.45114084100077
 30
0.0
  0
VERTEX
  5
4C8
  8
0
  6
CONTINUOUS
 62
     7
 10
11.96314595216458
 20
-2.45304234175495
 30
0.0
  0
VERTEX
  5
4C9
  8
0
  6
CONTINUOUS
 62
     7
 10
11.96312918353811
 20
-2.45494384163239
 30
0.0
  0
VERTEX
  5
4CA
  8
0
  6
CONTINUOUS
 62
     7
 10
11.96311230871022
 20
-2.45684534057829
 30
0.0
  0
VERTEX
  5
4CB
  8
0
  6
CONTINUOUS
 62
     7
 10
11.96309532216309
 20
-2.45874683854367
 30
0.0
  0
VERTEX
  5
4CC
  8
0
  6
CONTINUOUS
 62
     7
 10
11.9630782233844
 20
-2.46064833551946
 30
0.0
  0
VERTEX
  5
4CD
  8
0
  6
CONTINUOUS
 62
     7
 10
11.96306101396325
 20
-2.46254983151335
 30
0.0
  0
VERTEX
  5
4CE
  8
0
  6
CONTINUOUS
 62
     7
 10
11.96304369549596
 20
-2.46445132653309
 30
0.0
  0
VERTEX
  5
4CF
  8
0
  6
CONTINUOUS
 62
     7
 10
11.96302626957885
 20
-2.4663528205864
 30
0.0
  0
VERTEX
  5
4D0
  8
0
  6
CONTINUOUS
 62
     7
 10
11.96300873780824
 20
-2.46825431368105
 30
0.0
  0
VERTEX
  5
4D1
  8
0
  6
CONTINUOUS
 62
     7
 10
11.96299110178044
 20
-2.47015580582478
 30
0.0
  0
VERTEX
  5
4D2
  8
0
  6
CONTINUOUS
 62
     7
 10
11.96297336309177
 20
-2.47205729702532
 30
0.0
  0
VERTEX
  5
4D3
  8
0
  6
CONTINUOUS
 62
     7
 10
11.96295552333855
 20
-2.47395878729042
 30
0.0
  0
VERTEX
  5
4D4
  8
0
  6
CONTINUOUS
 62
     7
 10
11.96293758411709
 20
-2.47586027662783
 30
0.0
  0
VERTEX
  5
4D5
  8
0
  6
CONTINUOUS
 62
     7
 10
11.96291954702372
 20
-2.4777617650453
 30
0.0
  0
VERTEX
  5
4D6
  8
0
  6
CONTINUOUS
 62
     7
 10
11.96290141365475
 20
-2.47966325255055
 30
0.0
  0
VERTEX
  5
4D7
  8
0
  6
CONTINUOUS
 62
     7
 10
11.9628831856065
 20
-2.48156473915135
 30
0.0
  0
VERTEX
  5
4D8
  8
0
  6
CONTINUOUS
 62
     7
 10
11.96286486447529
 20
-2.48346622485543
 30
0.0
  0
VERTEX
  5
4D9
  8
0
  6
CONTINUOUS
 62
     7
 10
11.96284645185743
 20
-2.48536770967054
 30
0.0
  0
VERTEX
  5
4DA
  8
0
  6
CONTINUOUS
 62
     7
 10
11.96282794934924
 20
-2.48726919360443
 30
0.0
  0
VERTEX
  5
4DB
  8
0
  6
CONTINUOUS
 62
     7
 10
11.96280935854704
 20
-2.48917067666482
 30
0.0
  0
VERTEX
  5
4DC
  8
0
  6
CONTINUOUS
 62
     7
 10
11.96279068104715
 20
-2.49107215885948
 30
0.0
  0
VERTEX
  5
4DD
  8
0
  6
CONTINUOUS
 62
     7
 10
11.96277191801615
 20
-2.49297364019278
 30
0.0
  0
VERTEX
  5
4DE
  8
0
  6
CONTINUOUS
 62
     7
 10
11.96275306831452
 20
-2.49487512065105
 30
0.0
  0
VERTEX
  5
4DF
  8
0
  6
CONTINUOUS
 62
     7
 10
11.96273413003247
 20
-2.49677660021456
 30
0.0
  0
VERTEX
  5
4E0
  8
0
  6
CONTINUOUS
 62
     7
 10
11.96271510125968
 20
-2.49867807886362
 30
0.0
  0
VERTEX
  5
4E1
  8
0
  6
CONTINUOUS
 62
     7
 10
11.96269598008581
 20
-2.50057955657851
 30
0.0
  0
VERTEX
  5
4E2
  8
0
  6
CONTINUOUS
 62
     7
 10
11.96267676460053
 20
-2.50248103333951
 30
0.0
  0
VERTEX
  5
4E3
  8
0
  6
CONTINUOUS
 62
     7
 10
11.96265745289351
 20
-2.50438250912692
 30
0.0
  0
VERTEX
  5
4E4
  8
0
  6
CONTINUOUS
 62
     7
 10
11.96263804315638
 20
-2.50628398392164
 30
0.0
  0
VERTEX
  5
4E5
  8
0
  6
CONTINUOUS
 62
     7
 10
11.96261853448062
 20
-2.50818545771
 30
0.0
  0
VERTEX
  5
4E6
  8
0
  6
CONTINUOUS
 62
     7
 10
11.96259892642632
 20
-2.51008693048119
 30
0.0
  0
VERTEX
  5
4E7
  8
0
  6
CONTINUOUS
 62
     7
 10
11.96257921855762
 20
-2.51198840222441
 30
0.0
  0
VERTEX
  5
4E8
  8
0
  6
CONTINUOUS
 62
     7
 10
11.96255941043867
 20
-2.51388987292885
 30
0.0
  0
VERTEX
  5
4E9
  8
0
  6
CONTINUOUS
 62
     7
 10
11.96253950163361
 20
-2.51579134258372
 30
0.0
  0
VERTEX
  5
4EA
  8
0
  6
CONTINUOUS
 62
     7
 10
11.96251949170656
 20
-2.51769281117822
 30
0.0
  0
VERTEX
  5
4EB
  8
0
  6
CONTINUOUS
 62
     7
 10
11.96249938022168
 20
-2.51959427870155
 30
0.0
  0
VERTEX
  5
4EC
  8
0
  6
CONTINUOUS
 62
     7
 10
11.96247916673862
 20
-2.52149574514289
 30
0.0
  0
VERTEX
  5
4ED
  8
0
  6
CONTINUOUS
 62
     7
 10
11.96245885077754
 20
-2.52339721049138
 30
0.0
  0
VERTEX
  5
4EE
  8
0
  6
CONTINUOUS
 62
     7
 10
11.96243843183802
 20
-2.5252986747361
 30
0.0
  0
VERTEX
  5
4EF
  8
0
  6
CONTINUOUS
 62
     7
 10
11.96241790941945
 20
-2.52720013786614
 30
0.0
  0
VERTEX
  5
4F0
  8
0
  6
CONTINUOUS
 62
     7
 10
11.96239728302124
 20
-2.52910159987057
 30
0.0
  0
VERTEX
  5
4F1
  8
0
  6
CONTINUOUS
 62
     7
 10
11.96237655214277
 20
-2.53100306073849
 30
0.0
  0
VERTEX
  5
4F2
  8
0
  6
CONTINUOUS
 62
     7
 10
11.96235571628346
 20
-2.53290452045898
 30
0.0
  0
VERTEX
  5
4F3
  8
0
  6
CONTINUOUS
 62
     7
 10
11.96233477494269
 20
-2.53480597902113
 30
0.0
  0
VERTEX
  5
4F4
  8
0
  6
CONTINUOUS
 62
     7
 10
11.96231372761987
 20
-2.53670743641402
 30
0.0
  0
VERTEX
  5
4F5
  8
0
  6
CONTINUOUS
 62
     7
 10
11.96229257382534
 20
-2.5386088926267
 30
0.0
  0
VERTEX
  5
4F6
  8
0
  6
CONTINUOUS
 62
     7
 10
11.96227131311629
 20
-2.54051034764808
 30
0.0
  0
VERTEX
  5
4F7
  8
0
  6
CONTINUOUS
 62
     7
 10
11.96224994506242
 20
-2.54241180146703
 30
0.0
  0
VERTEX
  5
4F8
  8
0
  6
CONTINUOUS
 62
     7
 10
11.96222846923344
 20
-2.54431325407241
 30
0.0
  0
VERTEX
  5
4F9
  8
0
  6
CONTINUOUS
 62
     7
 10
11.96220688519904
 20
-2.5462147054531
 30
0.0
  0
VERTEX
  5
4FA
  8
0
  6
CONTINUOUS
 62
     7
 10
11.96218519252895
 20
-2.54811615559794
 30
0.0
  0
VERTEX
  5
4FB
  8
0
  6
CONTINUOUS
 62
     7
 10
11.96216339079285
 20
-2.55001760449582
 30
0.0
  0
VERTEX
  5
4FC
  8
0
  6
CONTINUOUS
 62
     7
 10
11.96214147956047
 20
-2.5519190521356
 30
0.0
  0
VERTEX
  5
4FD
  8
0
  6
CONTINUOUS
 62
     7
 10
11.96211945840151
 20
-2.55382049850615
 30
0.0
  0
VERTEX
  5
4FE
  8
0
  6
CONTINUOUS
 62
     7
 10
11.96209732688447
 20
-2.5557219435963
 30
0.0
  0
VERTEX
  5
4FF
  8
0
  6
CONTINUOUS
 62
     7
 10
11.96207508455247
 20
-2.55762338739426
 30
0.0
  0
VERTEX
  5
500
  8
0
  6
CONTINUOUS
 62
     7
 10
11.96205273092431
 20
-2.55952482988761
 30
0.0
  0
VERTEX
  5
501
  8
0
  6
CONTINUOUS
 62
     7
 10
11.96203026551779
 20
-2.56142627106394
 30
0.0
  0
VERTEX
  5
502
  8
0
  6
CONTINUOUS
 62
     7
 10
11.96200768785072
 20
-2.5633277109108
 30
0.0
  0
VERTEX
  5
503
  8
0
  6
CONTINUOUS
 62
     7
 10
11.96198499744092
 20
-2.56522914941578
 30
0.0
  0
VERTEX
  5
504
  8
0
  6
CONTINUOUS
 62
     7
 10
11.96196219380619
 20
-2.56713058656642
 30
0.0
  0
VERTEX
  5
505
  8
0
  6
CONTINUOUS
 62
     7
 10
11.96193927646434
 20
-2.56903202235032
 30
0.0
  0
VERTEX
  5
506
  8
0
  6
CONTINUOUS
 62
     7
 10
11.96191624493319
 20
-2.57093345675504
 30
0.0
  0
VERTEX
  5
507
  8
0
  6
CONTINUOUS
 62
     7
 10
11.96189309873054
 20
-2.57283488976814
 30
0.0
  0
VERTEX
  5
508
  8
0
  6
CONTINUOUS
 62
     7
 10
11.96186983737326
 20
-2.57473632137717
 30
0.0
  0
VERTEX
  5
509
  8
0
  6
CONTINUOUS
 62
     7
 10
11.96184646034842
 20
-2.57663775156887
 30
0.0
  0
VERTEX
  5
50A
  8
0
  6
CONTINUOUS
 62
     7
 10
11.96182296710806
 20
-2.57853918032906
 30
0.0
  0
VERTEX
  5
50B
  8
0
  6
CONTINUOUS
 62
     7
 10
11.96179935710222
 20
-2.58044060764348
 30
0.0
  0
VERTEX
  5
50C
  8
0
  6
CONTINUOUS
 62
     7
 10
11.96177562978093
 20
-2.58234203349788
 30
0.0
  0
VERTEX
  5
50D
  8
0
  6
CONTINUOUS
 62
     7
 10
11.96175178459421
 20
-2.58424345787801
 30
0.0
  0
VERTEX
  5
50E
  8
0
  6
CONTINUOUS
 62
     7
 10
11.96172782099209
 20
-2.58614488076962
 30
0.0
  0
VERTEX
  5
50F
  8
0
  6
CONTINUOUS
 62
     7
 10
11.96170373842461
 20
-2.58804630215847
 30
0.0
  0
VERTEX
  5
510
  8
0
  6
CONTINUOUS
 62
     7
 10
11.9616795363418
 20
-2.58994772203031
 30
0.0
  0
VERTEX
  5
511
  8
0
  6
CONTINUOUS
 62
     7
 10
11.96165521419369
 20
-2.59184914037088
 30
0.0
  0
VERTEX
  5
512
  8
0
  6
CONTINUOUS
 62
     7
 10
11.9616307714303
 20
-2.59375055716594
 30
0.0
  0
VERTEX
  5
513
  8
0
  6
CONTINUOUS
 62
     7
 10
11.96160620749311
 20
-2.59565197240101
 30
0.0
  0
VERTEX
  5
514
  8
0
  6
CONTINUOUS
 62
     7
 10
11.96158152176357
 20
-2.59755338606007
 30
0.0
  0
VERTEX
  5
515
  8
0
  6
CONTINUOUS
 62
     7
 10
11.96155671359747
 20
-2.59945479812643
 30
0.0
  0
VERTEX
  5
516
  8
0
  6
CONTINUOUS
 62
     7
 10
11.96153178235049
 20
-2.60135620858338
 30
0.0
  0
VERTEX
  5
517
  8
0
  6
CONTINUOUS
 62
     7
 10
11.96150672737832
 20
-2.60325761741423
 30
0.0
  0
VERTEX
  5
518
  8
0
  6
CONTINUOUS
 62
     7
 10
11.96148154803665
 20
-2.60515902460228
 30
0.0
  0
VERTEX
  5
519
  8
0
  6
CONTINUOUS
 62
     7
 10
11.96145624368116
 20
-2.60706043013083
 30
0.0
  0
VERTEX
  5
51A
  8
0
  6
CONTINUOUS
 62
     7
 10
11.96143081366756
 20
-2.60896183398319
 30
0.0
  0
VERTEX
  5
51B
  8
0
  6
CONTINUOUS
 62
     7
 10
11.96140525735151
 20
-2.61086323614266
 30
0.0
  0
VERTEX
  5
51C
  8
0
  6
CONTINUOUS
 62
     7
 10
11.96137957408872
 20
-2.61276463659255
 30
0.0
  0
VERTEX
  5
51D
  8
0
  6
CONTINUOUS
 62
     7
 10
11.96135376323486
 20
-2.61466603531615
 30
0.0
  0
VERTEX
  5
51E
  8
0
  6
CONTINUOUS
 62
     7
 10
11.96132782413818
 20
-2.61656743229657
 30
0.0
  0
VERTEX
  5
51F
  8
0
  6
CONTINUOUS
 62
     7
 10
11.96130175607702
 20
-2.61846882751498
 30
0.0
  0
VERTEX
  5
520
  8
0
  6
CONTINUOUS
 62
     7
 10
11.96127555829158
 20
-2.62037022095152
 30
0.0
  0
VERTEX
  5
521
  8
0
  6
CONTINUOUS
 62
     7
 10
11.96124923002164
 20
-2.6222716125863
 30
0.0
  0
VERTEX
  5
522
  8
0
  6
CONTINUOUS
 62
     7
 10
11.96122277050701
 20
-2.62417300239945
 30
0.0
  0
VERTEX
  5
523
  8
0
  6
CONTINUOUS
 62
     7
 10
11.96119617898748
 20
-2.62607439037109
 30
0.0
  0
VERTEX
  5
524
  8
0
  6
CONTINUOUS
 62
     7
 10
11.96116945470284
 20
-2.62797577648134
 30
0.0
  0
VERTEX
  5
525
  8
0
  6
CONTINUOUS
 62
     7
 10
11.96114259689291
 20
-2.62987716071031
 30
0.0
  0
VERTEX
  5
526
  8
0
  6
CONTINUOUS
 62
     7
 10
11.96111560479745
 20
-2.63177854303814
 30
0.0
  0
VERTEX
  5
527
  8
0
  6
CONTINUOUS
 62
     7
 10
11.96108847765629
 20
-2.63367992344493
 30
0.0
  0
VERTEX
  5
528
  8
0
  6
CONTINUOUS
 62
     7
 10
11.96106121470921
 20
-2.63558130191082
 30
0.0
  0
VERTEX
  5
529
  8
0
  6
CONTINUOUS
 62
     7
 10
11.96103381519564
 20
-2.6374826784159
 30
0.0
  0
VERTEX
  5
52A
  8
0
  6
CONTINUOUS
 62
     7
 10
11.9610062783102
 20
-2.639384052939
 30
0.0
  0
VERTEX
  5
52B
  8
0
  6
CONTINUOUS
 62
     7
 10
11.96097860315995
 20
-2.64128542545637
 30
0.0
  0
VERTEX
  5
52C
  8
0
  6
CONTINUOUS
 62
     7
 10
11.96095078884183
 20
-2.64318679594399
 30
0.0
  0
VERTEX
  5
52D
  8
0
  6
CONTINUOUS
 62
     7
 10
11.96092283445278
 20
-2.64508816437782
 30
0.0
  0
VERTEX
  5
52E
  8
0
  6
CONTINUOUS
 62
     7
 10
11.96089473908972
 20
-2.64698953073384
 30
0.0
  0
VERTEX
  5
52F
  8
0
  6
CONTINUOUS
 62
     7
 10
11.96086650184959
 20
-2.64889089498802
 30
0.0
  0
VERTEX
  5
530
  8
0
  6
CONTINUOUS
 62
     7
 10
11.96083812182933
 20
-2.65079225711632
 30
0.0
  0
VERTEX
  5
531
  8
0
  6
CONTINUOUS
 62
     7
 10
11.96080959812587
 20
-2.65269361709472
 30
0.0
  0
VERTEX
  5
532
  8
0
  6
CONTINUOUS
 62
     7
 10
11.96078092983615
 20
-2.6545949748992
 30
0.0
  0
VERTEX
  5
533
  8
0
  6
CONTINUOUS
 62
     7
 10
11.96075211605709
 20
-2.65649633050571
 30
0.0
  0
VERTEX
  5
534
  8
0
  6
CONTINUOUS
 62
     7
 10
11.96072315588563
 20
-2.65839768389023
 30
0.0
  0
VERTEX
  5
535
  8
0
  6
CONTINUOUS
 62
     7
 10
11.96069404841601
 20
-2.66029903502866
 30
0.0
  0
VERTEX
  5
536
  8
0
  6
CONTINUOUS
 62
     7
 10
11.96066479266303
 20
-2.66220038389442
 30
0.0
  0
VERTEX
  5
537
  8
0
  6
CONTINUOUS
 62
     7
 10
11.96063538755118
 20
-2.66410173045818
 30
0.0
  0
VERTEX
  5
538
  8
0
  6
CONTINUOUS
 62
     7
 10
11.96060583200005
 20
-2.66600307469044
 30
0.0
  0
VERTEX
  5
539
  8
0
  6
CONTINUOUS
 62
     7
 10
11.96057612492926
 20
-2.66790441656171
 30
0.0
  0
VERTEX
  5
53A
  8
0
  6
CONTINUOUS
 62
     7
 10
11.96054626525838
 20
-2.66980575604249
 30
0.0
  0
VERTEX
  5
53B
  8
0
  6
CONTINUOUS
 62
     7
 10
11.96051625190704
 20
-2.67170709310331
 30
0.0
  0
VERTEX
  5
53C
  8
0
  6
CONTINUOUS
 62
     7
 10
11.9604860837948
 20
-2.67360842771465
 30
0.0
  0
VERTEX
  5
53D
  8
0
  6
CONTINUOUS
 62
     7
 10
11.96045575984128
 20
-2.67550975984702
 30
0.0
  0
VERTEX
  5
53E
  8
0
  6
CONTINUOUS
 62
     7
 10
11.96042527896608
 20
-2.67741108947094
 30
0.0
  0
VERTEX
  5
53F
  8
0
  6
CONTINUOUS
 62
     7
 10
11.96039464008879
 20
-2.67931241655692
 30
0.0
  0
VERTEX
  5
540
  8
0
  6
CONTINUOUS
 62
     7
 10
11.960363842129
 20
-2.68121374107544
 30
0.0
  0
VERTEX
  5
541
  8
0
  6
CONTINUOUS
 62
     7
 10
11.96033288400371
 20
-2.68311506299695
 30
0.0
  0
VERTEX
  5
542
  8
0
  6
CONTINUOUS
 62
     7
 10
11.96030176453533
 20
-2.68501638228877
 30
0.0
  0
VERTEX
  5
543
  8
0
  6
CONTINUOUS
 62
     7
 10
11.96027048242722
 20
-2.68691769891436
 30
0.0
  0
VERTEX
  5
544
  8
0
  6
CONTINUOUS
 62
     7
 10
11.96023903637521
 20
-2.68881901283692
 30
0.0
  0
VERTEX
  5
545
  8
0
  6
CONTINUOUS
 62
     7
 10
11.9602074250751
 20
-2.69072032401966
 30
0.0
  0
VERTEX
  5
546
  8
0
  6
CONTINUOUS
 62
     7
 10
11.96017564722268
 20
-2.69262163242578
 30
0.0
  0
VERTEX
  5
547
  8
0
  6
CONTINUOUS
 62
     7
 10
11.96014370151378
 20
-2.69452293801849
 30
0.0
  0
VERTEX
  5
548
  8
0
  6
CONTINUOUS
 62
     7
 10
11.96011158664419
 20
-2.69642424076099
 30
0.0
  0
VERTEX
  5
549
  8
0
  6
CONTINUOUS
 62
     7
 10
11.96007930130971
 20
-2.6983255406165
 30
0.0
  0
VERTEX
  5
54A
  8
0
  6
CONTINUOUS
 62
     7
 10
11.96004684420615
 20
-2.7002268375482
 30
0.0
  0
VERTEX
  5
54B
  8
0
  6
CONTINUOUS
 62
     7
 10
11.96001421402933
 20
-2.70212813151932
 30
0.0
  0
VERTEX
  5
54C
  8
0
  6
CONTINUOUS
 62
     7
 10
11.95998140947503
 20
-2.70402942249305
 30
0.0
  0
VERTEX
  5
54D
  8
0
  6
CONTINUOUS
 62
     7
 10
11.95994842923865
 20
-2.70593071043259
 30
0.0
  0
VERTEX
  5
54E
  8
0
  6
CONTINUOUS
 62
     7
 10
11.95991527193311
 20
-2.70783199529827
 30
0.0
  0
VERTEX
  5
54F
  8
0
  6
CONTINUOUS
 62
     7
 10
11.95988193599097
 20
-2.70973327704422
 30
0.0
  0
VERTEX
  5
550
  8
0
  6
CONTINUOUS
 62
     7
 10
11.95984841982094
 20
-2.71163455562373
 30
0.0
  0
VERTEX
  5
551
  8
0
  6
CONTINUOUS
 62
     7
 10
11.95981472183172
 20
-2.71353583099008
 30
0.0
  0
VERTEX
  5
552
  8
0
  6
CONTINUOUS
 62
     7
 10
11.95978084043202
 20
-2.71543710309656
 30
0.0
  0
VERTEX
  5
553
  8
0
  6
CONTINUOUS
 62
     7
 10
11.95974677403055
 20
-2.71733837189648
 30
0.0
  0
VERTEX
  5
554
  8
0
  6
CONTINUOUS
 62
     7
 10
11.959712521036
 20
-2.71923963734311
 30
0.0
  0
VERTEX
  5
555
  8
0
  6
CONTINUOUS
 62
     7
 10
11.95967807985709
 20
-2.72114089938975
 30
0.0
  0
VERTEX
  5
556
  8
0
  6
CONTINUOUS
 62
     7
 10
11.95964344890253
 20
-2.72304215798969
 30
0.0
  0
VERTEX
  5
557
  8
0
  6
CONTINUOUS
 62
     7
 10
11.959608626581
 20
-2.72494341309622
 30
0.0
  0
VERTEX
  5
558
  8
0
  6
CONTINUOUS
 62
     7
 10
11.95957361130123
 20
-2.72684466466263
 30
0.0
  0
VERTEX
  5
559
  8
0
  6
CONTINUOUS
 62
     7
 10
11.95953840147192
 20
-2.72874591264222
 30
0.0
  0
VERTEX
  5
55A
  8
0
  6
CONTINUOUS
 62
     7
 10
11.95950299545431
 20
-2.73064715698654
 30
0.0
  0
VERTEX
  5
55B
  8
0
  6
CONTINUOUS
 62
     7
 10
11.95946739136136
 20
-2.73254839763807
 30
0.0
  0
VERTEX
  5
55C
  8
0
  6
CONTINUOUS
 62
     7
 10
11.95943158722507
 20
-2.73444963453637
 30
0.0
  0
VERTEX
  5
55D
  8
0
  6
CONTINUOUS
 62
     7
 10
11.95939558107742
 20
-2.73635086762095
 30
0.0
  0
VERTEX
  5
55E
  8
0
  6
CONTINUOUS
 62
     7
 10
11.95935937095036
 20
-2.73825209683135
 30
0.0
  0
VERTEX
  5
55F
  8
0
  6
CONTINUOUS
 62
     7
 10
11.95932295487587
 20
-2.7401533221071
 30
0.0
  0
VERTEX
  5
560
  8
0
  6
CONTINUOUS
 62
     7
 10
11.95928633088592
 20
-2.74205454338774
 30
0.0
  0
VERTEX
  5
561
  8
0
  6
CONTINUOUS
 62
     7
 10
11.95924949701247
 20
-2.74395576061279
 30
0.0
  0
VERTEX
  5
562
  8
0
  6
CONTINUOUS
 62
     7
 10
11.95921245128748
 20
-2.7458569737218
 30
0.0
  0
VERTEX
  5
563
  8
0
  6
CONTINUOUS
 62
     7
 10
11.95917519174293
 20
-2.74775818265429
 30
0.0
  0
VERTEX
  5
564
  8
0
  6
CONTINUOUS
 62
     7
 10
11.95913771641077
 20
-2.7496593873498
 30
0.0
  0
VERTEX
  5
565
  8
0
  6
CONTINUOUS
 62
     7
 10
11.95910002332299
 20
-2.75156058774786
 30
0.0
  0
VERTEX
  5
566
  8
0
  6
CONTINUOUS
 62
     7
 10
11.95906211049367
 20
-2.7534617837873
 30
0.0
  0
VERTEX
  5
567
  8
0
  6
CONTINUOUS
 62
     7
 10
11.95902397566828
 20
-2.75536297539655
 30
0.0
  0
VERTEX
  5
568
  8
0
  6
CONTINUOUS
 62
     7
 10
11.95898561638482
 20
-2.75726416249597
 30
0.0
  0
VERTEX
  5
569
  8
0
  6
CONTINUOUS
 62
     7
 10
11.95894703017593
 20
-2.75916534500572
 30
0.0
  0
VERTEX
  5
56A
  8
0
  6
CONTINUOUS
 62
     7
 10
11.95890821457424
 20
-2.76106652284595
 30
0.0
  0
VERTEX
  5
56B
  8
0
  6
CONTINUOUS
 62
     7
 10
11.95886916711238
 20
-2.76296769593683
 30
0.0
  0
VERTEX
  5
56C
  8
0
  6
CONTINUOUS
 62
     7
 10
11.95882988532298
 20
-2.76486886419851
 30
0.0
  0
VERTEX
  5
56D
  8
0
  6
CONTINUOUS
 62
     7
 10
11.95879036673868
 20
-2.76677002755115
 30
0.0
  0
VERTEX
  5
56E
  8
0
  6
CONTINUOUS
 62
     7
 10
11.95875060889211
 20
-2.76867118591491
 30
0.0
  0
VERTEX
  5
56F
  8
0
  6
CONTINUOUS
 62
     7
 10
11.9587106093159
 20
-2.77057233920994
 30
0.0
  0
VERTEX
  5
570
  8
0
  6
CONTINUOUS
 62
     7
 10
11.95867036554268
 20
-2.77247348735641
 30
0.0
  0
VERTEX
  5
571
  8
0
  6
CONTINUOUS
 62
     7
 10
11.95862987510509
 20
-2.77437463027447
 30
0.0
  0
VERTEX
  5
572
  8
0
  6
CONTINUOUS
 62
     7
 10
11.95858913553094
 20
-2.77627576788408
 30
0.0
  0
VERTEX
  5
573
  8
0
  6
CONTINUOUS
 62
     7
 10
11.95854814408458
 20
-2.77817690009443
 30
0.0
  0
VERTEX
  5
574
  8
0
  6
CONTINUOUS
 62
     7
 10
11.95850689763536
 20
-2.78007802679856
 30
0.0
  0
VERTEX
  5
575
  8
0
  6
CONTINUOUS
 62
     7
 10
11.95846539302023
 20
-2.78197914788818
 30
0.0
  0
VERTEX
  5
576
  8
0
  6
CONTINUOUS
 62
     7
 10
11.95842362707613
 20
-2.78388026325499
 30
0.0
  0
VERTEX
  5
577
  8
0
  6
CONTINUOUS
 62
     7
 10
11.95838159663999
 20
-2.78578137279072
 30
0.0
  0
VERTEX
  5
578
  8
0
  6
CONTINUOUS
 62
     7
 10
11.95833929854877
 20
-2.78768247638707
 30
0.0
  0
VERTEX
  5
579
  8
0
  6
CONTINUOUS
 62
     7
 10
11.95829672963939
 20
-2.78958357393575
 30
0.0
  0
VERTEX
  5
57A
  8
0
  6
CONTINUOUS
 62
     7
 10
11.95825388674879
 20
-2.79148466532848
 30
0.0
  0
VERTEX
  5
57B
  8
0
  6
CONTINUOUS
 62
     7
 10
11.95821076671393
 20
-2.79338575045696
 30
0.0
  0
VERTEX
  5
57C
  8
0
  6
CONTINUOUS
 62
     7
 10
11.95816736637173
 20
-2.79528682921291
 30
0.0
  0
VERTEX
  5
57D
  8
0
  6
CONTINUOUS
 62
     7
 10
11.95812368255913
 20
-2.79718790148804
 30
0.0
  0
VERTEX
  5
57E
  8
0
  6
CONTINUOUS
 62
     7
 10
11.95807971211127
 20
-2.79908896717398
 30
0.0
  0
VERTEX
  5
57F
  8
0
  6
CONTINUOUS
 62
     7
 10
11.95803545158762
 20
-2.80099002615004
 30
0.0
  0
VERTEX
  5
580
  8
0
  6
CONTINUOUS
 62
     7
 10
11.95799089697807
 20
-2.80289107827013
 30
0.0
  0
VERTEX
  5
581
  8
0
  6
CONTINUOUS
 62
     7
 10
11.95794604420202
 20
-2.80479212338497
 30
0.0
  0
VERTEX
  5
582
  8
0
  6
CONTINUOUS
 62
     7
 10
11.95790088917889
 20
-2.80669316134532
 30
0.0
  0
VERTEX
  5
583
  8
0
  6
CONTINUOUS
 62
     7
 10
11.95785542782809
 20
-2.80859419200191
 30
0.0
  0
VERTEX
  5
584
  8
0
  6
CONTINUOUS
 62
     7
 10
11.95780965606902
 20
-2.81049521520548
 30
0.0
  0
VERTEX
  5
585
  8
0
  6
CONTINUOUS
 62
     7
 10
11.9577635698211
 20
-2.81239623080678
 30
0.0
  0
VERTEX
  5
586
  8
0
  6
CONTINUOUS
 62
     7
 10
11.95771716500373
 20
-2.81429723865654
 30
0.0
  0
VERTEX
  5
587
  8
0
  6
CONTINUOUS
 62
     7
 10
11.95767043753633
 20
-2.81619823860551
 30
0.0
  0
VERTEX
  5
588
  8
0
  6
CONTINUOUS
 62
     7
 10
11.9576233833383
 20
-2.81809923050442
 30
0.0
  0
VERTEX
  5
589
  8
0
  6
CONTINUOUS
 62
     7
 10
11.95757599832906
 20
-2.82000021420403
 30
0.0
  0
VERTEX
  5
58A
  8
0
  6
CONTINUOUS
 62
     7
 10
11.95752827841976
 20
-2.8219011895547
 30
0.0
  0
VERTEX
  5
58B
  8
0
  6
CONTINUOUS
 62
     7
 10
11.95748021897021
 20
-2.82380215638216
 30
0.0
  0
VERTEX
  5
58C
  8
0
  6
CONTINUOUS
 62
     7
 10
11.95743181445175
 20
-2.82570311447247
 30
0.0
  0
VERTEX
  5
58D
  8
0
  6
CONTINUOUS
 62
     7
 10
11.95738305925514
 20
-2.82760406360805
 30
0.0
  0
VERTEX
  5
58E
  8
0
  6
CONTINUOUS
 62
     7
 10
11.95733394777118
 20
-2.82950500357135
 30
0.0
  0
VERTEX
  5
58F
  8
0
  6
CONTINUOUS
 62
     7
 10
11.95728447439065
 20
-2.8314059341448
 30
0.0
  0
VERTEX
  5
590
  8
0
  6
CONTINUOUS
 62
     7
 10
11.95723463350435
 20
-2.83330685511085
 30
0.0
  0
VERTEX
  5
591
  8
0
  6
CONTINUOUS
 62
     7
 10
11.95718441950305
 20
-2.83520776625193
 30
0.0
  0
VERTEX
  5
592
  8
0
  6
CONTINUOUS
 62
     7
 10
11.95713382677754
 20
-2.83710866735049
 30
0.0
  0
VERTEX
  5
593
  8
0
  6
CONTINUOUS
 62
     7
 10
11.9570828497186
 20
-2.83900955818897
 30
0.0
  0
VERTEX
  5
594
  8
0
  6
CONTINUOUS
 62
     7
 10
11.95703148271702
 20
-2.8409104385498
 30
0.0
  0
VERTEX
  5
595
  8
0
  6
CONTINUOUS
 62
     7
 10
11.9569797201636
 20
-2.84281130821542
 30
0.0
  0
VERTEX
  5
596
  8
0
  6
CONTINUOUS
 62
     7
 10
11.95692755630722
 20
-2.84471216696159
 30
0.0
  0
VERTEX
  5
597
  8
0
  6
CONTINUOUS
 62
     7
 10
11.95687498390512
 20
-2.84661301449377
 30
0.0
  0
VERTEX
  5
598
  8
0
  6
CONTINUOUS
 62
     7
 10
11.9568219948221
 20
-2.84851385047538
 30
0.0
  0
VERTEX
  5
599
  8
0
  6
CONTINUOUS
 62
     7
 10
11.95676858091094
 20
-2.85041467456925
 30
0.0
  0
VERTEX
  5
59A
  8
0
  6
CONTINUOUS
 62
     7
 10
11.95671473402442
 20
-2.85231548643825
 30
0.0
  0
VERTEX
  5
59B
  8
0
  6
CONTINUOUS
 62
     7
 10
11.95666044601532
 20
-2.8542162857452
 30
0.0
  0
VERTEX
  5
59C
  8
0
  6
CONTINUOUS
 62
     7
 10
11.95660570873642
 20
-2.85611707215296
 30
0.0
  0
VERTEX
  5
59D
  8
0
  6
CONTINUOUS
 62
     7
 10
11.95655051404048
 20
-2.85801784532438
 30
0.0
  0
VERTEX
  5
59E
  8
0
  6
CONTINUOUS
 62
     7
 10
11.95649485378031
 20
-2.8599186049223
 30
0.0
  0
VERTEX
  5
59F
  8
0
  6
CONTINUOUS
 62
     7
 10
11.95643871980866
 20
-2.86181935060956
 30
0.0
  0
VERTEX
  5
5A0
  8
0
  6
CONTINUOUS
 62
     7
 10
11.95638210397833
 20
-2.86372008204901
 30
0.0
  0
VERTEX
  5
5A1
  8
0
  6
CONTINUOUS
 62
     7
 10
11.95632499806169
 20
-2.86562079889916
 30
0.0
  0
VERTEX
  5
5A2
  8
0
  6
CONTINUOUS
 62
     7
 10
11.95626739213509
 20
-2.86752150072694
 30
0.0
  0
VERTEX
  5
5A3
  8
0
  6
CONTINUOUS
 62
     7
 10
11.95620927465959
 20
-2.86942218701208
 30
0.0
  0
VERTEX
  5
5A4
  8
0
  6
CONTINUOUS
 62
     7
 10
11.95615063403207
 20
-2.87132285723083
 30
0.0
  0
VERTEX
  5
5A5
  8
0
  6
CONTINUOUS
 62
     7
 10
11.95609145864939
 20
-2.87322351085945
 30
0.0
  0
VERTEX
  5
5A6
  8
0
  6
CONTINUOUS
 62
     7
 10
11.95603173690842
 20
-2.87512414737421
 30
0.0
  0
VERTEX
  5
5A7
  8
0
  6
CONTINUOUS
 62
     7
 10
11.95597145720602
 20
-2.87702476625135
 30
0.0
  0
VERTEX
  5
5A8
  8
0
  6
CONTINUOUS
 62
     7
 10
11.95591060793907
 20
-2.87892536696715
 30
0.0
  0
VERTEX
  5
5A9
  8
0
  6
CONTINUOUS
 62
     7
 10
11.95584917750443
 20
-2.88082594899785
 30
0.0
  0
VERTEX
  5
5AA
  8
0
  6
CONTINUOUS
 62
     7
 10
11.95578715429897
 20
-2.88272651181972
 30
0.0
  0
VERTEX
  5
5AB
  8
0
  6
CONTINUOUS
 62
     7
 10
11.9557245267183
 20
-2.88462705490894
 30
0.0
  0
VERTEX
  5
5AC
  8
0
  6
CONTINUOUS
 62
     7
 10
11.95566128182977
 20
-2.88652757766694
 30
0.0
  0
VERTEX
  5
5AD
  8
0
  6
CONTINUOUS
 62
     7
 10
11.95559740285483
 20
-2.88842807927869
 30
0.0
  0
VERTEX
  5
5AE
  8
0
  6
CONTINUOUS
 62
     7
 10
11.95553287232281
 20
-2.89032855889018
 30
0.0
  0
VERTEX
  5
5AF
  8
0
  6
CONTINUOUS
 62
     7
 10
11.95546767276305
 20
-2.89222901564743
 30
0.0
  0
VERTEX
  5
5B0
  8
0
  6
CONTINUOUS
 62
     7
 10
11.95540178670491
 20
-2.89412944869644
 30
0.0
  0
VERTEX
  5
5B1
  8
0
  6
CONTINUOUS
 62
     7
 10
11.95533519667772
 20
-2.89602985718322
 30
0.0
  0
VERTEX
  5
5B2
  8
0
  6
CONTINUOUS
 62
     7
 10
11.95526788521082
 20
-2.89793024025377
 30
0.0
  0
VERTEX
  5
5B3
  8
0
  6
CONTINUOUS
 62
     7
 10
11.95519983483357
 20
-2.8998305970541
 30
0.0
  0
VERTEX
  5
5B4
  8
0
  6
CONTINUOUS
 62
     7
 10
11.95513102807531
 20
-2.90173092673022
 30
0.0
  0
VERTEX
  5
5B5
  8
0
  6
CONTINUOUS
 62
     7
 10
11.95506144728726
 20
-2.90363122841681
 30
0.0
  0
VERTEX
  5
5B6
  8
0
  6
CONTINUOUS
 62
     7
 10
11.95499107024087
 20
-2.90553150095751
 30
0.0
  0
VERTEX
  5
5B7
  8
0
  6
CONTINUOUS
 62
     7
 10
11.95491986984205
 20
-2.90743174288674
 30
0.0
  0
VERTEX
  5
5B8
  8
0
  6
CONTINUOUS
 62
     7
 10
11.95484781876141
 20
-2.90933195272395
 30
0.0
  0
VERTEX
  5
5B9
  8
0
  6
CONTINUOUS
 62
     7
 10
11.95477488966957
 20
-2.91123212898862
 30
0.0
  0
VERTEX
  5
5BA
  8
0
  6
CONTINUOUS
 62
     7
 10
11.95470105523713
 20
-2.9131322702002
 30
0.0
  0
VERTEX
  5
5BB
  8
0
  6
CONTINUOUS
 62
     7
 10
11.95462628813468
 20
-2.91503237487817
 30
0.0
  0
VERTEX
  5
5BC
  8
0
  6
CONTINUOUS
 62
     7
 10
11.95455056103285
 20
-2.91693244154197
 30
0.0
  0
VERTEX
  5
5BD
  8
0
  6
CONTINUOUS
 62
     7
 10
11.95447384660223
 20
-2.91883246871109
 30
0.0
  0
VERTEX
  5
5BE
  8
0
  6
CONTINUOUS
 62
     7
 10
11.95439611679242
 20
-2.92073245485754
 30
0.0
  0
VERTEX
  5
5BF
  8
0
  6
CONTINUOUS
 62
     7
 10
11.95431733409911
 20
-2.92263239783132
 30
0.0
  0
VERTEX
  5
5C0
  8
0
  6
CONTINUOUS
 62
     7
 10
11.95423745436768
 20
-2.92453229504487
 30
0.0
  0
VERTEX
  5
5C1
  8
0
  6
CONTINUOUS
 62
     7
 10
11.95415643330512
 20
-2.92643214390152
 30
0.0
  0
VERTEX
  5
5C2
  8
0
  6
CONTINUOUS
 62
     7
 10
11.95407422661838
 20
-2.92833194180459
 30
0.0
  0
VERTEX
  5
5C3
  8
0
  6
CONTINUOUS
 62
     7
 10
11.95399079001441
 20
-2.93023168615743
 30
0.0
  0
VERTEX
  5
5C4
  8
0
  6
CONTINUOUS
 62
     7
 10
11.95390607920019
 20
-2.93213137436335
 30
0.0
  0
VERTEX
  5
5C5
  8
0
  6
CONTINUOUS
 62
     7
 10
11.95382004988267
 20
-2.93403100382569
 30
0.0
  0
VERTEX
  5
5C6
  8
0
  6
CONTINUOUS
 62
     7
 10
11.95373265658882
 20
-2.93593057185075
 30
0.0
  0
VERTEX
  5
5C7
  8
0
  6
CONTINUOUS
 62
     7
 10
11.95364383564801
 20
-2.93783007424852
 30
0.0
  0
VERTEX
  5
5C8
  8
0
  6
CONTINUOUS
 62
     7
 10
11.95355350909878
 20
-2.93972950565392
 30
0.0
  0
VERTEX
  5
5C9
  8
0
  6
CONTINUOUS
 62
     7
 10
11.95346159859541
 20
-2.94162886067027
 30
0.0
  0
VERTEX
  5
5CA
  8
0
  6
CONTINUOUS
 62
     7
 10
11.95336802579218
 20
-2.9435281339009
 30
0.0
  0
VERTEX
  5
5CB
  8
0
  6
CONTINUOUS
 62
     7
 10
11.95327271234335
 20
-2.94542731994911
 30
0.0
  0
VERTEX
  5
5CC
  8
0
  6
CONTINUOUS
 62
     7
 10
11.95317557990319
 20
-2.94732641341823
 30
0.0
  0
VERTEX
  5
5CD
  8
0
  6
CONTINUOUS
 62
     7
 10
11.95307654966399
 20
-2.9492254088771
 30
0.0
  0
VERTEX
  5
5CE
  8
0
  6
CONTINUOUS
 62
     7
 10
11.95297552022117
 20
-2.95112429920768
 30
0.0
  0
VERTEX
  5
5CF
  8
0
  6
CONTINUOUS
 62
     7
 10
11.9528723578101
 20
-2.95302307487624
 30
0.0
  0
VERTEX
  5
5D0
  8
0
  6
CONTINUOUS
 62
     7
 10
11.95276692617223
 20
-2.95492172616289
 30
0.0
  0
VERTEX
  5
5D1
  8
0
  6
CONTINUOUS
 62
     7
 10
11.95265908904904
 20
-2.95682024334774
 30
0.0
  0
VERTEX
  5
5D2
  8
0
  6
CONTINUOUS
 62
     7
 10
11.95254871005329
 20
-2.95871861669513
 30
0.0
  0
VERTEX
  5
5D3
  8
0
  6
CONTINUOUS
 62
     7
 10
11.95243562489382
 20
-2.96061683305516
 30
0.0
  0
VERTEX
  5
5D4
  8
0
  6
CONTINUOUS
 62
     7
 10
11.95231960671584
 20
-2.96251487162275
 30
0.0
  0
VERTEX
  5
5D5
  8
0
  6
CONTINUOUS
 62
     7
 10
11.95220042015159
 20
-2.96441271055116
 30
0.0
  0
VERTEX
  5
5D6
  8
0
  6
CONTINUOUS
 62
     7
 10
11.95207782983332
 20
-2.9663103279937
 30
0.0
  0
VERTEX
  5
5D7
  8
0
  6
CONTINUOUS
 62
     7
 10
11.95195158949989
 20
-2.96820770168631
 30
0.0
  0
VERTEX
  5
5D8
  8
0
  6
CONTINUOUS
 62
     7
 10
11.9518213527886
 20
-2.97010480553003
 30
0.0
  0
VERTEX
  5
5D9
  8
0
  6
CONTINUOUS
 62
     7
 10
11.95168671946375
 20
-2.97200161136197
 30
0.0
  0
VERTEX
  5
5DA
  8
0
  6
CONTINUOUS
 62
     7
 10
11.95154728876991
 20
-2.97389809099936
 30
0.0
  0
VERTEX
  5
5DB
  8
0
  6
CONTINUOUS
 62
     7
 10
11.95140260116494
 20
-2.97579420211774
 30
0.0
  0
VERTEX
  5
5DC
  8
0
  6
CONTINUOUS
 62
     7
 10
11.95125189632997
 20
-2.97768983003804
 30
0.0
  0
VERTEX
  5
5DD
  8
0
  6
CONTINUOUS
 62
     7
 10
11.95109431800727
 20
-2.97958483700222
 30
0.0
  0
VERTEX
  5
5DE
  8
0
  6
CONTINUOUS
 62
     7
 10
11.95092899095263
 20
-2.98147909731723
 30
0.0
  0
VERTEX
  5
5DF
  8
0
  6
CONTINUOUS
 62
     7
 10
11.95075484426026
 20
-2.98337260999832
 30
0.0
  0
VERTEX
  5
5E0
  8
0
  6
CONTINUOUS
 62
     7
 10
11.95057069154475
 20
-2.98526544764901
 30
0.0
  0
VERTEX
  5
5E1
  8
0
  6
CONTINUOUS
 62
     7
 10
11.95037462211407
 20
-2.98715734012874
 30
0.0
  0
VERTEX
  5
5E2
  8
0
  6
CONTINUOUS
 62
     7
 10
11.95016205912067
 20
-2.98904674954472
 30
0.0
  0
VERTEX
  5
5E3
  8
0
  6
CONTINUOUS
 62
     7
 10
11.94992856220688
 20
-2.99093262213888
 30
0.0
  0
VERTEX
  5
5E4
  8
0
  6
CONTINUOUS
 62
     7
 10
11.94967444240761
 20
-2.99281882230223
 30
0.0
  0
VERTEX
  5
5E5
  8
0
  6
CONTINUOUS
 62
     7
 10
11.94938457928415
 20
-2.99469999294031
 30
0.0
  0
VERTEX
  5
5E6
  8
0
  6
CONTINUOUS
 62
     7
 10
11.94901874658735
 20
-2.99655767291783
 30
0.0
  0
VERTEX
  5
5E7
  8
0
  6
CONTINUOUS
 62
     7
 10
11.94863030795808
 20
-2.99845623943432
 30
0.0
  0
VERTEX
  5
5E8
  8
0
  6
CONTINUOUS
 62
     7
 10
11.9475852431959
 20
-2.99999999999969
 30
0.0
  0
SEQEND
  5
5E9
  8
0
  6
CONTINUOUS
 62
     7
  0
ENDSEC
  0
EOF
