  0
SECTION
  2
HEADER
  9
$ACADVER
  1
AC1009
  9
$DWGCODEPAGE
  3
ansi_1252
  9
$INSBASE
 10
0.0
 20
0.0
 30
0.0
  9
$EXTMIN
 10
0.0
 20
-103.3500000000002
 30
0.0
  9
$EXTMAX
 10
52.00000000000028
 20
55.65000000000009
 30
0.0
  9
$LIMMIN
 10
0.0
 20
0.0
  9
$LIMMAX
 10
12.0
 20
9.0
  9
$ORTHOMODE
 70
     0
  9
$REGENMODE
 70
     1
  9
$FILLMODE
 70
     1
  9
$QTEXTMODE
 70
     0
  9
$MIRRTEXT
 70
     1
  9
$DRAGMODE
 70
     2
  9
$LTSCALE
 40
1.0
  9
$OSMODE
 70
    37
  9
$ATTMODE
 70
     1
  9
$TEXTSIZE
 40
0.2
  9
$TRACEWID
 40
0.05
  9
$TEXTSTYLE
  7
STANDARD
  9
$CLAYER
  8
0
  9
$CELTYPE
  6
BYLAYER
  9
$CECOLOR
 62
   256
  9
$DIMSCALE
 40
1.0
  9
$DIMASZ
 40
0.18
  9
$DIMEXO
 40
0.0625
  9
$DIMDLI
 40
0.38
  9
$DIMRND
 40
0.0
  9
$DIMDLE
 40
0.0
  9
$DIMEXE
 40
0.18
  9
$DIMTP
 40
0.0
  9
$DIMTM
 40
0.0
  9
$DIMTXT
 40
0.18
  9
$DIMCEN
 40
0.09
  9
$DIMTSZ
 40
0.0
  9
$DIMTOL
 70
     0
  9
$DIMLIM
 70
     0
  9
$DIMTIH
 70
     1
  9
$DIMTOH
 70
     1
  9
$DIMSE1
 70
     0
  9
$DIMSE2
 70
     0
  9
$DIMTAD
 70
     0
  9
$DIMZIN
 70
     0
  9
$DIMBLK
  1

  9
$DIMASO
 70
     1
  9
$DIMSHO
 70
     1
  9
$DIMPOST
  1

  9
$DIMAPOST
  1

  9
$DIMALT
 70
     0
  9
$DIMALTD
 70
     2
  9
$DIMALTF
 40
25.4
  9
$DIMLFAC
 40
1.0
  9
$DIMTOFL
 70
     0
  9
$DIMTVP
 40
0.0
  9
$DIMTIX
 70
     0
  9
$DIMSOXD
 70
     0
  9
$DIMSAH
 70
     0
  9
$DIMBLK1
  1

  9
$DIMBLK2
  1

  9
$DIMSTYLE
  2
STANDARD
  9
$DIMCLRD
 70
     0
  9
$DIMCLRE
 70
     0
  9
$DIMCLRT
 70
     0
  9
$DIMTFAC
 40
1.0
  9
$DIMGAP
 40
0.09
  9
$LUNITS
 70
     2
  9
$LUPREC
 70
     4
  9
$SKETCHINC
 40
0.1
  9
$FILLETRAD
 40
0.5
  9
$AUNITS
 70
     0
  9
$AUPREC
 70
     0
  9
$MENU
  1
.
  9
$ELEVATION
 40
0.0
  9
$PELEVATION
 40
0.0
  9
$THICKNESS
 40
0.0
  9
$LIMCHECK
 70
     0
  9
$CHAMFERA
 40
0.5
  9
$CHAMFERB
 40
0.5
  9
$SKPOLY
 70
     0
  9
$TDCREATE
 40
2455520.374401042
  9
$TDUPDATE
 40
2455520.374401053
  9
$TDINDWG
 40
0.0000000116
  9
$TDUSRTIMER
 40
0.0000000116
  9
$USRTIMER
 70
     1
  9
$ANGBASE
 50
0.0
  9
$ANGDIR
 70
     0
  9
$PDMODE
 70
     0
  9
$PDSIZE
 40
0.0
  9
$PLINEWID
 40
0.0
  9
$COORDS
 70
     1
  9
$SPLFRAME
 70
     0
  9
$SPLINETYPE
 70
     6
  9
$SPLINESEGS
 70
     8
  9
$ATTDIA
 70
     0
  9
$ATTREQ
 70
     1
  9
$HANDLING
 70
     1
  9
$HANDSEED
  5
548
  9
$SURFTAB1
 70
     6
  9
$SURFTAB2
 70
     6
  9
$SURFTYPE
 70
     6
  9
$SURFU
 70
     6
  9
$SURFV
 70
     6
  9
$UCSNAME
  2

  9
$UCSORG
 10
0.0
 20
0.0
 30
0.0
  9
$UCSXDIR
 10
1.0
 20
0.0
 30
0.0
  9
$UCSYDIR
 10
0.0
 20
1.0
 30
0.0
  9
$PUCSNAME
  2

  9
$PUCSORG
 10
0.0
 20
0.0
 30
0.0
  9
$PUCSXDIR
 10
1.0
 20
0.0
 30
0.0
  9
$PUCSYDIR
 10
0.0
 20
1.0
 30
0.0
  9
$USERI1
 70
     0
  9
$USERI2
 70
     0
  9
$USERI3
 70
     0
  9
$USERI4
 70
     0
  9
$USERI5
 70
     0
  9
$USERR1
 40
16.0
  9
$USERR2
 40
0.0
  9
$USERR3
 40
0.0
  9
$USERR4
 40
0.0
  9
$USERR5
 40
0.0
  9
$WORLDVIEW
 70
     1
  9
$SHADEDGE
 70
     3
  9
$SHADEDIF
 70
    70
  9
$TILEMODE
 70
     1
  9
$MAXACTVP
 70
    64
  9
$PLIMCHECK
 70
     0
  9
$PEXTMIN
 10
1.00000000000000E+20
 20
1.00000000000000E+20
 30
1.00000000000000E+20
  9
$PEXTMAX
 10
-1.00000000000000E+20
 20
-1.00000000000000E+20
 30
-1.00000000000000E+20
  9
$PLIMMIN
 10
0.0
 20
0.0
  9
$PLIMMAX
 10
12.0
 20
9.0
  9
$UNITMODE
 70
     0
  9
$VISRETAIN
 70
     1
  9
$PLINEGEN
 70
     0
  9
$PSLTSCALE
 70
     1
  0
ENDSEC
  0
SECTION
  2
TABLES
  0
TABLE
  2
VPORT
 70
     1
  0
VPORT
  2
*ACTIVE
 70
     0
 10
0.0
 20
0.0
 11
1.0
 21
1.0
 12
26.00000000000014
 22
-23.85000000000005
 13
0.0
 23
0.0
 14
0.5
 24
0.5
 15
0.5
 25
0.5
 16
0.0
 26
0.0
 36
1.0
 17
0.0
 27
0.0
 37
0.0
 40
174.9000000000003
 41
1.60267857142857
 42
50.0
 43
0.0
 44
0.0
 50
0.0
 51
0.0
 71
     0
 72
   100
 73
     1
 74
     3
 75
     0
 76
     0
 77
     0
 78
     0
  0
ENDTAB
  0
TABLE
  2
LTYPE
 70
     8
  0
LTYPE
  2
CONTINUOUS
 70
     0
  3
Solid line
 72
    65
 73
     0
 40
0.0
  0
LTYPE
  2
DASHED
 70
     0
  3
Dashed
 72
    65
 73
     2
 40
15.0
 49
7.0
 49
-8.0
  0
LTYPE
  2
DOTTED
 70
     0
  3
Dotted
 72
    65
 73
     2
 40
1.0
 49
0.0
 49
-1.0
  0
LTYPE
  2
DOT_CENTER
 70
     0
  3
Dot_Center
 72
    65
 73
     4
 40
14.0
 49
12.0
 49
-1.0
 49
0.0
 49
-1.0
  0
LTYPE
  2
LONG_DASHED
 70
     0
  3
Long_Dashed
 72
    65
 73
     2
 40
15.0
 49
10.0
 49
-5.0
  0
LTYPE
  2
DASH_CENTER
 70
     0
  3
Dash_Center
 72
    65
 73
     4
 40
14.0
 49
11.0
 49
-1.0
 49
1.0
 49
-1.0
  0
LTYPE
  2
PHANTOM
 70
     0
  3
Phantom
 72
    65
 73
     6
 40
13.0
 49
10.0
 49
-1.0
 49
0.0
 49
-1.0
 49
0.0
 49
-1.0
  0
LTYPE
  2
CENTER_DASH_DASH
 70
     0
  3
Center_Dash_Dash
 72
    65
 73
     6
 40
14.0
 49
9.0
 49
-1.0
 49
1.0
 49
-1.0
 49
1.0
 49
-1.0
  0
ENDTAB
  0
TABLE
  2
LAYER
 70
     2
  0
LAYER
  2
0
 70
     0
 62
     7
  6
CONTINUOUS
  0
LAYER
  2
1
 70
     0
 62
     7
  6
CONTINUOUS
  0
ENDTAB
  0
TABLE
  2
STYLE
 70
     1
  0
STYLE
  2
STANDARD
 70
     0
 40
0.0
 41
1.0
 50
0.0
 71
     0
 42
0.2
  3
txt
  4

  0
ENDTAB
  0
TABLE
  2
VIEW
 70
     0
  0
ENDTAB
  0
TABLE
  2
UCS
 70
     0
  0
ENDTAB
  0
TABLE
  2
APPID
 70
     1
  0
APPID
  2
ACAD
 70
     0
  0
ENDTAB
  0
TABLE
  2
DIMSTYLE
 70
     1
  0
DIMSTYLE
  2
STANDARD
 70
     0
  3

  4

  5

  6

  7

 40
1.0
 41
0.18
 42
0.0625
 43
0.38
 44
0.18
 45
0.0
 46
0.0
 47
0.0
 48
0.0
140
0.18
141
0.09
142
0.0
143
25.4
144
1.0
145
0.0
146
1.0
147
0.09
 71
     0
 72
     0
 73
     1
 74
     1
 75
     0
 76
     0
 77
     0
 78
     0
170
     0
171
     2
172
     0
173
     0
174
     0
175
     0
176
     0
177
     0
178
     0
  0
ENDTAB
  0
ENDSEC
  0
SECTION
  2
BLOCKS
  0
BLOCK
  8
0
  2
$MODEL_SPACE
 70
     0
 10
0.0
 20
0.0
 30
0.0
  3
$MODEL_SPACE
  1

  0
ENDBLK
  5
21
  8
0
  0
BLOCK
 67
     1
  8
0
  2
$PAPER_SPACE
 70
     0
 10
0.0
 20
0.0
 30
0.0
  3
$PAPER_SPACE
  1

  0
ENDBLK
  5
1D
 67
     1
  8
0
  0
ENDSEC
  0
SECTION
  2
ENTITIES
  0
POINT
  5
43
  8
1
 62
     7
 10
0.0
 20
0.0
 30
0.0
  0
LINE
  5
44
  8
0
  6
CONTINUOUS
 62
     7
 10
0.0
 20
0.0
 30
0.0
 11
0.0
 21
-70.34999999999971
 31
0.0
  0
LINE
  5
45
  8
0
  6
CONTINUOUS
 62
     7
 10
33.15000000000002
 20
-35.00000000000033
 30
0.0
 11
33.04523769152478
 21
-34.89523769152503
 31
0.0
  0
LINE
  5
46
  8
0
  6
CONTINUOUS
 62
     7
 10
36.19999999999997
 20
-34.89523769152503
 30
0.0
 11
33.04523769152478
 21
-34.89523769152503
 31
0.0
  0
LINE
  5
47
  8
0
  6
CONTINUOUS
 62
     7
 10
36.19999999999997
 20
-35.00000000000033
 30
0.0
 11
36.19999999999997
 21
-34.89523769152503
 31
0.0
  0
LINE
  5
48
  8
0
  6
CONTINUOUS
 62
     7
 10
15.80000000000001
 20
-35.00000000000033
 30
0.0
 11
15.80000000000013
 21
-34.89523769152503
 31
0.0
  0
LINE
  5
49
  8
0
  6
CONTINUOUS
 62
     7
 10
15.80000000000013
 20
-34.89523769152503
 30
0.0
 11
18.95476230847527
 21
-34.89523769152503
 31
0.0
  0
LINE
  5
4A
  8
0
  6
CONTINUOUS
 62
     7
 10
33.04523769152478
 20
-34.89523769152503
 30
0.0
 11
33.04523769152478
 21
-42.00476230847552
 31
0.0
  0
LINE
  5
4B
  8
0
  6
CONTINUOUS
 62
     7
 10
18.95476230847527
 20
-34.89523769152503
 30
0.0
 11
18.95476230847527
 21
-42.00476230847552
 31
0.0
  0
LINE
  5
4C
  8
1
  6
CONTINUOUS
 62
     7
 10
18.85000000000042
 20
-35.00000000000033
 30
0.0
 11
18.95476230847527
 21
-34.89523769152503
 31
0.0
  0
LINE
  5
4D
  8
0
  6
CONTINUOUS
 62
     7
 10
15.80000000000013
 20
-42.00476230847552
 30
0.0
 11
15.80000000000001
 21
-41.90000000000022
 31
0.0
  0
LINE
  5
4E
  8
0
  6
CONTINUOUS
 62
     7
 10
18.95476230847527
 20
-42.00476230847552
 30
0.0
 11
15.80000000000013
 21
-42.00476230847552
 31
0.0
  0
LINE
  5
4F
  8
0
  6
CONTINUOUS
 62
     7
 10
18.85000000000042
 20
-41.90000000000022
 30
0.0
 11
18.95476230847527
 21
-42.00476230847552
 31
0.0
  0
LINE
  5
50
  8
0
  6
CONTINUOUS
 62
     7
 10
33.15000000000002
 20
-41.90000000000022
 30
0.0
 11
33.04523769152478
 21
-42.00476230847552
 31
0.0
  0
LINE
  5
51
  8
0
  6
CONTINUOUS
 62
     7
 10
33.04523769152478
 20
-42.00476230847552
 30
0.0
 11
36.19999999999997
 21
-42.00476230847552
 31
0.0
  0
LINE
  5
52
  8
0
  6
CONTINUOUS
 62
     7
 10
36.19999999999997
 20
-42.00476230847552
 30
0.0
 11
36.19999999999997
 21
-41.90000000000022
 31
0.0
  0
LINE
  5
53
  8
0
  6
CONTINUOUS
 62
     7
 10
36.19999999999997
 20
-92.15000000000023
 30
0.0
 11
36.19999999999997
 21
-92.04523769152473
 31
0.0
  0
LINE
  5
54
  8
0
  6
CONTINUOUS
 62
     7
 10
33.04523769152478
 20
-92.04523769152473
 30
0.0
 11
36.19999999999997
 21
-92.04523769152473
 31
0.0
  0
LINE
  5
55
  8
0
  6
CONTINUOUS
 62
     7
 10
33.04523769152478
 20
-92.04523769152473
 30
0.0
 11
33.15000000000002
 21
-92.15000000000023
 31
0.0
  0
LINE
  5
56
  8
0
  6
CONTINUOUS
 62
     7
 10
33.04523769152478
 20
-100.6547623084754
 30
0.0
 11
33.04523769152478
 21
-92.04523769152473
 31
0.0
  0
LINE
  5
57
  8
0
  6
CONTINUOUS
 62
     7
 10
33.15000000000002
 20
-100.5500000000002
 30
0.0
 11
33.04523769152478
 21
-100.6547623084754
 31
0.0
  0
LINE
  5
58
  8
0
  6
CONTINUOUS
 62
     7
 10
33.04523769152478
 20
-100.6547623084754
 30
0.0
 11
36.19999999999997
 21
-100.6547623084755
 31
0.0
  0
LINE
  5
59
  8
0
  6
CONTINUOUS
 62
     7
 10
36.19999999999997
 20
-100.6547623084755
 30
0.0
 11
36.19999999999997
 21
-100.5500000000002
 31
0.0
  0
LINE
  5
5A
  8
0
  6
CONTINUOUS
 62
     7
 10
15.80000000000001
 20
-92.15000000000023
 30
0.0
 11
15.80000000000013
 21
-92.04523769152473
 31
0.0
  0
LINE
  5
5B
  8
0
  6
CONTINUOUS
 62
     7
 10
18.95476230847527
 20
-92.04523769152473
 30
0.0
 11
15.80000000000013
 21
-92.04523769152473
 31
0.0
  0
LINE
  5
5C
  8
0
  6
CONTINUOUS
 62
     7
 10
18.95476230847527
 20
-92.04523769152473
 30
0.0
 11
18.85000000000042
 21
-92.15000000000023
 31
0.0
  0
LINE
  5
5D
  8
0
  6
CONTINUOUS
 62
     7
 10
18.95476230847527
 20
-100.6547623084754
 30
0.0
 11
18.95476230847527
 21
-92.04523769152473
 31
0.0
  0
LINE
  5
5E
  8
0
  6
CONTINUOUS
 62
     7
 10
15.80000000000013
 20
-100.6547623084755
 30
0.0
 11
15.80000000000001
 21
-100.5500000000002
 31
0.0
  0
LINE
  5
5F
  8
0
  6
CONTINUOUS
 62
     7
 10
18.85000000000042
 20
-100.5500000000002
 30
0.0
 11
18.95476230847527
 21
-100.6547623084754
 31
0.0
  0
LINE
  5
60
  8
0
  6
CONTINUOUS
 62
     7
 10
18.95476230847527
 20
-100.6547623084754
 30
0.0
 11
15.80000000000013
 21
-100.6547623084755
 31
0.0
  0
LINE
  5
61
  8
0
  6
CONTINUOUS
 62
     7
 10
15.80000000000013
 20
-59.80476230847563
 30
0.0
 11
15.80000000000001
 21
-59.70000000000042
 31
0.0
  0
LINE
  5
62
  8
0
  6
CONTINUOUS
 62
     7
 10
18.95476230847527
 20
-51.80000000000041
 30
0.0
 11
18.85000000000042
 21
-51.80000000000041
 31
0.0
  0
LINE
  5
63
  8
0
  6
CONTINUOUS
 62
     7
 10
18.95476230847527
 20
-51.80000000000041
 30
0.0
 11
18.95476230847527
 21
-59.80476230847572
 31
0.0
  0
LINE
  5
64
  8
0
  6
CONTINUOUS
 62
     7
 10
18.95476230847527
 20
-59.80476230847572
 30
0.0
 11
15.80000000000013
 21
-59.80476230847563
 31
0.0
  0
LINE
  5
65
  8
0
  6
CONTINUOUS
 62
     7
 10
18.95476230847527
 20
-59.80476230847572
 30
0.0
 11
18.85000000000042
 21
-59.70000000000042
 31
0.0
  0
LINE
  5
66
  8
0
  6
CONTINUOUS
 62
     7
 10
33.15000000000002
 20
-51.80000000000041
 30
0.0
 11
33.04523769152478
 21
-51.80000000000041
 31
0.0
  0
LINE
  5
67
  8
0
  6
CONTINUOUS
 62
     7
 10
33.04523769152478
 20
-51.80000000000041
 30
0.0
 11
33.04523769152478
 21
-59.80476230847572
 31
0.0
  0
LINE
  5
68
  8
0
  6
CONTINUOUS
 62
     7
 10
33.04523769152478
 20
-59.80476230847572
 30
0.0
 11
33.15000000000002
 21
-59.70000000000042
 31
0.0
  0
LINE
  5
69
  8
0
  6
CONTINUOUS
 62
     7
 10
33.04523769152478
 20
-59.80476230847572
 30
0.0
 11
36.19999999999997
 21
-59.80476230847572
 31
0.0
  0
LINE
  5
6A
  8
0
  6
CONTINUOUS
 62
     7
 10
36.19999999999997
 20
-59.80476230847572
 30
0.0
 11
36.19999999999997
 21
-59.70000000000042
 31
0.0
  0
LINE
  5
6B
  8
0
  6
CONTINUOUS
 62
     7
 10
49.75476230847531
 20
0.10476230847519
 30
0.0
 11
49.65000000000026
 21
0.0
 31
0.0
  0
LINE
  5
6C
  8
0
  6
CONTINUOUS
 62
     7
 10
49.75476230847531
 20
0.10476230847519
 30
0.0
 11
39.24523769152476
 21
0.10476230847519
 31
0.0
  0
LINE
  5
6D
  8
0
  6
CONTINUOUS
 62
     7
 10
39.35000000000029
 20
0.0
 30
0.0
 11
39.24523769152476
 21
0.10476230847519
 31
0.0
  0
LINE
  5
6E
  8
0
  6
CONTINUOUS
 62
     7
 10
39.24523769152476
 20
0.10476230847519
 30
0.0
 11
39.24523769152476
 21
-4.10476230847542
 31
0.0
  0
LINE
  5
6F
  8
0
  6
CONTINUOUS
 62
     7
 10
39.24523769152476
 20
-4.10476230847542
 30
0.0
 11
39.35000000000029
 21
-4.00000000000011
 31
0.0
  0
LINE
  5
70
  8
0
  6
CONTINUOUS
 62
     7
 10
49.75476230847531
 20
-4.10476230847542
 30
0.0
 11
49.65000000000026
 21
-4.00000000000011
 31
0.0
  0
LINE
  5
71
  8
0
  6
CONTINUOUS
 62
     7
 10
39.24523769152476
 20
-4.10476230847542
 30
0.0
 11
49.75476230847531
 21
-4.10476230847542
 31
0.0
  0
LINE
  5
72
  8
0
  6
CONTINUOUS
 62
     7
 10
49.75476230847531
 20
-4.10476230847542
 30
0.0
 11
49.75476230847531
 21
0.10476230847519
 31
0.0
  0
LINE
  5
73
  8
0
  6
CONTINUOUS
 62
     7
 10
2.24523769152478
 20
-4.10476230847542
 30
0.0
 11
2.35000000000008
 21
-4.00000000000011
 31
0.0
  0
LINE
  5
74
  8
0
  6
CONTINUOUS
 62
     7
 10
2.24523769152478
 20
-4.10476230847542
 30
0.0
 11
2.24523769152478
 21
0.10476230847519
 31
0.0
  0
LINE
  5
75
  8
0
  6
CONTINUOUS
 62
     7
 10
2.24523769152478
 20
0.10476230847519
 30
0.0
 11
2.34999999999999
 21
0.0
 31
0.0
  0
LINE
  5
76
  8
0
  6
CONTINUOUS
 62
     7
 10
2.24523769152478
 20
0.10476230847519
 30
0.0
 11
12.75476230847534
 21
0.10476230847519
 31
0.0
  0
LINE
  5
77
  8
0
  6
CONTINUOUS
 62
     7
 10
12.65000000000003
 20
0.0
 30
0.0
 11
12.75476230847534
 21
0.10476230847519
 31
0.0
  0
LINE
  5
78
  8
0
  6
CONTINUOUS
 62
     7
 10
12.75476230847534
 20
-4.10476230847542
 30
0.0
 11
12.65000000000003
 21
-4.00000000000011
 31
0.0
  0
LINE
  5
79
  8
0
  6
CONTINUOUS
 62
     7
 10
12.75476230847534
 20
0.10476230847519
 30
0.0
 11
12.75476230847534
 21
-4.10476230847542
 31
0.0
  0
LINE
  5
7A
  8
0
  6
CONTINUOUS
 62
     7
 10
12.75476230847534
 20
-4.10476230847542
 30
0.0
 11
2.24523769152478
 21
-4.10476230847542
 31
0.0
  0
LINE
  5
7B
  8
0
  6
CONTINUOUS
 62
     7
 10
0.0
 20
16.65000000000009
 30
0.0
 11
0.0
 21
0.0
 31
0.0
  0
LINE
  5
7C
  8
0
  6
CONTINUOUS
 62
     7
 10
36.99999999999999
 20
55.65000000000009
 30
0.0
 11
41.99999999999999
 21
50.65000000000009
 31
0.0
  0
LINE
  5
7D
  8
0
  6
CONTINUOUS
 62
     7
 10
15.0
 20
55.65000000000009
 30
0.0
 11
10.00000000000006
 21
50.65000000000009
 31
0.0
  0
LINE
  5
7E
  8
0
  6
CONTINUOUS
 62
     7
 10
10.00000000000006
 20
26.65000000000009
 30
0.0
 11
0.0
 21
16.65000000000009
 31
0.0
  0
LINE
  5
7F
  8
0
  6
CONTINUOUS
 62
     7
 10
10.00000000000006
 20
50.65000000000009
 30
0.0
 11
10.00000000000006
 21
26.65000000000009
 31
0.0
  0
LINE
  5
80
  8
0
  6
CONTINUOUS
 62
     7
 10
52.00000000000028
 20
-70.34999999999991
 30
0.0
 11
52.00000000000028
 21
16.64999999999969
 31
0.0
  0
LINE
  5
81
  8
0
  6
CONTINUOUS
 62
     7
 10
36.19999999999997
 20
-40.85000000000032
 30
0.0
 11
36.19999999999997
 21
-35.50000000000033
 31
0.0
  0
LINE
  5
82
  8
0
  6
CONTINUOUS
 62
     7
 10
33.8
 20
-35.50000000000033
 30
0.0
 11
33.8
 21
-40.85000000000032
 31
0.0
  0
LINE
  5
83
  8
0
  6
CONTINUOUS
 62
     7
 10
36.19999999999997
 20
-35.50000000000033
 30
0.0
 11
33.8
 21
-35.50000000000033
 31
0.0
  0
LINE
  5
84
  8
0
  6
CONTINUOUS
 62
     7
 10
15.80000000000001
 20
-40.85000000000032
 30
0.0
 11
15.80000000000001
 21
-35.50000000000033
 31
0.0
  0
LINE
  5
85
  8
0
  6
CONTINUOUS
 62
     7
 10
36.19999999999997
 20
-92.99999999999983
 30
0.0
 11
33.8
 21
-92.99999999999983
 31
0.0
  0
LINE
  5
86
  8
0
  6
CONTINUOUS
 62
     7
 10
15.80000000000001
 20
-99.69999999999993
 30
0.0
 11
15.80000000000001
 21
-92.99999999999983
 31
0.0
  0
LINE
  5
87
  8
0
  6
CONTINUOUS
 62
     7
 10
15.80000000000001
 20
-100.5500000000002
 30
0.0
 11
15.80000000000001
 21
-99.69999999999993
 31
0.0
  0
LINE
  5
88
  8
0
  6
CONTINUOUS
 62
     7
 10
18.19999999999999
 20
-99.70000000000002
 30
0.0
 11
15.80000000000001
 21
-99.69999999999993
 31
0.0
  0
LINE
  5
89
  8
0
  6
CONTINUOUS
 62
     7
 10
36.19999999999997
 20
-99.70000000000002
 30
0.0
 11
33.8
 21
-99.70000000000002
 31
0.0
  0
LINE
  5
8A
  8
0
  6
CONTINUOUS
 62
     7
 10
14.49999999999949
 20
-103.3500000000002
 30
0.0
 11
37.4999999999997
 21
-103.3500000000002
 31
0.0
  0
LINE
  5
8B
  8
0
  6
CONTINUOUS
 62
     7
 10
38.49999999999959
 20
-102.3500000000011
 30
0.0
 11
37.4999999999997
 21
-103.3500000000002
 31
0.0
  0
LINE
  5
8C
  8
0
  6
CONTINUOUS
 62
     7
 10
36.19999999999997
 20
-100.5500000000002
 30
0.0
 11
36.19999999999997
 21
-99.70000000000002
 31
0.0
  0
LINE
  5
8D
  8
0
  6
CONTINUOUS
 62
     7
 10
33.8
 20
-99.70000000000002
 30
0.0
 11
33.8
 21
-92.99999999999983
 31
0.0
  0
LINE
  5
8E
  8
0
  6
CONTINUOUS
 62
     7
 10
36.19999999999997
 20
-59.70000000000042
 30
0.0
 11
36.19999999999997
 21
-58.80000000000021
 31
0.0
  0
LINE
  5
8F
  8
0
  6
CONTINUOUS
 62
     7
 10
36.19999999999997
 20
-51.80000000000041
 30
0.0
 11
33.8
 21
-51.80000000000041
 31
0.0
  0
LINE
  5
90
  8
0
  6
CONTINUOUS
 62
     7
 10
36.19999999999997
 20
-58.80000000000021
 30
0.0
 11
33.8
 21
-58.80000000000021
 31
0.0
  0
LINE
  5
91
  8
0
  6
CONTINUOUS
 62
     7
 10
33.8
 20
-58.80000000000021
 30
0.0
 11
33.8
 21
-51.80000000000041
 31
0.0
  0
LINE
  5
92
  8
0
  6
CONTINUOUS
 62
     7
 10
18.19999999999999
 20
-58.80000000000021
 30
0.0
 11
15.80000000000001
 21
-58.80000000000021
 31
0.0
  0
LINE
  5
93
  8
0
  6
CONTINUOUS
 62
     7
 10
15.80000000000001
 20
-59.70000000000042
 30
0.0
 11
15.80000000000001
 21
-58.80000000000021
 31
0.0
  0
LINE
  5
94
  8
0
  6
CONTINUOUS
 62
     7
 10
18.85000000000042
 20
-51.80000000000041
 30
0.0
 11
18.19999999999999
 21
-51.80000000000041
 31
0.0
  0
LINE
  5
95
  8
0
  6
CONTINUOUS
 62
     7
 10
18.19999999999999
 20
-58.80000000000021
 30
0.0
 11
18.19999999999999
 21
-51.80000000000041
 31
0.0
  0
LINE
  5
96
  8
0
  6
CONTINUOUS
 62
     7
 10
18.2000000000001
 20
-40.85000000000032
 30
0.0
 11
15.80000000000001
 21
-40.85000000000032
 31
0.0
  0
LINE
  5
97
  8
0
  6
CONTINUOUS
 62
     7
 10
33.8
 20
-40.85000000000032
 30
0.0
 11
36.19999999999997
 21
-40.85000000000032
 31
0.0
  0
LINE
  5
98
  8
0
  6
CONTINUOUS
 62
     7
 10
36.19999999999997
 20
-41.90000000000022
 30
0.0
 11
36.19999999999997
 21
-40.85000000000032
 31
0.0
  0
LINE
  5
99
  8
0
  6
CONTINUOUS
 62
     7
 10
39.35000000000029
 20
0.0
 30
0.0
 11
40.02094607791388
 21
0.0
 31
0.0
  0
LINE
  5
9A
  8
0
  6
CONTINUOUS
 62
     7
 10
40.02094607791388
 20
-0.5000000000004
 30
0.0
 11
40.03659509553647
 21
-2.42261826174072
 31
0.0
  0
LINE
  5
9B
  8
0
  6
CONTINUOUS
 62
     7
 10
40.02094607791388
 20
0.0
 30
0.0
 11
40.02094607791388
 21
-0.5000000000004
 31
0.0
  0
LINE
  5
9C
  8
0
  6
CONTINUOUS
 62
     7
 10
39.35000000000029
 20
0.0
 30
0.0
 11
39.35000000000029
 21
-4.00000000000011
 31
0.0
  0
LINE
  5
9D
  8
0
  6
CONTINUOUS
 62
     7
 10
39.35000000000029
 20
-4.00000000000011
 30
0.0
 11
49.65000000000026
 21
-4.00000000000011
 31
0.0
  0
LINE
  5
9E
  8
0
  6
CONTINUOUS
 62
     7
 10
40.02094607791388
 20
-0.5000000000004
 30
0.0
 11
48.97905392208614
 21
-0.50000000000031
 31
0.0
  0
LINE
  5
9F
  8
0
  6
CONTINUOUS
 62
     7
 10
48.9301797402872
 20
-2.99999999999992
 30
0.0
 11
40.0698202597129
 21
-2.99999999999992
 31
0.0
  0
LINE
  5
A0
  8
0
  6
CONTINUOUS
 62
     7
 10
48.94758524319587
 20
-2.99999999999992
 30
0.0
 11
48.9301797402872
 21
-2.99999999999992
 31
0.0
  0
LINE
  5
A1
  8
0
  6
CONTINUOUS
 62
     7
 10
49.65000000000026
 20
-4.00000000000011
 30
0.0
 11
49.65000000000026
 21
0.0
 31
0.0
  0
LINE
  5
A2
  8
0
  6
CONTINUOUS
 62
     7
 10
48.97905392208614
 20
-0.50000000000031
 30
0.0
 11
48.97905392208614
 21
0.0
 31
0.0
  0
LINE
  5
A3
  8
0
  6
CONTINUOUS
 62
     7
 10
48.97905392208614
 20
0.0
 30
0.0
 11
49.65000000000026
 21
0.0
 31
0.0
  0
LINE
  5
A4
  8
0
  6
CONTINUOUS
 62
     7
 10
48.96340490446349
 20
-2.42261826174072
 30
0.0
 11
48.97905392208614
 21
-0.50000000000031
 31
0.0
  0
LINE
  5
A5
  8
0
  6
CONTINUOUS
 62
     7
 10
15.80000000000001
 20
-35.50000000000033
 30
0.0
 11
18.2000000000001
 21
-35.50000000000043
 31
0.0
  0
LINE
  5
A6
  8
0
  6
CONTINUOUS
 62
     7
 10
18.19999999999999
 20
-92.99999999999983
 30
0.0
 11
18.19999999999999
 21
-99.70000000000002
 31
0.0
  0
LINE
  5
A7
  8
0
  6
CONTINUOUS
 62
     7
 10
12.65000000000003
 20
0.0
 30
0.0
 11
11.97905392208617
 21
0.0
 31
0.0
  0
LINE
  5
A8
  8
0
  6
CONTINUOUS
 62
     7
 10
18.85000000000042
 20
-35.00000000000033
 30
0.0
 11
15.80000000000001
 21
-35.00000000000033
 31
0.0
  0
LINE
  5
A9
  8
0
  6
CONTINUOUS
 62
     7
 10
40.02094607791388
 20
0.0
 30
0.0
 11
48.97905392208614
 21
0.0
 31
0.0
  0
LINE
  5
AA
  8
0
  6
CONTINUOUS
 62
     7
 10
40.0698202597129
 20
-2.99999999999992
 30
0.0
 11
40.05241475680423
 21
-2.99999999999992
 31
0.0
  0
LINE
  5
AB
  8
0
  6
CONTINUOUS
 62
     7
 10
36.19999999999997
 20
-35.00000000000033
 30
0.0
 11
33.15000000000002
 21
-35.00000000000033
 31
0.0
  0
LINE
  5
AC
  8
0
  6
CONTINUOUS
 62
     7
 10
42.49999999999999
 20
-75.34999999999991
 30
0.0
 11
47.00000000000014
 21
-75.34999999999991
 31
0.0
  0
LINE
  5
AD
  8
0
  6
CONTINUOUS
 62
     7
 10
18.2000000000001
 20
-35.50000000000043
 30
0.0
 11
18.2000000000001
 21
-40.85000000000032
 31
0.0
  0
LINE
  5
AE
  8
0
  6
CONTINUOUS
 62
     7
 10
15.80000000000001
 20
-35.50000000000033
 30
0.0
 11
15.80000000000001
 21
-35.00000000000033
 31
0.0
  0
LINE
  5
AF
  8
0
  6
CONTINUOUS
 62
     7
 10
3.02094607791389
 20
0.0
 30
0.0
 11
2.34999999999999
 21
0.0
 31
0.0
  0
LINE
  5
B0
  8
0
  6
CONTINUOUS
 62
     7
 10
2.35000000000008
 20
-4.00000000000011
 30
0.0
 11
12.65000000000003
 21
-4.00000000000011
 31
0.0
  0
LINE
  5
B1
  8
0
  6
CONTINUOUS
 62
     7
 10
12.65000000000003
 20
0.0
 30
0.0
 11
12.65000000000003
 21
-4.00000000000011
 31
0.0
  0
LINE
  5
B2
  8
0
  6
CONTINUOUS
 62
     7
 10
3.069820259713
 20
-2.99999999999992
 30
0.0
 11
3.05241475680418
 21
-2.99999999999992
 31
0.0
  0
LINE
  5
B3
  8
0
  6
CONTINUOUS
 62
     7
 10
11.9301797402872
 20
-2.99999999999992
 30
0.0
 11
11.94758524319587
 21
-2.99999999999992
 31
0.0
  0
LINE
  5
B4
  8
0
  6
CONTINUOUS
 62
     7
 10
3.02094607791389
 20
-0.5000000000004
 30
0.0
 11
3.02094607791389
 21
0.0
 31
0.0
  0
LINE
  5
B5
  8
0
  6
CONTINUOUS
 62
     7
 10
3.03659509553648
 20
-2.42261826174072
 30
0.0
 11
3.02094607791389
 21
-0.5000000000004
 31
0.0
  0
LINE
  5
B6
  8
0
  6
CONTINUOUS
 62
     7
 10
11.97905392208617
 20
-0.50000000000031
 30
0.0
 11
11.97905392208617
 21
0.0
 31
0.0
  0
LINE
  5
B7
  8
0
  6
CONTINUOUS
 62
     7
 10
11.96340490446352
 20
-2.42261826174081
 30
0.0
 11
11.97905392208617
 21
-0.50000000000031
 31
0.0
  0
LINE
  5
B8
  8
0
  6
CONTINUOUS
 62
     7
 10
11.9301797402872
 20
-2.99999999999992
 30
0.0
 11
3.069820259713
 21
-2.99999999999992
 31
0.0
  0
LINE
  5
B9
  8
0
  6
CONTINUOUS
 62
     7
 10
3.02094607791389
 20
0.0
 30
0.0
 11
11.97905392208617
 21
0.0
 31
0.0
  0
LINE
  5
BA
  8
0
  6
CONTINUOUS
 62
     7
 10
3.02094607791389
 20
-0.5000000000004
 30
0.0
 11
11.97905392208617
 21
-0.50000000000031
 31
0.0
  0
LINE
  5
BB
  8
0
  6
CONTINUOUS
 62
     7
 10
2.34999999999999
 20
0.0
 30
0.0
 11
2.35000000000008
 21
-4.00000000000011
 31
0.0
  0
LINE
  5
BC
  8
0
  6
CONTINUOUS
 62
     7
 10
36.19999999999997
 20
-92.15000000000023
 30
0.0
 11
33.15000000000002
 21
-92.15000000000023
 31
0.0
  0
LINE
  5
BD
  8
0
  6
CONTINUOUS
 62
     7
 10
18.85000000000042
 20
-41.90000000000022
 30
0.0
 11
18.85000000000042
 21
-35.00000000000033
 31
0.0
  0
LINE
  5
BE
  8
0
  6
CONTINUOUS
 62
     7
 10
36.19999999999997
 20
-35.50000000000033
 30
0.0
 11
36.19999999999997
 21
-35.00000000000033
 31
0.0
  0
LINE
  5
BF
  8
0
  6
CONTINUOUS
 62
     7
 10
33.15000000000002
 20
-35.00000000000033
 30
0.0
 11
33.15000000000002
 21
-41.90000000000022
 31
0.0
  0
LINE
  5
C0
  8
0
  6
CONTINUOUS
 62
     7
 10
33.15000000000002
 20
-41.90000000000022
 30
0.0
 11
36.19999999999997
 21
-41.90000000000022
 31
0.0
  0
LINE
  5
C1
  8
0
  6
CONTINUOUS
 62
     7
 10
33.15000000000002
 20
-51.80000000000041
 30
0.0
 11
33.15000000000002
 21
-59.70000000000042
 31
0.0
  0
LINE
  5
C2
  8
0
  6
CONTINUOUS
 62
     7
 10
33.8
 20
-51.80000000000041
 30
0.0
 11
33.15000000000002
 21
-51.80000000000041
 31
0.0
  0
LINE
  5
C3
  8
0
  6
CONTINUOUS
 62
     7
 10
36.19999999999997
 20
-58.80000000000021
 30
0.0
 11
36.19999999999997
 21
-51.80000000000041
 31
0.0
  0
LINE
  5
C4
  8
0
  6
CONTINUOUS
 62
     7
 10
33.15000000000002
 20
-59.70000000000042
 30
0.0
 11
36.19999999999997
 21
-59.70000000000042
 31
0.0
  0
LINE
  5
C5
  8
0
  6
CONTINUOUS
 62
     7
 10
15.80000000000001
 20
-59.70000000000042
 30
0.0
 11
18.85000000000042
 21
-59.70000000000042
 31
0.0
  0
LINE
  5
C6
  8
0
  6
CONTINUOUS
 62
     7
 10
38.49999999999999
 20
-79.34999999999991
 30
0.0
 11
42.49999999999999
 21
-75.34999999999991
 31
0.0
  0
LINE
  5
C7
  8
0
  6
CONTINUOUS
 62
     7
 10
0.0
 20
-70.34999999999971
 30
0.0
 11
5.0000000000004
 21
-75.35000000000022
 31
0.0
  0
LINE
  5
C8
  8
0
  6
CONTINUOUS
 62
     7
 10
18.85000000000042
 20
-59.70000000000042
 30
0.0
 11
18.85000000000042
 21
-51.80000000000041
 31
0.0
  0
LINE
  5
C9
  8
0
  6
CONTINUOUS
 62
     7
 10
18.19999999999999
 20
-51.80000000000041
 30
0.0
 11
15.80000000000001
 21
-51.80000000000041
 31
0.0
  0
LINE
  5
CA
  8
0
  6
CONTINUOUS
 62
     7
 10
18.85000000000042
 20
-92.15000000000023
 30
0.0
 11
15.80000000000001
 21
-92.15000000000023
 31
0.0
  0
LINE
  5
CB
  8
0
  6
CONTINUOUS
 62
     7
 10
15.80000000000001
 20
-41.90000000000022
 30
0.0
 11
18.85000000000042
 21
-41.90000000000022
 31
0.0
  0
LINE
  5
CC
  8
0
  6
CONTINUOUS
 62
     7
 10
9.5
 20
-75.34999999999991
 30
0.0
 11
5.0000000000004
 21
-75.35000000000022
 31
0.0
  0
LINE
  5
CD
  8
0
  6
CONTINUOUS
 62
     7
 10
15.80000000000001
 20
-40.85000000000032
 30
0.0
 11
15.80000000000001
 21
-41.90000000000022
 31
0.0
  0
LINE
  5
CE
  8
0
  6
CONTINUOUS
 62
     7
 10
15.80000000000001
 20
-92.99999999999983
 30
0.0
 11
18.19999999999999
 21
-92.99999999999983
 31
0.0
  0
LINE
  5
CF
  8
0
  6
CONTINUOUS
 62
     7
 10
13.5
 20
-79.34999999999991
 30
0.0
 11
9.5
 21
-75.34999999999991
 31
0.0
  0
LINE
  5
D0
  8
0
  6
CONTINUOUS
 62
     7
 10
15.80000000000001
 20
-92.99999999999983
 30
0.0
 11
15.80000000000001
 21
-92.15000000000023
 31
0.0
  0
LINE
  5
D1
  8
0
  6
CONTINUOUS
 62
     7
 10
15.80000000000001
 20
-51.80000000000041
 30
0.0
 11
15.80000000000001
 21
-58.80000000000021
 31
0.0
  0
LINE
  5
D2
  8
0
  6
CONTINUOUS
 62
     7
 10
47.00000000000014
 20
-75.34999999999991
 30
0.0
 11
52.00000000000028
 21
-70.34999999999991
 31
0.0
  0
LINE
  5
D3
  8
0
  6
CONTINUOUS
 62
     7
 10
13.5
 20
-79.34999999999991
 30
0.0
 11
13.5
 21
-102.3500000000007
 31
0.0
  0
LINE
  5
D4
  8
0
  6
CONTINUOUS
 62
     7
 10
38.49999999999959
 20
-102.3500000000011
 30
0.0
 11
38.49999999999999
 21
-79.34999999999991
 31
0.0
  0
LINE
  5
D5
  8
0
  6
CONTINUOUS
 62
     7
 10
33.15000000000002
 20
-100.5500000000002
 30
0.0
 11
36.19999999999997
 21
-100.5500000000002
 31
0.0
  0
LINE
  5
D6
  8
0
  6
CONTINUOUS
 62
     7
 10
15.80000000000001
 20
-100.5500000000002
 30
0.0
 11
18.85000000000042
 21
-100.5500000000002
 31
0.0
  0
LINE
  5
D7
  8
0
  6
CONTINUOUS
 62
     7
 10
14.49999999999949
 20
-103.3500000000002
 30
0.0
 11
13.5
 21
-102.3500000000007
 31
0.0
  0
LINE
  5
D8
  8
0
  6
CONTINUOUS
 62
     7
 10
33.15000000000002
 20
-92.15000000000023
 30
0.0
 11
33.15000000000002
 21
-100.5500000000002
 31
0.0
  0
LINE
  5
D9
  8
0
  6
CONTINUOUS
 62
     7
 10
36.19999999999997
 20
-92.99999999999983
 30
0.0
 11
36.19999999999997
 21
-92.15000000000023
 31
0.0
  0
LINE
  5
DA
  8
0
  6
CONTINUOUS
 62
     7
 10
18.85000000000042
 20
-100.5500000000002
 30
0.0
 11
18.85000000000042
 21
-92.15000000000023
 31
0.0
  0
LINE
  5
DB
  8
0
  6
CONTINUOUS
 62
     7
 10
15.0
 20
55.65000000000009
 30
0.0
 11
36.99999999999999
 21
55.65000000000009
 31
0.0
  0
LINE
  5
DC
  8
0
  6
CONTINUOUS
 62
     7
 10
52.00000000000028
 20
16.64999999999969
 30
0.0
 11
41.99999999999999
 21
26.65000000000009
 31
0.0
  0
LINE
  5
DD
  8
0
  6
CONTINUOUS
 62
     7
 10
41.99999999999999
 20
50.65000000000009
 30
0.0
 11
41.99999999999999
 21
26.65000000000009
 31
0.0
  0
LINE
  5
DE
  8
0
  6
CONTINUOUS
 62
     7
 10
36.19999999999997
 20
-99.70000000000002
 30
0.0
 11
36.19999999999997
 21
-92.99999999999983
 31
0.0
  0
LINE
  5
DF
  8
0
  6
CONTINUOUS
 62
     7
 10
29.59999999999978
 20
-49.65000000000012
 30
0.0
 11
29.59999999999978
 21
-45.09744788236722
 31
0.0
  0
LINE
  5
E0
  8
0
  6
CONTINUOUS
 62
     7
 10
29.59999999999978
 20
-49.65000000000012
 30
0.0
 11
22.39999999999992
 21
-49.65000000000012
 31
0.0
  0
LINE
  5
E1
  8
0
  6
CONTINUOUS
 62
     7
 10
22.39999999999992
 20
-49.65000000000012
 30
0.0
 11
22.39999999999992
 21
-45.09744788236722
 31
0.0
  0
LINE
  5
E2
  8
0
  6
CONTINUOUS
 62
     7
 10
22.39999999999992
 20
-44.83468729420302
 30
0.0
 11
29.59999999999978
 21
-44.83468729420312
 31
0.0
  0
LINE
  5
E3
  8
0
  6
CONTINUOUS
 62
     7
 10
29.59999999999978
 20
-45.09744788236722
 30
0.0
 11
22.39999999999992
 21
-45.09744788236722
 31
0.0
  0
LINE
  5
E4
  8
0
  6
CONTINUOUS
 62
     7
 10
29.59999999999978
 20
-45.02387491768133
 30
0.0
 11
22.39999999999992
 21
-45.02387491768143
 31
0.0
  0
LINE
  5
E5
  8
0
  6
CONTINUOUS
 62
     7
 10
29.59999999999978
 20
-45.02387491768133
 30
0.0
 11
29.59999999999978
 21
-44.83468729420312
 31
0.0
  0
LINE
  5
E6
  8
0
  6
CONTINUOUS
 62
     7
 10
22.39999999999992
 20
-45.02387491768143
 30
0.0
 11
22.39999999999992
 21
-44.83468729420302
 31
0.0
  0
LINE
  5
E7
  8
0
  6
CONTINUOUS
 62
     7
 10
29.59999999999978
 20
-45.09744788236722
 30
0.0
 11
29.59999999999978
 21
-45.02387491768133
 31
0.0
  0
LINE
  5
E8
  8
0
  6
CONTINUOUS
 62
     7
 10
22.39999999999992
 20
-45.09744788236722
 30
0.0
 11
22.39999999999992
 21
-45.02387491768143
 31
0.0
  0
LINE
  5
E9
  8
0
  6
CONTINUOUS
 62
     7
 10
16.10000000000377
 20
-98.79172949336541
 30
0.0
 11
18.19999999999999
 21
-98.79172949336541
 31
0.0
  0
LINE
  5
EA
  8
0
  6
CONTINUOUS
 62
     7
 10
35.90000000000386
 20
-98.79172949336541
 30
0.0
 11
35.90000000000386
 21
-92.99999999999983
 31
0.0
  0
LINE
  5
EB
  8
0
  6
CONTINUOUS
 62
     7
 10
35.9000000000038
 20
-51.79172949336584
 30
0.0
 11
35.90000000000386
 21
-57.79172949336541
 31
0.0
  0
LINE
  5
EC
  8
0
  6
CONTINUOUS
 62
     7
 10
35.90000000000386
 20
-57.79172949336541
 30
0.0
 11
33.8
 21
-57.79172949336541
 31
0.0
  0
LINE
  5
ED
  8
0
  6
CONTINUOUS
 62
     7
 10
36.00000000000371
 20
-40.34172949336572
 30
0.0
 11
33.8
 21
-40.34172949336562
 31
0.0
  0
LINE
  5
EE
  8
0
  6
CONTINUOUS
 62
     7
 10
16.10000000000377
 20
-57.79172949336541
 30
0.0
 11
16.10000000000377
 21
-51.79172949336584
 31
0.0
  0
LINE
  5
EF
  8
0
  6
CONTINUOUS
 62
     7
 10
18.19999999999999
 20
-57.79172949336541
 30
0.0
 11
16.10000000000377
 21
-57.79172949336541
 31
0.0
  0
LINE
  5
F0
  8
0
  6
CONTINUOUS
 62
     7
 10
18.2000000000001
 20
-40.34172949336582
 30
0.0
 11
16.00000000000381
 21
-40.34172949336572
 31
0.0
  0
LINE
  5
F1
  8
0
  6
CONTINUOUS
 62
     7
 10
16.00000000000392
 20
-35.50000000000033
 30
0.0
 11
16.00000000000381
 21
-40.34172949336572
 31
0.0
  0
LINE
  5
F2
  8
0
  6
CONTINUOUS
 62
     7
 10
36.00000000000371
 20
-35.50000000000033
 30
0.0
 11
36.00000000000371
 21
-40.34172949336572
 31
0.0
  0
LINE
  5
F3
  8
0
  6
CONTINUOUS
 62
     7
 10
16.10000000000377
 20
-92.99999999999983
 30
0.0
 11
16.10000000000377
 21
-98.79172949336541
 31
0.0
  0
LINE
  5
F4
  8
0
  6
CONTINUOUS
 62
     7
 10
33.8
 20
-98.79172949336541
 30
0.0
 11
35.90000000000386
 21
-98.79172949336541
 31
0.0
  0
ARC
  5
F5
  8
0
  6
CONTINUOUS
 62
     7
 10
26.00000000000027
 20
-64.49999999999991
 30
0.0
 40
1.650000000000091
 50
0.0
 51
270.0
  0
ARC
  5
F6
  8
0
  6
CONTINUOUS
 62
     7
 10
26.00000000000027
 20
-64.49999999999991
 30
0.0
 40
1.64999999999992
 50
270.0
 51
0.0
  0
ARC
  5
F7
  8
0
  6
CONTINUOUS
 62
     7
 10
26.00000000000016
 20
-70.49999999999983
 30
0.0
 40
1.650000000000006
 50
270.0
 51
0.0
  0
ARC
  5
F8
  8
0
  6
CONTINUOUS
 62
     7
 10
44.00000000000028
 20
-70.49999999999983
 30
0.0
 40
1.650000000000205
 50
0.0
 51
90.0
  0
ARC
  5
F9
  8
0
  6
CONTINUOUS
 62
     7
 10
44.00000000000028
 20
-70.49999999999983
 30
0.0
 40
1.650000000000119
 50
90.0
 51
0.0
  0
ARC
  5
FA
  8
0
  6
CONTINUOUS
 62
     7
 10
25.99999999999999
 20
2.50000000004488
 30
0.0
 40
1.650000000000119
 50
90.0
 51
270.0
  0
ARC
  5
FB
  8
0
  6
CONTINUOUS
 62
     7
 10
25.99999999999999
 20
2.50000000004488
 30
0.0
 40
1.649999999999892
 50
270.0
 51
90.0
  0
ARC
  5
FC
  8
0
  6
CONTINUOUS
 62
     7
 10
26.00000000000016
 20
-70.49999999999983
 30
0.0
 40
1.64999999999992
 50
0.0
 51
270.0
  0
ARC
  5
FD
  8
0
  6
CONTINUOUS
 62
     7
 10
8.00000000000006
 20
-70.49999999999991
 30
0.0
 40
1.650000000000034
 50
0.0
 51
90.0
  0
ARC
  5
FE
  8
0
  6
CONTINUOUS
 62
     7
 10
8.00000000000006
 20
-70.49999999999991
 30
0.0
 40
1.649999999999693
 50
90.0
 51
0.0
  0
CIRCLE
  5
FF
  8
0
  6
CONTINUOUS
 62
     7
 10
25.99999999999999
 20
50.2000000000001
 30
0.0
 40
1.650000000000006
  0
CIRCLE
  5
100
  8
0
  6
CONTINUOUS
 62
     7
 10
25.99999999999999
 20
36.50000000000009
 30
0.0
 40
1.650000000000038
  0
CIRCLE
  5
101
  8
0
  6
CONTINUOUS
 62
     7
 10
25.99999999999982
 20
20.2000000000001
 30
0.0
 40
1.649999999999999
  0
CIRCLE
  5
102
  8
0
  6
CONTINUOUS
 62
     7
 10
25.99999999999999
 20
42.2000000000001
 30
0.0
 40
1.650000000000205
  0
CIRCLE
  5
103
  8
0
  6
CONTINUOUS
 62
     7
 10
43.99999999999997
 20
-43.49999999999993
 30
0.0
 40
1.650000000000006
  0
CIRCLE
  5
104
  8
0
  6
CONTINUOUS
 62
     7
 10
42.50000000000016
 20
-17.75
 30
0.0
 40
1.649999999999821
  0
CIRCLE
  5
105
  8
0
  6
CONTINUOUS
 62
     7
 10
25.9999999999997
 20
-9.79999999995502
 30
0.0
 40
1.64999999999978
  0
CIRCLE
  5
106
  8
0
  6
CONTINUOUS
 62
     7
 10
25.99999999999999
 20
42.2000000000001
 30
0.0
 40
2.150000000000205
  0
CIRCLE
  5
107
  8
0
  6
CONTINUOUS
 62
     7
 10
25.99999999999999
 20
36.50000000000009
 30
0.0
 40
2.149999999999899
  0
CIRCLE
  5
108
  8
0
  6
CONTINUOUS
 62
     7
 10
25.99999999999982
 20
20.2000000000001
 30
0.0
 40
2.149999999999999
  0
CIRCLE
  5
109
  8
0
  6
CONTINUOUS
 62
     7
 10
25.99999999999999
 20
2.50000000004488
 30
0.0
 40
2.149999999999778
  0
CIRCLE
  5
10A
  8
0
  6
CONTINUOUS
 62
     7
 10
42.50000000000016
 20
-17.75
 30
0.0
 40
2.149999999999821
  0
CIRCLE
  5
10B
  8
0
  6
CONTINUOUS
 62
     7
 10
25.9999999999997
 20
-9.79999999995502
 30
0.0
 40
2.14999999999978
  0
CIRCLE
  5
10C
  8
0
  6
CONTINUOUS
 62
     7
 10
9.49999999999989
 20
-17.75
 30
0.0
 40
2.149999999999821
  0
CIRCLE
  5
10D
  8
0
  6
CONTINUOUS
 62
     7
 10
9.49999999999989
 20
-17.75
 30
0.0
 40
1.649999999999821
  0
CIRCLE
  5
10E
  8
0
  6
CONTINUOUS
 62
     7
 10
8.00000000000006
 20
-70.49999999999991
 30
0.0
 40
2.150000000000318
  0
CIRCLE
  5
10F
  8
0
  6
CONTINUOUS
 62
     7
 10
26.00000000000027
 20
-64.49999999999991
 30
0.0
 40
2.14999999999992
  0
CIRCLE
  5
110
  8
0
  6
CONTINUOUS
 62
     7
 10
26.00000000000016
 20
-70.49999999999983
 30
0.0
 40
2.150000000000006
  0
CIRCLE
  5
111
  8
0
  6
CONTINUOUS
 62
     7
 10
7.99999999999989
 20
-43.49999999999993
 30
0.0
 40
2.149999999999892
  0
CIRCLE
  5
112
  8
0
  6
CONTINUOUS
 62
     7
 10
7.99999999999989
 20
-43.49999999999993
 30
0.0
 40
1.650000000000006
  0
CIRCLE
  5
113
  8
0
  6
CONTINUOUS
 62
     7
 10
43.99999999999997
 20
-43.49999999999993
 30
0.0
 40
2.149999999999892
  0
CIRCLE
  5
114
  8
0
  6
CONTINUOUS
 62
     7
 10
44.00000000000028
 20
-70.49999999999983
 30
0.0
 40
2.150000000000404
  0
CIRCLE
  5
115
  8
0
  6
CONTINUOUS
 62
     7
 10
25.99999999999999
 20
50.2000000000001
 30
0.0
 40
2.150000000000006
  0
CIRCLE
  5
116
  8
0
  6
CONTINUOUS
 62
     7
 10
43.99999999999997
 20
16.99999999999969
 30
0.0
 40
1.649999999999999
  0
CIRCLE
  5
117
  8
0
  6
CONTINUOUS
 62
     7
 10
43.99999999999997
 20
16.99999999999969
 30
0.0
 40
2.14999999999989
  0
CIRCLE
  5
118
  8
0
  6
CONTINUOUS
 62
     7
 10
7.99999999999989
 20
16.99999999999969
 30
0.0
 40
2.14999999999989
  0
CIRCLE
  5
119
  8
0
  6
CONTINUOUS
 62
     7
 10
7.99999999999989
 20
16.99999999999969
 30
0.0
 40
1.649999999999999
  0
POLYLINE
  5
11A
  8
0
  6
CONTINUOUS
 62
     7
 66
     1
 10
0.0
 20
0.0
 30
0.0
  0
VERTEX
  5
120
  8
0
  6
CONTINUOUS
 62
     7
 10
11.94758524319587
 20
-2.99999999999992
 30
0.0
  0
VERTEX
  5
121
  8
0
  6
CONTINUOUS
 62
     7
 10
11.94868096657214
 20
-2.99830249992293
 30
0.0
  0
VERTEX
  5
122
  8
0
  6
CONTINUOUS
 62
     7
 10
11.9490668637969
 20
-2.9962249548813
 30
0.0
  0
VERTEX
  5
123
  8
0
  6
CONTINUOUS
 62
     7
 10
11.94943830926523
 20
-2.99419740230131
 30
0.0
  0
VERTEX
  5
124
  8
0
  6
CONTINUOUS
 62
     7
 10
11.94977576878848
 20
-2.99217996748447
 30
0.0
  0
VERTEX
  5
125
  8
0
  6
CONTINUOUS
 62
     7
 10
11.95004755645393
 20
-2.99013575011235
 30
0.0
  0
VERTEX
  5
126
  8
0
  6
CONTINUOUS
 62
     7
 10
11.95027686289331
 20
-2.98807691629168
 30
0.0
  0
VERTEX
  5
127
  8
0
  6
CONTINUOUS
 62
     7
 10
11.9504888235495
 20
-2.98601774087867
 30
0.0
  0
VERTEX
  5
128
  8
0
  6
CONTINUOUS
 62
     7
 10
11.95069261813266
 20
-2.9839624606599
 30
0.0
  0
VERTEX
  5
129
  8
0
  6
CONTINUOUS
 62
     7
 10
11.9508872583957
 20
-2.98190891555729
 30
0.0
  0
VERTEX
  5
12A
  8
0
  6
CONTINUOUS
 62
     7
 10
11.95107159316005
 20
-2.97985484340742
 30
0.0
  0
VERTEX
  5
12B
  8
0
  6
CONTINUOUS
 62
     7
 10
11.9512451106994
 20
-2.97779866291132
 30
0.0
  0
VERTEX
  5
12C
  8
0
  6
CONTINUOUS
 62
     7
 10
11.95140904557953
 20
-2.97574065215549
 30
0.0
  0
VERTEX
  5
12D
  8
0
  6
CONTINUOUS
 62
     7
 10
11.95156492773578
 20
-2.97368140372471
 30
0.0
  0
VERTEX
  5
12E
  8
0
  6
CONTINUOUS
 62
     7
 10
11.95171428710353
 20
-2.97162151020379
 30
0.0
  0
VERTEX
  5
12F
  8
0
  6
CONTINUOUS
 62
     7
 10
11.9518585427851
 20
-2.96956150743542
 30
0.0
  0
VERTEX
  5
130
  8
0
  6
CONTINUOUS
 62
     7
 10
11.95199829409722
 20
-2.96750151156476
 30
0.0
  0
VERTEX
  5
131
  8
0
  6
CONTINUOUS
 62
     7
 10
11.95213377266781
 20
-2.96544145049495
 30
0.0
  0
VERTEX
  5
132
  8
0
  6
CONTINUOUS
 62
     7
 10
11.95226520838487
 20
-2.96338125123834
 30
0.0
  0
VERTEX
  5
133
  8
0
  6
CONTINUOUS
 62
     7
 10
11.95239283113639
 20
-2.96132084080731
 30
0.0
  0
VERTEX
  5
134
  8
0
  6
CONTINUOUS
 62
     7
 10
11.95251686995118
 20
-2.95926015216123
 30
0.0
  0
VERTEX
  5
135
  8
0
  6
CONTINUOUS
 62
     7
 10
11.95263754459685
 20
-2.9571991823617
 30
0.0
  0
VERTEX
  5
136
  8
0
  6
CONTINUOUS
 62
     7
 10
11.9527550691941
 20
-2.95513796755618
 30
0.0
  0
VERTEX
  5
137
  8
0
  6
CONTINUOUS
 62
     7
 10
11.95286965778319
 20
-2.95307654444876
 30
0.0
  0
VERTEX
  5
138
  8
0
  6
CONTINUOUS
 62
     7
 10
11.95298152440441
 20
-2.95101494974355
 30
0.0
  0
VERTEX
  5
139
  8
0
  6
CONTINUOUS
 62
     7
 10
11.95309088309801
 20
-2.94895322014462
 30
0.0
  0
VERTEX
  5
13A
  8
0
  6
CONTINUOUS
 62
     7
 10
11.95319793756935
 20
-2.94689138937778
 30
0.0
  0
VERTEX
  5
13B
  8
0
  6
CONTINUOUS
 62
     7
 10
11.95330281455352
 20
-2.94482946898752
 30
0.0
  0
VERTEX
  5
13C
  8
0
  6
CONTINUOUS
 62
     7
 10
11.95340560605555
 20
-2.94276746050987
 30
0.0
  0
VERTEX
  5
13D
  8
0
  6
CONTINUOUS
 62
     7
 10
11.95350640391166
 20
-2.9407053654322
 30
0.0
  0
VERTEX
  5
13E
  8
0
  6
CONTINUOUS
 62
     7
 10
11.95360529995804
 20
-2.93864318524188
 30
0.0
  0
VERTEX
  5
13F
  8
0
  6
CONTINUOUS
 62
     7
 10
11.95370238603088
 20
-2.93658092142625
 30
0.0
  0
VERTEX
  5
140
  8
0
  6
CONTINUOUS
 62
     7
 10
11.95379775395151
 20
-2.93451857547408
 30
0.0
  0
VERTEX
  5
141
  8
0
  6
CONTINUOUS
 62
     7
 10
11.95389148741812
 20
-2.93245614962556
 30
0.0
  0
VERTEX
  5
142
  8
0
  6
CONTINUOUS
 62
     7
 10
11.95398364857582
 20
-2.93039364811475
 30
0.0
  0
VERTEX
  5
143
  8
0
  6
CONTINUOUS
 62
     7
 10
11.95407429603522
 20
-2.92833107550272
 30
0.0
  0
VERTEX
  5
144
  8
0
  6
CONTINUOUS
 62
     7
 10
11.95416348840692
 20
-2.92626843635049
 30
0.0
  0
VERTEX
  5
145
  8
0
  6
CONTINUOUS
 62
     7
 10
11.95425128430155
 20
-2.92420573521912
 30
0.0
  0
VERTEX
  5
146
  8
0
  6
CONTINUOUS
 62
     7
 10
11.9543377423297
 20
-2.92214297666963
 30
0.0
  0
VERTEX
  5
147
  8
0
  6
CONTINUOUS
 62
     7
 10
11.95442292110199
 20
-2.92008016526309
 30
0.0
  0
VERTEX
  5
148
  8
0
  6
CONTINUOUS
 62
     7
 10
11.95450687765434
 20
-2.91801730536732
 30
0.0
  0
VERTEX
  5
149
  8
0
  6
CONTINUOUS
 62
     7
 10
11.95458965446808
 20
-2.91595439956442
 30
0.0
  0
VERTEX
  5
14A
  8
0
  6
CONTINUOUS
 62
     7
 10
11.95467128615476
 20
-2.91389144947092
 30
0.0
  0
VERTEX
  5
14B
  8
0
  6
CONTINUOUS
 62
     7
 10
11.95475180724878
 20
-2.91182845669387
 30
0.0
  0
VERTEX
  5
14C
  8
0
  6
CONTINUOUS
 62
     7
 10
11.95483125228455
 20
-2.90976542284034
 30
0.0
  0
VERTEX
  5
14D
  8
0
  6
CONTINUOUS
 62
     7
 10
11.95490965579645
 20
-2.90770234951738
 30
0.0
  0
VERTEX
  5
14E
  8
0
  6
CONTINUOUS
 62
     7
 10
11.95498705231891
 20
-2.90563923833206
 30
0.0
  0
VERTEX
  5
14F
  8
0
  6
CONTINUOUS
 62
     7
 10
11.95506347638633
 20
-2.90357609089143
 30
0.0
  0
VERTEX
  5
150
  8
0
  6
CONTINUOUS
 62
     7
 10
11.95513896212443
 20
-2.90151290878748
 30
0.0
  0
VERTEX
  5
151
  8
0
  6
CONTINUOUS
 62
     7
 10
11.95521353723234
 20
-2.89944969337504
 30
0.0
  0
VERTEX
  5
152
  8
0
  6
CONTINUOUS
 62
     7
 10
11.95528722429751
 20
-2.89738644582036
 30
0.0
  0
VERTEX
  5
153
  8
0
  6
CONTINUOUS
 62
     7
 10
11.95536004576605
 20
-2.89532316728444
 30
0.0
  0
VERTEX
  5
154
  8
0
  6
CONTINUOUS
 62
     7
 10
11.95543202408405
 20
-2.89325985892829
 30
0.0
  0
VERTEX
  5
155
  8
0
  6
CONTINUOUS
 62
     7
 10
11.95550318169763
 20
-2.89119652191292
 30
0.0
  0
VERTEX
  5
156
  8
0
  6
CONTINUOUS
 62
     7
 10
11.9555735410529
 20
-2.88913315739936
 30
0.0
  0
VERTEX
  5
157
  8
0
  6
CONTINUOUS
 62
     7
 10
11.95564312459595
 20
-2.8870697665486
 30
0.0
  0
VERTEX
  5
158
  8
0
  6
CONTINUOUS
 62
     7
 10
11.95571195477289
 20
-2.88500635052168
 30
0.0
  0
VERTEX
  5
159
  8
0
  6
CONTINUOUS
 62
     7
 10
11.95578005356746
 20
-2.88294291044853
 30
0.0
  0
VERTEX
  5
15A
  8
0
  6
CONTINUOUS
 62
     7
 10
11.9558474384467
 20
-2.88087944715578
 30
0.0
  0
VERTEX
  5
15B
  8
0
  6
CONTINUOUS
 62
     7
 10
11.95591412432537
 20
-2.87881596129861
 30
0.0
  0
VERTEX
  5
15C
  8
0
  6
CONTINUOUS
 62
     7
 10
11.95598012608938
 20
-2.87675245353028
 30
0.0
  0
VERTEX
  5
15D
  8
0
  6
CONTINUOUS
 62
     7
 10
11.9560454586246
 20
-2.87468892450403
 30
0.0
  0
VERTEX
  5
15E
  8
0
  6
CONTINUOUS
 62
     7
 10
11.95611013681692
 20
-2.87262537487311
 30
0.0
  0
VERTEX
  5
15F
  8
0
  6
CONTINUOUS
 62
     7
 10
11.95617417555224
 20
-2.87056180529079
 30
0.0
  0
VERTEX
  5
160
  8
0
  6
CONTINUOUS
 62
     7
 10
11.95623758971645
 20
-2.8684982164103
 30
0.0
  0
VERTEX
  5
161
  8
0
  6
CONTINUOUS
 62
     7
 10
11.95630039419542
 20
-2.86643460888491
 30
0.0
  0
VERTEX
  5
162
  8
0
  6
CONTINUOUS
 62
     7
 10
11.95636260387344
 20
-2.86437098336778
 30
0.0
  0
VERTEX
  5
163
  8
0
  6
CONTINUOUS
 62
     7
 10
11.95642423252726
 20
-2.862307340461
 30
0.0
  0
VERTEX
  5
164
  8
0
  6
CONTINUOUS
 62
     7
 10
11.95648529089929
 20
-2.8602436806266
 30
0.0
  0
VERTEX
  5
165
  8
0
  6
CONTINUOUS
 62
     7
 10
11.95654578921691
 20
-2.85818000430289
 30
0.0
  0
VERTEX
  5
166
  8
0
  6
CONTINUOUS
 62
     7
 10
11.95660573770749
 20
-2.85611631192813
 30
0.0
  0
VERTEX
  5
167
  8
0
  6
CONTINUOUS
 62
     7
 10
11.9566651465984
 20
-2.85405260394063
 30
0.0
  0
VERTEX
  5
168
  8
0
  6
CONTINUOUS
 62
     7
 10
11.95672402611702
 20
-2.85198888077866
 30
0.0
  0
VERTEX
  5
169
  8
0
  6
CONTINUOUS
 62
     7
 10
11.95678238649072
 20
-2.84992514288051
 30
0.0
  0
VERTEX
  5
16A
  8
0
  6
CONTINUOUS
 62
     7
 10
11.95684023794687
 20
-2.84786139068448
 30
0.0
  0
VERTEX
  5
16B
  8
0
  6
CONTINUOUS
 62
     7
 10
11.95689759071286
 20
-2.84579762462883
 30
0.0
  0
VERTEX
  5
16C
  8
0
  6
CONTINUOUS
 62
     7
 10
11.95695445501605
 20
-2.84373384515187
 30
0.0
  0
VERTEX
  5
16D
  8
0
  6
CONTINUOUS
 62
     7
 10
11.9570108408224
 20
-2.84167005267587
 30
0.0
  0
VERTEX
  5
16E
  8
0
  6
CONTINUOUS
 62
     7
 10
11.95706675636415
 20
-2.83960624751696
 30
0.0
  0
VERTEX
  5
16F
  8
0
  6
CONTINUOUS
 62
     7
 10
11.95712220916776
 20
-2.83754242994805
 30
0.0
  0
VERTEX
  5
170
  8
0
  6
CONTINUOUS
 62
     7
 10
11.95717720675767
 20
-2.83547860024194
 30
0.0
  0
VERTEX
  5
171
  8
0
  6
CONTINUOUS
 62
     7
 10
11.95723175665831
 20
-2.83341475867142
 30
0.0
  0
VERTEX
  5
172
  8
0
  6
CONTINUOUS
 62
     7
 10
11.95728586639398
 20
-2.83135090550927
 30
0.0
  0
VERTEX
  5
173
  8
0
  6
CONTINUOUS
 62
     7
 10
11.95733954329511
 20
-2.82928704102508
 30
0.0
  0
VERTEX
  5
174
  8
0
  6
CONTINUOUS
 62
     7
 10
11.95739279409946
 20
-2.82722316547867
 30
0.0
  0
VERTEX
  5
175
  8
0
  6
CONTINUOUS
 62
     7
 10
11.95744562543194
 20
-2.82515927912798
 30
0.0
  0
VERTEX
  5
176
  8
0
  6
CONTINUOUS
 62
     7
 10
11.95749804391746
 20
-2.82309538223094
 30
0.0
  0
VERTEX
  5
177
  8
0
  6
CONTINUOUS
 62
     7
 10
11.95755005618092
 20
-2.8210314750455
 30
0.0
  0
VERTEX
  5
178
  8
0
  6
CONTINUOUS
 62
     7
 10
11.95760166884724
 20
-2.81896755782962
 30
0.0
  0
VERTEX
  5
179
  8
0
  6
CONTINUOUS
 62
     7
 10
11.95765288846411
 20
-2.8169036308372
 30
0.0
  0
VERTEX
  5
17A
  8
0
  6
CONTINUOUS
 62
     7
 10
11.9577037208817
 20
-2.81483969428582
 30
0.0
  0
VERTEX
  5
17B
  8
0
  6
CONTINUOUS
 62
     7
 10
11.9577541715799
 20
-2.81277574837377
 30
0.0
  0
VERTEX
  5
17C
  8
0
  6
CONTINUOUS
 62
     7
 10
11.95780424603519
 20
-2.81071179329913
 30
0.0
  0
VERTEX
  5
17D
  8
0
  6
CONTINUOUS
 62
     7
 10
11.95785394972404
 20
-2.80864782926002
 30
0.0
  0
VERTEX
  5
17E
  8
0
  6
CONTINUOUS
 62
     7
 10
11.95790328812293
 20
-2.80658385645454
 30
0.0
  0
VERTEX
  5
17F
  8
0
  6
CONTINUOUS
 62
     7
 10
11.95795226670833
 20
-2.80451987508078
 30
0.0
  0
VERTEX
  5
180
  8
0
  6
CONTINUOUS
 62
     7
 10
11.95800089088806
 20
-2.80245588533401
 30
0.0
  0
VERTEX
  5
181
  8
0
  6
CONTINUOUS
 62
     7
 10
11.95804916548897
 20
-2.80039188738542
 30
0.0
  0
VERTEX
  5
182
  8
0
  6
CONTINUOUS
 62
     7
 10
11.95809709504576
 20
-2.79832788139411
 30
0.0
  0
VERTEX
  5
183
  8
0
  6
CONTINUOUS
 62
     7
 10
11.95814468409089
 20
-2.7962638675191
 30
0.0
  0
VERTEX
  5
184
  8
0
  6
CONTINUOUS
 62
     7
 10
11.95819193715684
 20
-2.79419984591938
 30
0.0
  0
VERTEX
  5
185
  8
0
  6
CONTINUOUS
 62
     7
 10
11.95823885877609
 20
-2.79213581675398
 30
0.0
  0
VERTEX
  5
186
  8
0
  6
CONTINUOUS
 62
     7
 10
11.9582854534811
 20
-2.79007178018189
 30
0.0
  0
VERTEX
  5
187
  8
0
  6
CONTINUOUS
 62
     7
 10
11.95833172580406
 20
-2.78800773636212
 30
0.0
  0
VERTEX
  5
188
  8
0
  6
CONTINUOUS
 62
     7
 10
11.95837768008546
 20
-2.78594368544564
 30
0.0
  0
VERTEX
  5
189
  8
0
  6
CONTINUOUS
 62
     7
 10
11.95842332014109
 20
-2.78387962756149
 30
0.0
  0
VERTEX
  5
18A
  8
0
  6
CONTINUOUS
 62
     7
 10
11.95846864969778
 20
-2.78181556283497
 30
0.0
  0
VERTEX
  5
18B
  8
0
  6
CONTINUOUS
 62
     7
 10
11.95851367248237
 20
-2.7797514913914
 30
0.0
  0
VERTEX
  5
18C
  8
0
  6
CONTINUOUS
 62
     7
 10
11.95855839222169
 20
-2.77768741335609
 30
0.0
  0
VERTEX
  5
18D
  8
0
  6
CONTINUOUS
 62
     7
 10
11.95860281264258
 20
-2.77562332885435
 30
0.0
  0
VERTEX
  5
18E
  8
0
  6
CONTINUOUS
 62
     7
 10
11.95864693747188
 20
-2.7735592380115
 30
0.0
  0
VERTEX
  5
18F
  8
0
  6
CONTINUOUS
 62
     7
 10
11.95869077043642
 20
-2.77149514095284
 30
0.0
  0
VERTEX
  5
190
  8
0
  6
CONTINUOUS
 62
     7
 10
11.95873431520086
 20
-2.76943103780122
 30
0.0
  0
VERTEX
  5
191
  8
0
  6
CONTINUOUS
 62
     7
 10
11.95877757500812
 20
-2.76736692866283
 30
0.0
  0
VERTEX
  5
192
  8
0
  6
CONTINUOUS
 62
     7
 10
11.95882055292582
 20
-2.7653028136369
 30
0.0
  0
VERTEX
  5
193
  8
0
  6
CONTINUOUS
 62
     7
 10
11.958863252021
 20
-2.76323869282267
 30
0.0
  0
VERTEX
  5
194
  8
0
  6
CONTINUOUS
 62
     7
 10
11.9589056753607
 20
-2.76117456631933
 30
0.0
  0
VERTEX
  5
195
  8
0
  6
CONTINUOUS
 62
     7
 10
11.958947826012
 20
-2.75911043422613
 30
0.0
  0
VERTEX
  5
196
  8
0
  6
CONTINUOUS
 62
     7
 10
11.95898970704192
 20
-2.75704629664227
 30
0.0
  0
VERTEX
  5
197
  8
0
  6
CONTINUOUS
 62
     7
 10
11.95903132151753
 20
-2.75498215366698
 30
0.0
  0
VERTEX
  5
198
  8
0
  6
CONTINUOUS
 62
     7
 10
11.95907267250587
 20
-2.75291800539949
 30
0.0
  0
VERTEX
  5
199
  8
0
  6
CONTINUOUS
 62
     7
 10
11.95911376302212
 20
-2.75085385193701
 30
0.0
  0
VERTEX
  5
19A
  8
0
  6
CONTINUOUS
 62
     7
 10
11.95915459573648
 20
-2.74878969336353
 30
0.0
  0
VERTEX
  5
19B
  8
0
  6
CONTINUOUS
 62
     7
 10
11.95919517317831
 20
-2.74672552975762
 30
0.0
  0
VERTEX
  5
19C
  8
0
  6
CONTINUOUS
 62
     7
 10
11.95923549787655
 20
-2.74466136119783
 30
0.0
  0
VERTEX
  5
19D
  8
0
  6
CONTINUOUS
 62
     7
 10
11.95927557236018
 20
-2.74259718776273
 30
0.0
  0
VERTEX
  5
19E
  8
0
  6
CONTINUOUS
 62
     7
 10
11.95931539915813
 20
-2.74053300953087
 30
0.0
  0
VERTEX
  5
19F
  8
0
  6
CONTINUOUS
 62
     7
 10
11.95935498079936
 20
-2.73846882658081
 30
0.0
  0
VERTEX
  5
1A0
  8
0
  6
CONTINUOUS
 62
     7
 10
11.95939431981282
 20
-2.7364046389911
 30
0.0
  0
VERTEX
  5
1A1
  8
0
  6
CONTINUOUS
 62
     7
 10
11.95943341872747
 20
-2.7343404468403
 30
0.0
  0
VERTEX
  5
1A2
  8
0
  6
CONTINUOUS
 62
     7
 10
11.95947228007212
 20
-2.73227625020696
 30
0.0
  0
VERTEX
  5
1A3
  8
0
  6
CONTINUOUS
 62
     7
 10
11.95951090627167
 20
-2.73021204916583
 30
0.0
  0
VERTEX
  5
1A4
  8
0
  6
CONTINUOUS
 62
     7
 10
11.95954929946496
 20
-2.72814784378117
 30
0.0
  0
VERTEX
  5
1A5
  8
0
  6
CONTINUOUS
 62
     7
 10
11.95958746174197
 20
-2.72608363411547
 30
0.0
  0
VERTEX
  5
1A6
  8
0
  6
CONTINUOUS
 62
     7
 10
11.95962539519269
 20
-2.7240194202312
 30
0.0
  0
VERTEX
  5
1A7
  8
0
  6
CONTINUOUS
 62
     7
 10
11.9596631019071
 20
-2.72195520219085
 30
0.0
  0
VERTEX
  5
1A8
  8
0
  6
CONTINUOUS
 62
     7
 10
11.95970058397518
 20
-2.7198909800569
 30
0.0
  0
VERTEX
  5
1A9
  8
0
  6
CONTINUOUS
 62
     7
 10
11.95973784348694
 20
-2.71782675389183
 30
0.0
  0
VERTEX
  5
1AA
  8
0
  6
CONTINUOUS
 62
     7
 10
11.95977488253235
 20
-2.71576252375811
 30
0.0
  0
VERTEX
  5
1AB
  8
0
  6
CONTINUOUS
 62
     7
 10
11.9598117032014
 20
-2.71369828971823
 30
0.0
  0
VERTEX
  5
1AC
  8
0
  6
CONTINUOUS
 62
     7
 10
11.95984830758408
 20
-2.71163405183467
 30
0.0
  0
VERTEX
  5
1AD
  8
0
  6
CONTINUOUS
 62
     7
 10
11.95988469775165
 20
-2.70956981016921
 30
0.0
  0
VERTEX
  5
1AE
  8
0
  6
CONTINUOUS
 62
     7
 10
11.95992087557119
 20
-2.70750556477609
 30
0.0
  0
VERTEX
  5
1AF
  8
0
  6
CONTINUOUS
 62
     7
 10
11.95995684278416
 20
-2.70544131570488
 30
0.0
  0
VERTEX
  5
1B0
  8
0
  6
CONTINUOUS
 62
     7
 10
11.95999260113022
 20
-2.70337706300511
 30
0.0
  0
VERTEX
  5
1B1
  8
0
  6
CONTINUOUS
 62
     7
 10
11.96002815234901
 20
-2.70131280672627
 30
0.0
  0
VERTEX
  5
1B2
  8
0
  6
CONTINUOUS
 62
     7
 10
11.96006349818016
 20
-2.69924854691789
 30
0.0
  0
VERTEX
  5
1B3
  8
0
  6
CONTINUOUS
 62
     7
 10
11.96009864036333
 20
-2.69718428362947
 30
0.0
  0
VERTEX
  5
1B4
  8
0
  6
CONTINUOUS
 62
     7
 10
11.96013358063815
 20
-2.69512001691053
 30
0.0
  0
VERTEX
  5
1B5
  8
0
  6
CONTINUOUS
 62
     7
 10
11.96016832074427
 20
-2.69305574681058
 30
0.0
  0
VERTEX
  5
1B6
  8
0
  6
CONTINUOUS
 62
     7
 10
11.96020286242133
 20
-2.69099147337914
 30
0.0
  0
VERTEX
  5
1B7
  8
0
  6
CONTINUOUS
 62
     7
 10
11.96023720740898
 20
-2.68892719666571
 30
0.0
  0
VERTEX
  5
1B8
  8
0
  6
CONTINUOUS
 62
     7
 10
11.96027135744043
 20
-2.68686291671961
 30
0.0
  0
VERTEX
  5
1B9
  8
0
  6
CONTINUOUS
 62
     7
 10
11.96030531409182
 20
-2.68479863358539
 30
0.0
  0
VERTEX
  5
1BA
  8
0
  6
CONTINUOUS
 62
     7
 10
11.96033907877693
 20
-2.68273434730265
 30
0.0
  0
VERTEX
  5
1BB
  8
0
  6
CONTINUOUS
 62
     7
 10
11.96037265290199
 20
-2.68067005791076
 30
0.0
  0
VERTEX
  5
1BC
  8
0
  6
CONTINUOUS
 62
     7
 10
11.96040603787327
 20
-2.67860576544911
 30
0.0
  0
VERTEX
  5
1BD
  8
0
  6
CONTINUOUS
 62
     7
 10
11.96043923509704
 20
-2.67654146995705
 30
0.0
  0
VERTEX
  5
1BE
  8
0
  6
CONTINUOUS
 62
     7
 10
11.96047224597954
 20
-2.67447717147398
 30
0.0
  0
VERTEX
  5
1BF
  8
0
  6
CONTINUOUS
 62
     7
 10
11.96050507192705
 20
-2.67241287003926
 30
0.0
  0
VERTEX
  5
1C0
  8
0
  6
CONTINUOUS
 62
     7
 10
11.96053771434581
 20
-2.67034856569227
 30
0.0
  0
VERTEX
  5
1C1
  8
0
  6
CONTINUOUS
 62
     7
 10
11.9605701746421
 20
-2.66828425847239
 30
0.0
  0
VERTEX
  5
1C2
  8
0
  6
CONTINUOUS
 62
     7
 10
11.96060245422216
 20
-2.66621994841899
 30
0.0
  0
VERTEX
  5
1C3
  8
0
  6
CONTINUOUS
 62
     7
 10
11.96063455449226
 20
-2.66415563557145
 30
0.0
  0
VERTEX
  5
1C4
  8
0
  6
CONTINUOUS
 62
     7
 10
11.96066647685866
 20
-2.66209131996914
 30
0.0
  0
VERTEX
  5
1C5
  8
0
  6
CONTINUOUS
 62
     7
 10
11.96069822272081
 20
-2.6600270016512
 30
0.0
  0
VERTEX
  5
1C6
  8
0
  6
CONTINUOUS
 62
     7
 10
11.960729793353
 20
-2.65796268065236
 30
0.0
  0
VERTEX
  5
1C7
  8
0
  6
CONTINUOUS
 62
     7
 10
11.9607611899195
 20
-2.65589835700349
 30
0.0
  0
VERTEX
  5
1C8
  8
0
  6
CONTINUOUS
 62
     7
 10
11.96079241358087
 20
-2.65383403073532
 30
0.0
  0
VERTEX
  5
1C9
  8
0
  6
CONTINUOUS
 62
     7
 10
11.96082346549764
 20
-2.65176970187859
 30
0.0
  0
VERTEX
  5
1CA
  8
0
  6
CONTINUOUS
 62
     7
 10
11.96085434683037
 20
-2.64970537046402
 30
0.0
  0
VERTEX
  5
1CB
  8
0
  6
CONTINUOUS
 62
     7
 10
11.96088505873961
 20
-2.64764103652235
 30
0.0
  0
VERTEX
  5
1CC
  8
0
  6
CONTINUOUS
 62
     7
 10
11.9609156023859
 20
-2.64557670008431
 30
0.0
  0
VERTEX
  5
1CD
  8
0
  6
CONTINUOUS
 62
     7
 10
11.96094597892979
 20
-2.64351236118064
 30
0.0
  0
VERTEX
  5
1CE
  8
0
  6
CONTINUOUS
 62
     7
 10
11.96097618953183
 20
-2.64144801984206
 30
0.0
  0
VERTEX
  5
1CF
  8
0
  6
CONTINUOUS
 62
     7
 10
11.96100623535255
 20
-2.63938367609933
 30
0.0
  0
VERTEX
  5
1D0
  8
0
  6
CONTINUOUS
 62
     7
 10
11.96103611755253
 20
-2.63731932998315
 30
0.0
  0
VERTEX
  5
1D1
  8
0
  6
CONTINUOUS
 62
     7
 10
11.96106583729228
 20
-2.63525498152428
 30
0.0
  0
VERTEX
  5
1D2
  8
0
  6
CONTINUOUS
 62
     7
 10
11.96109539571898
 20
-2.63319063075303
 30
0.0
  0
VERTEX
  5
1D3
  8
0
  6
CONTINUOUS
 62
     7
 10
11.96112479386401
 20
-2.63112627769627
 30
0.0
  0
VERTEX
  5
1D4
  8
0
  6
CONTINUOUS
 62
     7
 10
11.96115403269952
 20
-2.62906192237906
 30
0.0
  0
VERTEX
  5
1D5
  8
0
  6
CONTINUOUS
 62
     7
 10
11.96118311319719
 20
-2.62699756482647
 30
0.0
  0
VERTEX
  5
1D6
  8
0
  6
CONTINUOUS
 62
     7
 10
11.96121203632867
 20
-2.62493320506354
 30
0.0
  0
VERTEX
  5
1D7
  8
0
  6
CONTINUOUS
 62
     7
 10
11.96124080306566
 20
-2.62286884311533
 30
0.0
  0
VERTEX
  5
1D8
  8
0
  6
CONTINUOUS
 62
     7
 10
11.9612694143798
 20
-2.62080447900691
 30
0.0
  0
VERTEX
  5
1D9
  8
0
  6
CONTINUOUS
 62
     7
 10
11.96129787124278
 20
-2.61874011276334
 30
0.0
  0
VERTEX
  5
1DA
  8
0
  6
CONTINUOUS
 62
     7
 10
11.96132617462627
 20
-2.61667574440965
 30
0.0
  0
VERTEX
  5
1DB
  8
0
  6
CONTINUOUS
 62
     7
 10
11.96135432550193
 20
-2.61461137397093
 30
0.0
  0
VERTEX
  5
1DC
  8
0
  6
CONTINUOUS
 62
     7
 10
11.96138232484144
 20
-2.61254700147221
 30
0.0
  0
VERTEX
  5
1DD
  8
0
  6
CONTINUOUS
 62
     7
 10
11.96141017361647
 20
-2.61048262693857
 30
0.0
  0
VERTEX
  5
1DE
  8
0
  6
CONTINUOUS
 62
     7
 10
11.96143787279856
 20
-2.60841825039505
 30
0.0
  0
VERTEX
  5
1DF
  8
0
  6
CONTINUOUS
 62
     7
 10
11.9614654233207
 20
-2.60635387186553
 30
0.0
  0
VERTEX
  5
1E0
  8
0
  6
CONTINUOUS
 62
     7
 10
11.96149282602287
 20
-2.60428949137106
 30
0.0
  0
VERTEX
  5
1E1
  8
0
  6
CONTINUOUS
 62
     7
 10
11.9615200817313
 20
-2.60222510893225
 30
0.0
  0
VERTEX
  5
1E2
  8
0
  6
CONTINUOUS
 62
     7
 10
11.96154719127223
 20
-2.60016072456972
 30
0.0
  0
VERTEX
  5
1E3
  8
0
  6
CONTINUOUS
 62
     7
 10
11.96157415547189
 20
-2.59809633830411
 30
0.0
  0
VERTEX
  5
1E4
  8
0
  6
CONTINUOUS
 62
     7
 10
11.96160097515653
 20
-2.59603195015602
 30
0.0
  0
VERTEX
  5
1E5
  8
0
  6
CONTINUOUS
 62
     7
 10
11.96162765115237
 20
-2.59396756014609
 30
0.0
  0
VERTEX
  5
1E6
  8
0
  6
CONTINUOUS
 62
     7
 10
11.96165418428565
 20
-2.59190316829494
 30
0.0
  0
VERTEX
  5
1E7
  8
0
  6
CONTINUOUS
 62
     7
 10
11.96168057538261
 20
-2.58983877462318
 30
0.0
  0
VERTEX
  5
1E8
  8
0
  6
CONTINUOUS
 62
     7
 10
11.96170682526948
 20
-2.58777437915144
 30
0.0
  0
VERTEX
  5
1E9
  8
0
  6
CONTINUOUS
 62
     7
 10
11.96173293477251
 20
-2.58570998190034
 30
0.0
  0
VERTEX
  5
1EA
  8
0
  6
CONTINUOUS
 62
     7
 10
11.96175890471791
 20
-2.58364558289051
 30
0.0
  0
VERTEX
  5
1EB
  8
0
  6
CONTINUOUS
 62
     7
 10
11.96178473591547
 20
-2.58158118214215
 30
0.0
  0
VERTEX
  5
1EC
  8
0
  6
CONTINUOUS
 62
     7
 10
11.96181042908244
 20
-2.57951677967319
 30
0.0
  0
VERTEX
  5
1ED
  8
0
  6
CONTINUOUS
 62
     7
 10
11.96183598490378
 20
-2.57745237550074
 30
0.0
  0
VERTEX
  5
1EE
  8
0
  6
CONTINUOUS
 62
     7
 10
11.96186140406443
 20
-2.57538796964193
 30
0.0
  0
VERTEX
  5
1EF
  8
0
  6
CONTINUOUS
 62
     7
 10
11.96188668724931
 20
-2.57332356211386
 30
0.0
  0
VERTEX
  5
1F0
  8
0
  6
CONTINUOUS
 62
     7
 10
11.96191183514336
 20
-2.57125915293365
 30
0.0
  0
VERTEX
  5
1F1
  8
0
  6
CONTINUOUS
 62
     7
 10
11.96193684843151
 20
-2.56919474211843
 30
0.0
  0
VERTEX
  5
1F2
  8
0
  6
CONTINUOUS
 62
     7
 10
11.9619617277987
 20
-2.5671303296853
 30
0.0
  0
VERTEX
  5
1F3
  8
0
  6
CONTINUOUS
 62
     7
 10
11.96198647392985
 20
-2.56506591565139
 30
0.0
  0
VERTEX
  5
1F4
  8
0
  6
CONTINUOUS
 62
     7
 10
11.9620110875099
 20
-2.56300150003381
 30
0.0
  0
VERTEX
  5
1F5
  8
0
  6
CONTINUOUS
 62
     7
 10
11.96203556922378
 20
-2.56093708284968
 30
0.0
  0
VERTEX
  5
1F6
  8
0
  6
CONTINUOUS
 62
     7
 10
11.96205991975642
 20
-2.55887266411611
 30
0.0
  0
VERTEX
  5
1F7
  8
0
  6
CONTINUOUS
 62
     7
 10
11.96208413979084
 20
-2.55680824384993
 30
0.0
  0
VERTEX
  5
1F8
  8
0
  6
CONTINUOUS
 62
     7
 10
11.96210823000182
 20
-2.55474382206665
 30
0.0
  0
VERTEX
  5
1F9
  8
0
  6
CONTINUOUS
 62
     7
 10
11.9621321910619
 20
-2.55267939878145
 30
0.0
  0
VERTEX
  5
1FA
  8
0
  6
CONTINUOUS
 62
     7
 10
11.96215602364366
 20
-2.5506149740095
 30
0.0
  0
VERTEX
  5
1FB
  8
0
  6
CONTINUOUS
 62
     7
 10
11.96217972841964
 20
-2.54855054776597
 30
0.0
  0
VERTEX
  5
1FC
  8
0
  6
CONTINUOUS
 62
     7
 10
11.9622033060624
 20
-2.54648612006605
 30
0.0
  0
VERTEX
  5
1FD
  8
0
  6
CONTINUOUS
 62
     7
 10
11.9622267572445
 20
-2.5444216909249
 30
0.0
  0
VERTEX
  5
1FE
  8
0
  6
CONTINUOUS
 62
     7
 10
11.96225008263849
 20
-2.54235726035771
 30
0.0
  0
VERTEX
  5
1FF
  8
0
  6
CONTINUOUS
 62
     7
 10
11.96227328291693
 20
-2.54029282837963
 30
0.0
  0
VERTEX
  5
200
  8
0
  6
CONTINUOUS
 62
     7
 10
11.96229635875237
 20
-2.53822839500585
 30
0.0
  0
VERTEX
  5
201
  8
0
  6
CONTINUOUS
 62
     7
 10
11.96231931081737
 20
-2.53616396025154
 30
0.0
  0
VERTEX
  5
202
  8
0
  6
CONTINUOUS
 62
     7
 10
11.96234213977547
 20
-2.53409952413178
 30
0.0
  0
VERTEX
  5
203
  8
0
  6
CONTINUOUS
 62
     7
 10
11.96236484609476
 20
-2.53203508665949
 30
0.0
  0
VERTEX
  5
204
  8
0
  6
CONTINUOUS
 62
     7
 10
11.96238743005433
 20
-2.52997064784551
 30
0.0
  0
VERTEX
  5
205
  8
0
  6
CONTINUOUS
 62
     7
 10
11.96240989192557
 20
-2.5279062077006
 30
0.0
  0
VERTEX
  5
206
  8
0
  6
CONTINUOUS
 62
     7
 10
11.96243223197983
 20
-2.52584176623553
 30
0.0
  0
VERTEX
  5
207
  8
0
  6
CONTINUOUS
 62
     7
 10
11.96245445048849
 20
-2.52377732346106
 30
0.0
  0
VERTEX
  5
208
  8
0
  6
CONTINUOUS
 62
     7
 10
11.96247654772291
 20
-2.52171287938793
 30
0.0
  0
VERTEX
  5
209
  8
0
  6
CONTINUOUS
 62
     7
 10
11.96249852395446
 20
-2.51964843402692
 30
0.0
  0
VERTEX
  5
20A
  8
0
  6
CONTINUOUS
 62
     7
 10
11.96252037945452
 20
-2.51758398738878
 30
0.0
  0
VERTEX
  5
20B
  8
0
  6
CONTINUOUS
 62
     7
 10
11.96254211449445
 20
-2.51551953948427
 30
0.0
  0
VERTEX
  5
20C
  8
0
  6
CONTINUOUS
 62
     7
 10
11.96256372934563
 20
-2.51345509032415
 30
0.0
  0
VERTEX
  5
20D
  8
0
  6
CONTINUOUS
 62
     7
 10
11.9625852243212
 20
-2.51139063991946
 30
0.0
  0
VERTEX
  5
20E
  8
0
  6
CONTINUOUS
 62
     7
 10
11.96260660041789
 20
-2.50932618828586
 30
0.0
  0
VERTEX
  5
20F
  8
0
  6
CONTINUOUS
 62
     7
 10
11.96262785919017
 20
-2.50726173544273
 30
0.0
  0
VERTEX
  5
210
  8
0
  6
CONTINUOUS
 62
     7
 10
11.96264900220879
 20
-2.5051972814096
 30
0.0
  0
VERTEX
  5
211
  8
0
  6
CONTINUOUS
 62
     7
 10
11.96267003104448
 20
-2.50313282620598
 30
0.0
  0
VERTEX
  5
212
  8
0
  6
CONTINUOUS
 62
     7
 10
11.96269094726802
 20
-2.50106836985138
 30
0.0
  0
VERTEX
  5
213
  8
0
  6
CONTINUOUS
 62
     7
 10
11.96271175245013
 20
-2.49900391236532
 30
0.0
  0
VERTEX
  5
214
  8
0
  6
CONTINUOUS
 62
     7
 10
11.96273244816158
 20
-2.49693945376731
 30
0.0
  0
VERTEX
  5
215
  8
0
  6
CONTINUOUS
 62
     7
 10
11.96275303597312
 20
-2.49487499407687
 30
0.0
  0
VERTEX
  5
216
  8
0
  6
CONTINUOUS
 62
     7
 10
11.96277351745549
 20
-2.4928105333135
 30
0.0
  0
VERTEX
  5
217
  8
0
  6
CONTINUOUS
 62
     7
 10
11.96279389417095
 20
-2.49074607149665
 30
0.0
  0
VERTEX
  5
218
  8
0
  6
CONTINUOUS
 62
     7
 10
11.96281416663025
 20
-2.48868160863721
 30
0.0
  0
VERTEX
  5
219
  8
0
  6
CONTINUOUS
 62
     7
 10
11.9628343332889
 20
-2.48661714472935
 30
0.0
  0
VERTEX
  5
21A
  8
0
  6
CONTINUOUS
 62
     7
 10
11.96285439236444
 20
-2.48455267976528
 30
0.0
  0
VERTEX
  5
21B
  8
0
  6
CONTINUOUS
 62
     7
 10
11.9628743420744
 20
-2.48248821373722
 30
0.0
  0
VERTEX
  5
21C
  8
0
  6
CONTINUOUS
 62
     7
 10
11.96289418063633
 20
-2.48042374663741
 30
0.0
  0
VERTEX
  5
21D
  8
0
  6
CONTINUOUS
 62
     7
 10
11.96291390626777
 20
-2.47835927845807
 30
0.0
  0
VERTEX
  5
21E
  8
0
  6
CONTINUOUS
 62
     7
 10
11.96293351718626
 20
-2.47629480919142
 30
0.0
  0
VERTEX
  5
21F
  8
0
  6
CONTINUOUS
 62
     7
 10
11.96295301160933
 20
-2.47423033882968
 30
0.0
  0
VERTEX
  5
220
  8
0
  6
CONTINUOUS
 62
     7
 10
11.96297238775454
 20
-2.47216586736509
 30
0.0
  0
VERTEX
  5
221
  8
0
  6
CONTINUOUS
 62
     7
 10
11.96299164383942
 20
-2.47010139478986
 30
0.0
  0
VERTEX
  5
222
  8
0
  6
CONTINUOUS
 62
     7
 10
11.96301077808151
 20
-2.46803692109622
 30
0.0
  0
VERTEX
  5
223
  8
0
  6
CONTINUOUS
 62
     7
 10
11.96302978869835
 20
-2.46597244627639
 30
0.0
  0
VERTEX
  5
224
  8
0
  6
CONTINUOUS
 62
     7
 10
11.96304867390748
 20
-2.4639079703226
 30
0.0
  0
VERTEX
  5
225
  8
0
  6
CONTINUOUS
 62
     7
 10
11.96306743192645
 20
-2.46184349322708
 30
0.0
  0
VERTEX
  5
226
  8
0
  6
CONTINUOUS
 62
     7
 10
11.96308606097279
 20
-2.45977901498203
 30
0.0
  0
VERTEX
  5
227
  8
0
  6
CONTINUOUS
 62
     7
 10
11.96310455926404
 20
-2.4577145355797
 30
0.0
  0
VERTEX
  5
228
  8
0
  6
CONTINUOUS
 62
     7
 10
11.96312292567946
 20
-2.45565005501758
 30
0.0
  0
VERTEX
  5
229
  8
0
  6
CONTINUOUS
 62
     7
 10
11.96314116501786
 20
-2.45358557334032
 30
0.0
  0
VERTEX
  5
22A
  8
0
  6
CONTINUOUS
 62
     7
 10
11.96315928519541
 20
-2.4515210906174
 30
0.0
  0
VERTEX
  5
22B
  8
0
  6
CONTINUOUS
 62
     7
 10
11.96317729415617
 20
-2.44945660691854
 30
0.0
  0
VERTEX
  5
22C
  8
0
  6
CONTINUOUS
 62
     7
 10
11.96319519984419
 20
-2.44739212231345
 30
0.0
  0
VERTEX
  5
22D
  8
0
  6
CONTINUOUS
 62
     7
 10
11.96321301020353
 20
-2.44532763687184
 30
0.0
  0
VERTEX
  5
22E
  8
0
  6
CONTINUOUS
 62
     7
 10
11.96323073317824
 20
-2.44326315066342
 30
0.0
  0
VERTEX
  5
22F
  8
0
  6
CONTINUOUS
 62
     7
 10
11.96324837671239
 20
-2.4411986637579
 30
0.0
  0
VERTEX
  5
230
  8
0
  6
CONTINUOUS
 62
     7
 10
11.96326594875003
 20
-2.43913417622499
 30
0.0
  0
VERTEX
  5
231
  8
0
  6
CONTINUOUS
 62
     7
 10
11.96328345723521
 20
-2.43706968813439
 30
0.0
  0
VERTEX
  5
232
  8
0
  6
CONTINUOUS
 62
     7
 10
11.96330091011199
 20
-2.43500519955582
 30
0.0
  0
VERTEX
  5
233
  8
0
  6
CONTINUOUS
 62
     7
 10
11.96331831532443
 20
-2.432940710559
 30
0.0
  0
VERTEX
  5
234
  8
0
  6
CONTINUOUS
 62
     7
 10
11.96333568081659
 20
-2.43087622121362
 30
0.0
  0
VERTEX
  5
235
  8
0
  6
CONTINUOUS
 62
     7
 10
11.96335301453252
 20
-2.4288117315894
 30
0.0
  0
VERTEX
  5
236
  8
0
  6
CONTINUOUS
 62
     7
 10
11.96337032441628
 20
-2.42674724175606
 30
0.0
  0
VERTEX
  5
237
  8
0
  6
CONTINUOUS
 62
     7
 10
11.96338761841193
 20
-2.42468275178329
 30
0.0
  0
VERTEX
  5
238
  8
0
  6
CONTINUOUS
 62
     7
 10
11.96340490446352
 20
-2.42261826174081
 30
0.0
  0
SEQEND
  5
239
  8
0
  6
CONTINUOUS
 62
     7
  0
POLYLINE
  5
11B
  8
0
  6
CONTINUOUS
 62
     7
 66
     1
 10
0.0
 20
0.0
 30
0.0
  0
VERTEX
  5
23A
  8
0
  6
CONTINUOUS
 62
     7
 10
3.05241475680418
 20
-2.99999999999992
 30
0.0
  0
VERTEX
  5
23B
  8
0
  6
CONTINUOUS
 62
     7
 10
3.05123643499452
 20
-2.99796134695373
 30
0.0
  0
VERTEX
  5
23C
  8
0
  6
CONTINUOUS
 62
     7
 10
3.0508093664012
 20
-2.9955432512807
 30
0.0
  0
VERTEX
  5
23D
  8
0
  6
CONTINUOUS
 62
     7
 10
3.05038418938377
 20
-2.99319104103449
 30
0.0
  0
VERTEX
  5
23E
  8
0
  6
CONTINUOUS
 62
     7
 10
3.05003843728611
 20
-2.99081746027417
 30
0.0
  0
VERTEX
  5
23F
  8
0
  6
CONTINUOUS
 62
     7
 10
3.04976136032594
 20
-2.98841818194047
 30
0.0
  0
VERTEX
  5
240
  8
0
  6
CONTINUOUS
 62
     7
 10
3.04951088718916
 20
-2.98601709399502
 30
0.0
  0
VERTEX
  5
241
  8
0
  6
CONTINUOUS
 62
     7
 10
3.04927245917095
 20
-2.98362071027371
 30
0.0
  0
VERTEX
  5
242
  8
0
  6
CONTINUOUS
 62
     7
 10
3.04904831229853
 20
-2.98122493741666
 30
0.0
  0
VERTEX
  5
243
  8
0
  6
CONTINUOUS
 62
     7
 10
3.04884006099966
 20
-2.97882638219984
 30
0.0
  0
VERTEX
  5
244
  8
0
  6
CONTINUOUS
 62
     7
 10
3.04864563093367
 20
-2.97642529825633
 30
0.0
  0
VERTEX
  5
245
  8
0
  6
CONTINUOUS
 62
     7
 10
3.04846196046865
 20
-2.97402291529298
 30
0.0
  0
VERTEX
  5
246
  8
0
  6
CONTINUOUS
 62
     7
 10
3.04828630165916
 20
-2.97162029417921
 30
0.0
  0
VERTEX
  5
247
  8
0
  6
CONTINUOUS
 62
     7
 10
3.0481176218694
 20
-2.96921757251566
 30
0.0
  0
VERTEX
  5
248
  8
0
  6
CONTINUOUS
 62
     7
 10
3.04795547179972
 20
-2.96681457392118
 30
0.0
  0
VERTEX
  5
249
  8
0
  6
CONTINUOUS
 62
     7
 10
3.04779940080796
 20
-2.96441112901989
 30
0.0
  0
VERTEX
  5
24A
  8
0
  6
CONTINUOUS
 62
     7
 10
3.04764892344516
 20
-2.96200720691313
 30
0.0
  0
VERTEX
  5
24B
  8
0
  6
CONTINUOUS
 62
     7
 10
3.04750352303861
 20
-2.95960290092413
 30
0.0
  0
VERTEX
  5
24C
  8
0
  6
CONTINUOUS
 62
     7
 10
3.04736268180869
 20
-2.95719830878011
 30
0.0
  0
VERTEX
  5
24D
  8
0
  6
CONTINUOUS
 62
     7
 10
3.04722592776969
 20
-2.95479351225017
 30
0.0
  0
VERTEX
  5
24E
  8
0
  6
CONTINUOUS
 62
     7
 10
3.04709296679125
 20
-2.95238853112485
 30
0.0
  0
VERTEX
  5
24F
  8
0
  6
CONTINUOUS
 62
     7
 10
3.04696354791523
 20
-2.94998337015014
 30
0.0
  0
VERTEX
  5
250
  8
0
  6
CONTINUOUS
 62
     7
 10
3.04683742111229
 20
-2.94757803415958
 30
0.0
  0
VERTEX
  5
251
  8
0
  6
CONTINUOUS
 62
     7
 10
3.04671437284119
 20
-2.9451725314256
 30
0.0
  0
VERTEX
  5
252
  8
0
  6
CONTINUOUS
 62
     7
 10
3.04659423718114
 20
-2.9427668747087
 30
0.0
  0
VERTEX
  5
253
  8
0
  6
CONTINUOUS
 62
     7
 10
3.04647685141625
 20
-2.94036107707141
 30
0.0
  0
VERTEX
  5
254
  8
0
  6
CONTINUOUS
 62
     7
 10
3.04636205283064
 20
-2.93795515157629
 30
0.0
  0
VERTEX
  5
255
  8
0
  6
CONTINUOUS
 62
     7
 10
3.0462496787084
 20
-2.93554911128588
 30
0.0
  0
VERTEX
  5
256
  8
0
  6
CONTINUOUS
 62
     7
 10
3.0461395703727
 20
-2.93314296880861
 30
0.0
  0
VERTEX
  5
257
  8
0
  6
CONTINUOUS
 62
     7
 10
3.04603161220775
 20
-2.93073673191134
 30
0.0
  0
VERTEX
  5
258
  8
0
  6
CONTINUOUS
 62
     7
 10
3.04592571463596
 20
-2.92833040543337
 30
0.0
  0
VERTEX
  5
259
  8
0
  6
CONTINUOUS
 62
     7
 10
3.04582178844168
 20
-2.92592399417328
 30
0.0
  0
VERTEX
  5
25A
  8
0
  6
CONTINUOUS
 62
     7
 10
3.04571974440926
 20
-2.92351750292967
 30
0.0
  0
VERTEX
  5
25B
  8
0
  6
CONTINUOUS
 62
     7
 10
3.04561949332307
 20
-2.92111093650112
 30
0.0
  0
VERTEX
  5
25C
  8
0
  6
CONTINUOUS
 62
     7
 10
3.04552094619087
 20
-2.91870429967504
 30
0.0
  0
VERTEX
  5
25D
  8
0
  6
CONTINUOUS
 62
     7
 10
3.04542402661697
 20
-2.91629759660743
 30
0.0
  0
VERTEX
  5
25E
  8
0
  6
CONTINUOUS
 62
     7
 10
3.0453286772798
 20
-2.91389083049823
 30
0.0
  0
VERTEX
  5
25F
  8
0
  6
CONTINUOUS
 62
     7
 10
3.04523484244698
 20
-2.91148400446773
 30
0.0
  0
VERTEX
  5
260
  8
0
  6
CONTINUOUS
 62
     7
 10
3.04514246638613
 20
-2.90907712163622
 30
0.0
  0
VERTEX
  5
261
  8
0
  6
CONTINUOUS
 62
     7
 10
3.04505149336489
 20
-2.906670185124
 30
0.0
  0
VERTEX
  5
262
  8
0
  6
CONTINUOUS
 62
     7
 10
3.04496186765087
 20
-2.90426319805134
 30
0.0
  0
VERTEX
  5
263
  8
0
  6
CONTINUOUS
 62
     7
 10
3.04487353367084
 20
-2.90185616352747
 30
0.0
  0
VERTEX
  5
264
  8
0
  6
CONTINUOUS
 62
     7
 10
3.0447864437408
 20
-2.89944908411271
 30
0.0
  0
VERTEX
  5
265
  8
0
  6
CONTINUOUS
 62
     7
 10
3.04470056153648
 20
-2.89704196157705
 30
0.0
  0
VERTEX
  5
266
  8
0
  6
CONTINUOUS
 62
     7
 10
3.04461585161589
 20
-2.89463479762908
 30
0.0
  0
VERTEX
  5
267
  8
0
  6
CONTINUOUS
 62
     7
 10
3.04453227853702
 20
-2.8922275939774
 30
0.0
  0
VERTEX
  5
268
  8
0
  6
CONTINUOUS
 62
     7
 10
3.04444980685788
 20
-2.88982035233061
 30
0.0
  0
VERTEX
  5
269
  8
0
  6
CONTINUOUS
 62
     7
 10
3.04436840113646
 20
-2.8874130743973
 30
0.0
  0
VERTEX
  5
26A
  8
0
  6
CONTINUOUS
 62
     7
 10
3.04428802593077
 20
-2.88500576188608
 30
0.0
  0
VERTEX
  5
26B
  8
0
  6
CONTINUOUS
 62
     7
 10
3.0442086466501
 20
-2.88259841645964
 30
0.0
  0
VERTEX
  5
26C
  8
0
  6
CONTINUOUS
 62
     7
 10
3.04413023594854
 20
-2.88019103939004
 30
0.0
  0
VERTEX
  5
26D
  8
0
  6
CONTINUOUS
 62
     7
 10
3.04405277014187
 20
-2.87778363175192
 30
0.0
  0
VERTEX
  5
26E
  8
0
  6
CONTINUOUS
 62
     7
 10
3.04397622557413
 20
-2.87537619461837
 30
0.0
  0
VERTEX
  5
26F
  8
0
  6
CONTINUOUS
 62
     7
 10
3.04390057858938
 20
-2.8729687290625
 30
0.0
  0
VERTEX
  5
270
  8
0
  6
CONTINUOUS
 62
     7
 10
3.04382580553165
 20
-2.87056123615741
 30
0.0
  0
VERTEX
  5
271
  8
0
  6
CONTINUOUS
 62
     7
 10
3.04375188274501
 20
-2.86815371697621
 30
0.0
  0
VERTEX
  5
272
  8
0
  6
CONTINUOUS
 62
     7
 10
3.04367878657348
 20
-2.865746172592
 30
0.0
  0
VERTEX
  5
273
  8
0
  6
CONTINUOUS
 62
     7
 10
3.04360649355151
 20
-2.86333860406754
 30
0.0
  0
VERTEX
  5
274
  8
0
  6
CONTINUOUS
 62
     7
 10
3.04353498389291
 20
-2.86093101226564
 30
0.0
  0
VERTEX
  5
275
  8
0
  6
CONTINUOUS
 62
     7
 10
3.04346424113996
 20
-2.85852339786825
 30
0.0
  0
VERTEX
  5
276
  8
0
  6
CONTINUOUS
 62
     7
 10
3.04339424895491
 20
-2.85611576155077
 30
0.0
  0
VERTEX
  5
277
  8
0
  6
CONTINUOUS
 62
     7
 10
3.04332499099998
 20
-2.85370810398864
 30
0.0
  0
VERTEX
  5
278
  8
0
  6
CONTINUOUS
 62
     7
 10
3.04325645093741
 20
-2.85130042585726
 30
0.0
  0
VERTEX
  5
279
  8
0
  6
CONTINUOUS
 62
     7
 10
3.04318861242942
 20
-2.84889272783207
 30
0.0
  0
VERTEX
  5
27A
  8
0
  6
CONTINUOUS
 62
     7
 10
3.04312145913824
 20
-2.84648501058848
 30
0.0
  0
VERTEX
  5
27B
  8
0
  6
CONTINUOUS
 62
     7
 10
3.04305497472612
 20
-2.84407727480191
 30
0.0
  0
VERTEX
  5
27C
  8
0
  6
CONTINUOUS
 62
     7
 10
3.04298914315815
 20
-2.84166952113356
 30
0.0
  0
VERTEX
  5
27D
  8
0
  6
CONTINUOUS
 62
     7
 10
3.04292395136594
 20
-2.83926175010517
 30
0.0
  0
VERTEX
  5
27E
  8
0
  6
CONTINUOUS
 62
     7
 10
3.04285938796089
 20
-2.83685396215958
 30
0.0
  0
VERTEX
  5
27F
  8
0
  6
CONTINUOUS
 62
     7
 10
3.04279544157352
 20
-2.8344461577387
 30
0.0
  0
VERTEX
  5
280
  8
0
  6
CONTINUOUS
 62
     7
 10
3.04273210083436
 20
-2.83203833728446
 30
0.0
  0
VERTEX
  5
281
  8
0
  6
CONTINUOUS
 62
     7
 10
3.04266935437394
 20
-2.82963050123877
 30
0.0
  0
VERTEX
  5
282
  8
0
  6
CONTINUOUS
 62
     7
 10
3.04260719082278
 20
-2.82722265004355
 30
0.0
  0
VERTEX
  5
283
  8
0
  6
CONTINUOUS
 62
     7
 10
3.04254559881142
 20
-2.82481478414072
 30
0.0
  0
VERTEX
  5
284
  8
0
  6
CONTINUOUS
 62
     7
 10
3.04248456697038
 20
-2.82240690397221
 30
0.0
  0
VERTEX
  5
285
  8
0
  6
CONTINUOUS
 62
     7
 10
3.0424240839302
 20
-2.81999900997993
 30
0.0
  0
VERTEX
  5
286
  8
0
  6
CONTINUOUS
 62
     7
 10
3.04236413835358
 20
-2.81759110260431
 30
0.0
  0
VERTEX
  5
287
  8
0
  6
CONTINUOUS
 62
     7
 10
3.04230472027409
 20
-2.81518318222218
 30
0.0
  0
VERTEX
  5
288
  8
0
  6
CONTINUOUS
 62
     7
 10
3.04224582157821
 20
-2.81277524912443
 30
0.0
  0
VERTEX
  5
289
  8
0
  6
CONTINUOUS
 62
     7
 10
3.04218743428384
 20
-2.81036730359585
 30
0.0
  0
VERTEX
  5
28A
  8
0
  6
CONTINUOUS
 62
     7
 10
3.04212955040885
 20
-2.80795934592122
 30
0.0
  0
VERTEX
  5
28B
  8
0
  6
CONTINUOUS
 62
     7
 10
3.04207216197114
 20
-2.80555137638534
 30
0.0
  0
VERTEX
  5
28C
  8
0
  6
CONTINUOUS
 62
     7
 10
3.04201526098858
 20
-2.80314339527298
 30
0.0
  0
VERTEX
  5
28D
  8
0
  6
CONTINUOUS
 62
     7
 10
3.04195883947906
 20
-2.80073540286894
 30
0.0
  0
VERTEX
  5
28E
  8
0
  6
CONTINUOUS
 62
     7
 10
3.04190288946046
 20
-2.798327399458
 30
0.0
  0
VERTEX
  5
28F
  8
0
  6
CONTINUOUS
 62
     7
 10
3.04184740295066
 20
-2.79591938532496
 30
0.0
  0
VERTEX
  5
290
  8
0
  6
CONTINUOUS
 62
     7
 10
3.04179237196755
 20
-2.7935113607546
 30
0.0
  0
VERTEX
  5
291
  8
0
  6
CONTINUOUS
 62
     7
 10
3.04173778855264
 20
-2.79110332603072
 30
0.0
  0
VERTEX
  5
292
  8
0
  6
CONTINUOUS
 62
     7
 10
3.04168364565592
 20
-2.78869528139942
 30
0.0
  0
VERTEX
  5
293
  8
0
  6
CONTINUOUS
 62
     7
 10
3.04162993740182
 20
-2.78628722705805
 30
0.0
  0
VERTEX
  5
294
  8
0
  6
CONTINUOUS
 62
     7
 10
3.0415766579927
 20
-2.7838791632007
 30
0.0
  0
VERTEX
  5
295
  8
0
  6
CONTINUOUS
 62
     7
 10
3.04152380163091
 20
-2.78147109002147
 30
0.0
  0
VERTEX
  5
296
  8
0
  6
CONTINUOUS
 62
     7
 10
3.04147136251879
 20
-2.77906300771448
 30
0.0
  0
VERTEX
  5
297
  8
0
  6
CONTINUOUS
 62
     7
 10
3.0414193348587
 20
-2.77665491647383
 30
0.0
  0
VERTEX
  5
298
  8
0
  6
CONTINUOUS
 62
     7
 10
3.04136771285299
 20
-2.77424681649362
 30
0.0
  0
VERTEX
  5
299
  8
0
  6
CONTINUOUS
 62
     7
 10
3.04131649070401
 20
-2.77183870796796
 30
0.0
  0
VERTEX
  5
29A
  8
0
  6
CONTINUOUS
 62
     7
 10
3.04126566261411
 20
-2.76943059109096
 30
0.0
  0
VERTEX
  5
29B
  8
0
  6
CONTINUOUS
 62
     7
 10
3.04121522278563
 20
-2.76702246605671
 30
0.0
  0
VERTEX
  5
29C
  8
0
  6
CONTINUOUS
 62
     7
 10
3.04116516542094
 20
-2.76461433305932
 30
0.0
  0
VERTEX
  5
29D
  8
0
  6
CONTINUOUS
 62
     7
 10
3.0411154848444
 20
-2.76220619228809
 30
0.0
  0
VERTEX
  5
29E
  8
0
  6
CONTINUOUS
 62
     7
 10
3.04106617632365
 20
-2.75979804389512
 30
0.0
  0
VERTEX
  5
29F
  8
0
  6
CONTINUOUS
 62
     7
 10
3.04101723556589
 20
-2.7573898880152
 30
0.0
  0
VERTEX
  5
2A0
  8
0
  6
CONTINUOUS
 62
     7
 10
3.04096865828075
 20
-2.75498172478301
 30
0.0
  0
VERTEX
  5
2A1
  8
0
  6
CONTINUOUS
 62
     7
 10
3.0409204401779
 20
-2.75257355433323
 30
0.0
  0
VERTEX
  5
2A2
  8
0
  6
CONTINUOUS
 62
     7
 10
3.04087257696699
 20
-2.75016537680054
 30
0.0
  0
VERTEX
  5
2A3
  8
0
  6
CONTINUOUS
 62
     7
 10
3.04082506435765
 20
-2.74775719231963
 30
0.0
  0
VERTEX
  5
2A4
  8
0
  6
CONTINUOUS
 62
     7
 10
3.04077789805956
 20
-2.74534900102519
 30
0.0
  0
VERTEX
  5
2A5
  8
0
  6
CONTINUOUS
 62
     7
 10
3.04073107378234
 20
-2.74294080305188
 30
0.0
  0
VERTEX
  5
2A6
  8
0
  6
CONTINUOUS
 62
     7
 10
3.04068458723567
 20
-2.74053259853441
 30
0.0
  0
VERTEX
  5
2A7
  8
0
  6
CONTINUOUS
 62
     7
 10
3.04063843412918
 20
-2.73812438760745
 30
0.0
  0
VERTEX
  5
2A8
  8
0
  6
CONTINUOUS
 62
     7
 10
3.04059261017252
 20
-2.73571617040568
 30
0.0
  0
VERTEX
  5
2A9
  8
0
  6
CONTINUOUS
 62
     7
 10
3.04054711110574
 20
-2.73330794706267
 30
0.0
  0
VERTEX
  5
2AA
  8
0
  6
CONTINUOUS
 62
     7
 10
3.04050193320932
 20
-2.73089971769213
 30
0.0
  0
VERTEX
  5
2AB
  8
0
  6
CONTINUOUS
 62
     7
 10
3.04045707322858
 20
-2.72849148239067
 30
0.0
  0
VERTEX
  5
2AC
  8
0
  6
CONTINUOUS
 62
     7
 10
3.04041252792403
 20
-2.72608324125434
 30
0.0
  0
VERTEX
  5
2AD
  8
0
  6
CONTINUOUS
 62
     7
 10
3.04036829405615
 20
-2.72367499437922
 30
0.0
  0
VERTEX
  5
2AE
  8
0
  6
CONTINUOUS
 62
     7
 10
3.04032436838543
 20
-2.72126674186136
 30
0.0
  0
VERTEX
  5
2AF
  8
0
  6
CONTINUOUS
 62
     7
 10
3.04028074767234
 20
-2.71885848379682
 30
0.0
  0
VERTEX
  5
2B0
  8
0
  6
CONTINUOUS
 62
     7
 10
3.04023742867739
 20
-2.71645022028165
 30
0.0
  0
VERTEX
  5
2B1
  8
0
  6
CONTINUOUS
 62
     7
 10
3.04019440816105
 20
-2.71404195141193
 30
0.0
  0
VERTEX
  5
2B2
  8
0
  6
CONTINUOUS
 62
     7
 10
3.04015168288382
 20
-2.71163367728371
 30
0.0
  0
VERTEX
  5
2B3
  8
0
  6
CONTINUOUS
 62
     7
 10
3.04010924960618
 20
-2.70922539799305
 30
0.0
  0
VERTEX
  5
2B4
  8
0
  6
CONTINUOUS
 62
     7
 10
3.04006710508862
 20
-2.70681711363601
 30
0.0
  0
VERTEX
  5
2B5
  8
0
  6
CONTINUOUS
 62
     7
 10
3.04002524609163
 20
-2.70440882430865
 30
0.0
  0
VERTEX
  5
2B6
  8
0
  6
CONTINUOUS
 62
     7
 10
3.03998366942607
 20
-2.70200053010529
 30
0.0
  0
VERTEX
  5
2B7
  8
0
  6
CONTINUOUS
 62
     7
 10
3.03994237236102
 20
-2.69959223110438
 30
0.0
  0
VERTEX
  5
2B8
  8
0
  6
CONTINUOUS
 62
     7
 10
3.03990135241011
 20
-2.69718392737593
 30
0.0
  0
VERTEX
  5
2B9
  8
0
  6
CONTINUOUS
 62
     7
 10
3.03986060708925
 20
-2.69477561898983
 30
0.0
  0
VERTEX
  5
2BA
  8
0
  6
CONTINUOUS
 62
     7
 10
3.03982013391437
 20
-2.69236730601603
 30
0.0
  0
VERTEX
  5
2BB
  8
0
  6
CONTINUOUS
 62
     7
 10
3.03977993040137
 20
-2.68995898852441
 30
0.0
  0
VERTEX
  5
2BC
  8
0
  6
CONTINUOUS
 62
     7
 10
3.03973999406619
 20
-2.68755066658492
 30
0.0
  0
VERTEX
  5
2BD
  8
0
  6
CONTINUOUS
 62
     7
 10
3.03970032242473
 20
-2.68514234026745
 30
0.0
  0
VERTEX
  5
2BE
  8
0
  6
CONTINUOUS
 62
     7
 10
3.03966091299292
 20
-2.68273400964192
 30
0.0
  0
VERTEX
  5
2BF
  8
0
  6
CONTINUOUS
 62
     7
 10
3.03962176328667
 20
-2.68032567477826
 30
0.0
  0
VERTEX
  5
2C0
  8
0
  6
CONTINUOUS
 62
     7
 10
3.0395828708219
 20
-2.67791733574637
 30
0.0
  0
VERTEX
  5
2C1
  8
0
  6
CONTINUOUS
 62
     7
 10
3.03954423311454
 20
-2.67550899261617
 30
0.0
  0
VERTEX
  5
2C2
  8
0
  6
CONTINUOUS
 62
     7
 10
3.0395058476805
 20
-2.67310064545758
 30
0.0
  0
VERTEX
  5
2C3
  8
0
  6
CONTINUOUS
 62
     7
 10
3.03946771203938
 20
-2.67069229434039
 30
0.0
  0
VERTEX
  5
2C4
  8
0
  6
CONTINUOUS
 62
     7
 10
3.03942982391616
 20
-2.66828393932763
 30
0.0
  0
VERTEX
  5
2C5
  8
0
  6
CONTINUOUS
 62
     7
 10
3.03939218134542
 20
-2.66587558047212
 30
0.0
  0
VERTEX
  5
2C6
  8
0
  6
CONTINUOUS
 62
     7
 10
3.03935478238738
 20
-2.66346721782583
 30
0.0
  0
VERTEX
  5
2C7
  8
0
  6
CONTINUOUS
 62
     7
 10
3.03931762510227
 20
-2.66105885144075
 30
0.0
  0
VERTEX
  5
2C8
  8
0
  6
CONTINUOUS
 62
     7
 10
3.03928070755029
 20
-2.65865048136886
 30
0.0
  0
VERTEX
  5
2C9
  8
0
  6
CONTINUOUS
 62
     7
 10
3.03924402779167
 20
-2.65624210766212
 30
0.0
  0
VERTEX
  5
2CA
  8
0
  6
CONTINUOUS
 62
     7
 10
3.03920758388662
 20
-2.65383373037253
 30
0.0
  0
VERTEX
  5
2CB
  8
0
  6
CONTINUOUS
 62
     7
 10
3.03917137389538
 20
-2.65142534955205
 30
0.0
  0
VERTEX
  5
2CC
  8
0
  6
CONTINUOUS
 62
     7
 10
3.03913539587814
 20
-2.64901696525267
 30
0.0
  0
VERTEX
  5
2CD
  8
0
  6
CONTINUOUS
 62
     7
 10
3.03909964789514
 20
-2.64660857752636
 30
0.0
  0
VERTEX
  5
2CE
  8
0
  6
CONTINUOUS
 62
     7
 10
3.0390641280066
 20
-2.64420018642509
 30
0.0
  0
VERTEX
  5
2CF
  8
0
  6
CONTINUOUS
 62
     7
 10
3.03902883427273
 20
-2.64179179200086
 30
0.0
  0
VERTEX
  5
2D0
  8
0
  6
CONTINUOUS
 62
     7
 10
3.03899376475374
 20
-2.63938339430564
 30
0.0
  0
VERTEX
  5
2D1
  8
0
  6
CONTINUOUS
 62
     7
 10
3.03895891751441
 20
-2.63697499339126
 30
0.0
  0
VERTEX
  5
2D2
  8
0
  6
CONTINUOUS
 62
     7
 10
3.03892429079745
 20
-2.63456658930426
 30
0.0
  0
VERTEX
  5
2D3
  8
0
  6
CONTINUOUS
 62
     7
 10
3.03888988307777
 20
-2.63215818208425
 30
0.0
  0
VERTEX
  5
2D4
  8
0
  6
CONTINUOUS
 62
     7
 10
3.03885569284586
 20
-2.62974977177036
 30
0.0
  0
VERTEX
  5
2D5
  8
0
  6
CONTINUOUS
 62
     7
 10
3.03882171859224
 20
-2.62734135840174
 30
0.0
  0
VERTEX
  5
2D6
  8
0
  6
CONTINUOUS
 62
     7
 10
3.03878795880742
 20
-2.62493294201752
 30
0.0
  0
VERTEX
  5
2D7
  8
0
  6
CONTINUOUS
 62
     7
 10
3.0387544119819
 20
-2.62252452265684
 30
0.0
  0
VERTEX
  5
2D8
  8
0
  6
CONTINUOUS
 62
     7
 10
3.03872107660619
 20
-2.62011610035884
 30
0.0
  0
VERTEX
  5
2D9
  8
0
  6
CONTINUOUS
 62
     7
 10
3.03868795117079
 20
-2.61770767516267
 30
0.0
  0
VERTEX
  5
2DA
  8
0
  6
CONTINUOUS
 62
     7
 10
3.03865503416621
 20
-2.61529924710745
 30
0.0
  0
VERTEX
  5
2DB
  8
0
  6
CONTINUOUS
 62
     7
 10
3.03862232408297
 20
-2.61289081623233
 30
0.0
  0
VERTEX
  5
2DC
  8
0
  6
CONTINUOUS
 62
     7
 10
3.03858981941156
 20
-2.61048238257645
 30
0.0
  0
VERTEX
  5
2DD
  8
0
  6
CONTINUOUS
 62
     7
 10
3.0385575186425
 20
-2.60807394617895
 30
0.0
  0
VERTEX
  5
2DE
  8
0
  6
CONTINUOUS
 62
     7
 10
3.03852542026629
 20
-2.60566550707896
 30
0.0
  0
VERTEX
  5
2DF
  8
0
  6
CONTINUOUS
 62
     7
 10
3.03849352277343
 20
-2.60325706531563
 30
0.0
  0
VERTEX
  5
2E0
  8
0
  6
CONTINUOUS
 62
     7
 10
3.03846182468504
 20
-2.60084862092699
 30
0.0
  0
VERTEX
  5
2E1
  8
0
  6
CONTINUOUS
 62
     7
 10
3.03843032467738
 20
-2.59844017394551
 30
0.0
  0
VERTEX
  5
2E2
  8
0
  6
CONTINUOUS
 62
     7
 10
3.03839902147585
 20
-2.59603172440189
 30
0.0
  0
VERTEX
  5
2E3
  8
0
  6
CONTINUOUS
 62
     7
 10
3.03836791380584
 20
-2.59362327232681
 30
0.0
  0
VERTEX
  5
2E4
  8
0
  6
CONTINUOUS
 62
     7
 10
3.03833700039276
 20
-2.59121481775098
 30
0.0
  0
VERTEX
  5
2E5
  8
0
  6
CONTINUOUS
 62
     7
 10
3.03830627996202
 20
-2.5888063607051
 30
0.0
  0
VERTEX
  5
2E6
  8
0
  6
CONTINUOUS
 62
     7
 10
3.03827575123901
 20
-2.58639790121986
 30
0.0
  0
VERTEX
  5
2E7
  8
0
  6
CONTINUOUS
 62
     7
 10
3.03824541294914
 20
-2.58398943932595
 30
0.0
  0
VERTEX
  5
2E8
  8
0
  6
CONTINUOUS
 62
     7
 10
3.03821526381781
 20
-2.58158097505408
 30
0.0
  0
VERTEX
  5
2E9
  8
0
  6
CONTINUOUS
 62
     7
 10
3.03818530257042
 20
-2.57917250843494
 30
0.0
  0
VERTEX
  5
2EA
  8
0
  6
CONTINUOUS
 62
     7
 10
3.03815552793238
 20
-2.57676403949923
 30
0.0
  0
VERTEX
  5
2EB
  8
0
  6
CONTINUOUS
 62
     7
 10
3.03812593862909
 20
-2.57435556827764
 30
0.0
  0
VERTEX
  5
2EC
  8
0
  6
CONTINUOUS
 62
     7
 10
3.03809653338595
 20
-2.57194709480087
 30
0.0
  0
VERTEX
  5
2ED
  8
0
  6
CONTINUOUS
 62
     7
 10
3.03806731092837
 20
-2.56953861909961
 30
0.0
  0
VERTEX
  5
2EE
  8
0
  6
CONTINUOUS
 62
     7
 10
3.03803826998174
 20
-2.56713014120457
 30
0.0
  0
VERTEX
  5
2EF
  8
0
  6
CONTINUOUS
 62
     7
 10
3.03800940933911
 20
-2.56472166114525
 30
0.0
  0
VERTEX
  5
2F0
  8
0
  6
CONTINUOUS
 62
     7
 10
3.03798072812567
 20
-2.56231317894531
 30
0.0
  0
VERTEX
  5
2F1
  8
0
  6
CONTINUOUS
 62
     7
 10
3.03795222556845
 20
-2.55990469462662
 30
0.0
  0
VERTEX
  5
2F2
  8
0
  6
CONTINUOUS
 62
     7
 10
3.0379239008945
 20
-2.55749620821104
 30
0.0
  0
VERTEX
  5
2F3
  8
0
  6
CONTINUOUS
 62
     7
 10
3.03789575333086
 20
-2.55508771972045
 30
0.0
  0
VERTEX
  5
2F4
  8
0
  6
CONTINUOUS
 62
     7
 10
3.03786778210458
 20
-2.5526792291767
 30
0.0
  0
VERTEX
  5
2F5
  8
0
  6
CONTINUOUS
 62
     7
 10
3.0378399864427
 20
-2.55027073660168
 30
0.0
  0
VERTEX
  5
2F6
  8
0
  6
CONTINUOUS
 62
     7
 10
3.03781236557228
 20
-2.54786224201723
 30
0.0
  0
VERTEX
  5
2F7
  8
0
  6
CONTINUOUS
 62
     7
 10
3.03778491872035
 20
-2.54545374544524
 30
0.0
  0
VERTEX
  5
2F8
  8
0
  6
CONTINUOUS
 62
     7
 10
3.03775764511396
 20
-2.54304524690757
 30
0.0
  0
VERTEX
  5
2F9
  8
0
  6
CONTINUOUS
 62
     7
 10
3.03773054398016
 20
-2.54063674642608
 30
0.0
  0
VERTEX
  5
2FA
  8
0
  6
CONTINUOUS
 62
     7
 10
3.03770361454601
 20
-2.53822824402265
 30
0.0
  0
VERTEX
  5
2FB
  8
0
  6
CONTINUOUS
 62
     7
 10
3.03767685603853
 20
-2.53581973971914
 30
0.0
  0
VERTEX
  5
2FC
  8
0
  6
CONTINUOUS
 62
     7
 10
3.03765026768478
 20
-2.53341123353742
 30
0.0
  0
VERTEX
  5
2FD
  8
0
  6
CONTINUOUS
 62
     7
 10
3.03762384871181
 20
-2.53100272549936
 30
0.0
  0
VERTEX
  5
2FE
  8
0
  6
CONTINUOUS
 62
     7
 10
3.0375975983351
 20
-2.52859421562686
 30
0.0
  0
VERTEX
  5
2FF
  8
0
  6
CONTINUOUS
 62
     7
 10
3.03757151543086
 20
-2.52618570394322
 30
0.0
  0
VERTEX
  5
300
  8
0
  6
CONTINUOUS
 62
     7
 10
3.03754559848944
 20
-2.52377719047327
 30
0.0
  0
VERTEX
  5
301
  8
0
  6
CONTINUOUS
 62
     7
 10
3.03751984598026
 20
-2.52136867524193
 30
0.0
  0
VERTEX
  5
302
  8
0
  6
CONTINUOUS
 62
     7
 10
3.03749425637273
 20
-2.51896015827413
 30
0.0
  0
VERTEX
  5
303
  8
0
  6
CONTINUOUS
 62
     7
 10
3.03746882813628
 20
-2.51655163959478
 30
0.0
  0
VERTEX
  5
304
  8
0
  6
CONTINUOUS
 62
     7
 10
3.03744355974032
 20
-2.51414311922881
 30
0.0
  0
VERTEX
  5
305
  8
0
  6
CONTINUOUS
 62
     7
 10
3.03741844965428
 20
-2.51173459720114
 30
0.0
  0
VERTEX
  5
306
  8
0
  6
CONTINUOUS
 62
     7
 10
3.03739349634758
 20
-2.50932607353669
 30
0.0
  0
VERTEX
  5
307
  8
0
  6
CONTINUOUS
 62
     7
 10
3.03736869828962
 20
-2.50691754826039
 30
0.0
  0
VERTEX
  5
308
  8
0
  6
CONTINUOUS
 62
     7
 10
3.03734405394984
 20
-2.50450902139715
 30
0.0
  0
VERTEX
  5
309
  8
0
  6
CONTINUOUS
 62
     7
 10
3.03731956179765
 20
-2.5021004929719
 30
0.0
  0
VERTEX
  5
30A
  8
0
  6
CONTINUOUS
 62
     7
 10
3.03729522030247
 20
-2.49969196300956
 30
0.0
  0
VERTEX
  5
30B
  8
0
  6
CONTINUOUS
 62
     7
 10
3.03727102793372
 20
-2.49728343153506
 30
0.0
  0
VERTEX
  5
30C
  8
0
  6
CONTINUOUS
 62
     7
 10
3.03724698316082
 20
-2.49487489857331
 30
0.0
  0
VERTEX
  5
30D
  8
0
  6
CONTINUOUS
 62
     7
 10
3.03722308445319
 20
-2.49246636414923
 30
0.0
  0
VERTEX
  5
30E
  8
0
  6
CONTINUOUS
 62
     7
 10
3.03719933036546
 20
-2.490057828287
 30
0.0
  0
VERTEX
  5
30F
  8
0
  6
CONTINUOUS
 62
     7
 10
3.03717572143013
 20
-2.48764929099335
 30
0.0
  0
VERTEX
  5
310
  8
0
  6
CONTINUOUS
 62
     7
 10
3.03715226016765
 20
-2.48524075225748
 30
0.0
  0
VERTEX
  5
311
  8
0
  6
CONTINUOUS
 62
     7
 10
3.0371289491857
 20
-2.48283221206783
 30
0.0
  0
VERTEX
  5
312
  8
0
  6
CONTINUOUS
 62
     7
 10
3.03710579109198
 20
-2.48042367041283
 30
0.0
  0
VERTEX
  5
313
  8
0
  6
CONTINUOUS
 62
     7
 10
3.03708278849415
 20
-2.47801512728092
 30
0.0
  0
VERTEX
  5
314
  8
0
  6
CONTINUOUS
 62
     7
 10
3.03705994399991
 20
-2.47560658266053
 30
0.0
  0
VERTEX
  5
315
  8
0
  6
CONTINUOUS
 62
     7
 10
3.03703726021693
 20
-2.47319803654009
 30
0.0
  0
VERTEX
  5
316
  8
0
  6
CONTINUOUS
 62
     7
 10
3.03701473975289
 20
-2.47078948890804
 30
0.0
  0
VERTEX
  5
317
  8
0
  6
CONTINUOUS
 62
     7
 10
3.03699238521548
 20
-2.46838093975282
 30
0.0
  0
VERTEX
  5
318
  8
0
  6
CONTINUOUS
 62
     7
 10
3.03697019921238
 20
-2.46597238906285
 30
0.0
  0
VERTEX
  5
319
  8
0
  6
CONTINUOUS
 62
     7
 10
3.03694818435127
 20
-2.46356383682658
 30
0.0
  0
VERTEX
  5
31A
  8
0
  6
CONTINUOUS
 62
     7
 10
3.03692634323984
 20
-2.46115528303244
 30
0.0
  0
VERTEX
  5
31B
  8
0
  6
CONTINUOUS
 62
     7
 10
3.03690467848575
 20
-2.45874672766885
 30
0.0
  0
VERTEX
  5
31C
  8
0
  6
CONTINUOUS
 62
     7
 10
3.03688319252236
 20
-2.45633817072567
 30
0.0
  0
VERTEX
  5
31D
  8
0
  6
CONTINUOUS
 62
     7
 10
3.03686188140392
 20
-2.45392961224405
 30
0.0
  0
VERTEX
  5
31E
  8
0
  6
CONTINUOUS
 62
     7
 10
3.03684073312155
 20
-2.45152105233001
 30
0.0
  0
VERTEX
  5
31F
  8
0
  6
CONTINUOUS
 62
     7
 10
3.0368197351494
 20
-2.44911249109374
 30
0.0
  0
VERTEX
  5
320
  8
0
  6
CONTINUOUS
 62
     7
 10
3.03679887496161
 20
-2.44670392864542
 30
0.0
  0
VERTEX
  5
321
  8
0
  6
CONTINUOUS
 62
     7
 10
3.03677814003233
 20
-2.44429536509525
 30
0.0
  0
VERTEX
  5
322
  8
0
  6
CONTINUOUS
 62
     7
 10
3.03675751783572
 20
-2.4418868005534
 30
0.0
  0
VERTEX
  5
323
  8
0
  6
CONTINUOUS
 62
     7
 10
3.03673699584591
 20
-2.43947823513007
 30
0.0
  0
VERTEX
  5
324
  8
0
  6
CONTINUOUS
 62
     7
 10
3.03671656153707
 20
-2.43706966893543
 30
0.0
  0
VERTEX
  5
325
  8
0
  6
CONTINUOUS
 62
     7
 10
3.03669620238334
 20
-2.43466110207969
 30
0.0
  0
VERTEX
  5
326
  8
0
  6
CONTINUOUS
 62
     7
 10
3.03667590585886
 20
-2.43225253467301
 30
0.0
  0
VERTEX
  5
327
  8
0
  6
CONTINUOUS
 62
     7
 10
3.03665565943778
 20
-2.42984396682559
 30
0.0
  0
VERTEX
  5
328
  8
0
  6
CONTINUOUS
 62
     7
 10
3.03663545059426
 20
-2.42743539864761
 30
0.0
  0
VERTEX
  5
329
  8
0
  6
CONTINUOUS
 62
     7
 10
3.03661526680245
 20
-2.42502683024926
 30
0.0
  0
VERTEX
  5
32A
  8
0
  6
CONTINUOUS
 62
     7
 10
3.03659509553648
 20
-2.42261826174072
 30
0.0
  0
SEQEND
  5
32B
  8
0
  6
CONTINUOUS
 62
     7
  0
POLYLINE
  5
11C
  8
0
  6
CONTINUOUS
 62
     7
 66
     1
 10
0.0
 20
0.0
 30
0.0
  0
VERTEX
  5
32C
  8
0
  6
CONTINUOUS
 62
     7
 10
48.94758524319587
 20
-2.99999999999992
 30
0.0
  0
VERTEX
  5
32D
  8
0
  6
CONTINUOUS
 62
     7
 10
48.94874207067151
 20
-2.99803547136641
 30
0.0
  0
VERTEX
  5
32E
  8
0
  6
CONTINUOUS
 62
     7
 10
48.949185070834
 20
-2.99571364004922
 30
0.0
  0
VERTEX
  5
32F
  8
0
  6
CONTINUOUS
 62
     7
 10
48.9495906367689
 20
-2.99342888898384
 30
0.0
  0
VERTEX
  5
330
  8
0
  6
CONTINUOUS
 62
     7
 10
48.94990484140852
 20
-2.9911140940696
 30
0.0
  0
VERTEX
  5
331
  8
0
  6
CONTINUOUS
 62
     7
 10
48.95018900199523
 20
-2.98880097999568
 30
0.0
  0
VERTEX
  5
332
  8
0
  6
CONTINUOUS
 62
     7
 10
48.95044639976839
 20
-2.98648562619957
 30
0.0
  0
VERTEX
  5
333
  8
0
  6
CONTINUOUS
 62
     7
 10
48.95067985863767
 20
-2.98416611618835
 30
0.0
  0
VERTEX
  5
334
  8
0
  6
CONTINUOUS
 62
     7
 10
48.95089599520384
 20
-2.98184465288008
 30
0.0
  0
VERTEX
  5
335
  8
0
  6
CONTINUOUS
 62
     7
 10
48.95109926003713
 20
-2.97952249994694
 30
0.0
  0
VERTEX
  5
336
  8
0
  6
CONTINUOUS
 62
     7
 10
48.95129127872294
 20
-2.97719961999211
 30
0.0
  0
VERTEX
  5
337
  8
0
  6
CONTINUOUS
 62
     7
 10
48.95147347581636
 20
-2.97487590852526
 30
0.0
  0
VERTEX
  5
338
  8
0
  6
CONTINUOUS
 62
     7
 10
48.95164702500647
 20
-2.972551422561
 30
0.0
  0
VERTEX
  5
339
  8
0
  6
CONTINUOUS
 62
     7
 10
48.9518129460655
 20
-2.97022631820401
 30
0.0
  0
VERTEX
  5
33A
  8
0
  6
CONTINUOUS
 62
     7
 10
48.95197225217735
 20
-2.96790075198393
 30
0.0
  0
VERTEX
  5
33B
  8
0
  6
CONTINUOUS
 62
     7
 10
48.95212573828262
 20
-2.96557482976267
 30
0.0
  0
VERTEX
  5
33C
  8
0
  6
CONTINUOUS
 62
     7
 10
48.95227388378137
 20
-2.96324858414569
 30
0.0
  0
VERTEX
  5
33D
  8
0
  6
CONTINUOUS
 62
     7
 10
48.95241714342412
 20
-2.96092204201577
 30
0.0
  0
VERTEX
  5
33E
  8
0
  6
CONTINUOUS
 62
     7
 10
48.95255597024066
 20
-2.95859523021421
 30
0.0
  0
VERTEX
  5
33F
  8
0
  6
CONTINUOUS
 62
     7
 10
48.95269074026321
 20
-2.95626817372678
 30
0.0
  0
VERTEX
  5
340
  8
0
  6
CONTINUOUS
 62
     7
 10
48.95282172322933
 20
-2.95394089497768
 30
0.0
  0
VERTEX
  5
341
  8
0
  6
CONTINUOUS
 62
     7
 10
48.95294918110477
 20
-2.95161341620379
 30
0.0
  0
VERTEX
  5
342
  8
0
  6
CONTINUOUS
 62
     7
 10
48.95307337585527
 20
-2.94928575964202
 30
0.0
  0
VERTEX
  5
343
  8
0
  6
CONTINUOUS
 62
     7
 10
48.9531945632372
 20
-2.94695794684678
 30
0.0
  0
VERTEX
  5
344
  8
0
  6
CONTINUOUS
 62
     7
 10
48.95331292968274
 20
-2.9446299917528
 30
0.0
  0
VERTEX
  5
345
  8
0
  6
CONTINUOUS
 62
     7
 10
48.9534286182202
 20
-2.94230190352417
 30
0.0
  0
VERTEX
  5
346
  8
0
  6
CONTINUOUS
 62
     7
 10
48.9535417712116
 20
-2.93997369125174
 30
0.0
  0
VERTEX
  5
347
  8
0
  6
CONTINUOUS
 62
     7
 10
48.953652531019
 20
-2.93764536402636
 30
0.0
  0
VERTEX
  5
348
  8
0
  6
CONTINUOUS
 62
     7
 10
48.95376104000439
 20
-2.93531693093886
 30
0.0
  0
VERTEX
  5
349
  8
0
  6
CONTINUOUS
 62
     7
 10
48.95386743575308
 20
-2.9329884007544
 30
0.0
  0
VERTEX
  5
34A
  8
0
  6
CONTINUOUS
 62
     7
 10
48.95397181821928
 20
-2.93065977967217
 30
0.0
  0
VERTEX
  5
34B
  8
0
  6
CONTINUOUS
 62
     7
 10
48.95407426953503
 20
-2.92833107267612
 30
0.0
  0
VERTEX
  5
34C
  8
0
  6
CONTINUOUS
 62
     7
 10
48.9541748717256
 20
-2.92600228474295
 30
0.0
  0
VERTEX
  5
34D
  8
0
  6
CONTINUOUS
 62
     7
 10
48.95427370681629
 20
-2.92367342084934
 30
0.0
  0
VERTEX
  5
34E
  8
0
  6
CONTINUOUS
 62
     7
 10
48.9543708568324
 20
-2.92134448597198
 30
0.0
  0
VERTEX
  5
34F
  8
0
  6
CONTINUOUS
 62
     7
 10
48.95446640374288
 20
-2.91901548508348
 30
0.0
  0
VERTEX
  5
350
  8
0
  6
CONTINUOUS
 62
     7
 10
48.95456042012493
 20
-2.9166864224785
 30
0.0
  0
VERTEX
  5
351
  8
0
  6
CONTINUOUS
 62
     7
 10
48.95465295873237
 20
-2.91435730102072
 30
0.0
  0
VERTEX
  5
352
  8
0
  6
CONTINUOUS
 62
     7
 10
48.95474406980377
 20
-2.91202812339227
 30
0.0
  0
VERTEX
  5
353
  8
0
  6
CONTINUOUS
 62
     7
 10
48.95483380357769
 20
-2.90969889227525
 30
0.0
  0
VERTEX
  5
354
  8
0
  6
CONTINUOUS
 62
     7
 10
48.95492221029267
 20
-2.90736961035177
 30
0.0
  0
VERTEX
  5
355
  8
0
  6
CONTINUOUS
 62
     7
 10
48.95500934018731
 20
-2.90504028030396
 30
0.0
  0
VERTEX
  5
356
  8
0
  6
CONTINUOUS
 62
     7
 10
48.95509524350015
 20
-2.90271090481392
 30
0.0
  0
VERTEX
  5
357
  8
0
  6
CONTINUOUS
 62
     7
 10
48.95517996740616
 20
-2.90038148637719
 30
0.0
  0
VERTEX
  5
358
  8
0
  6
CONTINUOUS
 62
     7
 10
48.95526354704881
 20
-2.89805202675652
 30
0.0
  0
VERTEX
  5
359
  8
0
  6
CONTINUOUS
 62
     7
 10
48.95534601461839
 20
-2.89572252753481
 30
0.0
  0
VERTEX
  5
35A
  8
0
  6
CONTINUOUS
 62
     7
 10
48.95542740230519
 20
-2.89339299029495
 30
0.0
  0
VERTEX
  5
35B
  8
0
  6
CONTINUOUS
 62
     7
 10
48.95550774229951
 20
-2.89106341661984
 30
0.0
  0
VERTEX
  5
35C
  8
0
  6
CONTINUOUS
 62
     7
 10
48.95558706679164
 20
-2.88873380809239
 30
0.0
  0
VERTEX
  5
35D
  8
0
  6
CONTINUOUS
 62
     7
 10
48.95566540797187
 20
-2.88640416629548
 30
0.0
  0
VERTEX
  5
35E
  8
0
  6
CONTINUOUS
 62
     7
 10
48.95574279802464
 20
-2.88407449281167
 30
0.0
  0
VERTEX
  5
35F
  8
0
  6
CONTINUOUS
 62
     7
 10
48.95581926643655
 20
-2.88174478906877
 30
0.0
  0
VERTEX
  5
360
  8
0
  6
CONTINUOUS
 62
     7
 10
48.95589483572649
 20
-2.87941505609487
 30
0.0
  0
VERTEX
  5
361
  8
0
  6
CONTINUOUS
 62
     7
 10
48.95596952730357
 20
-2.8770852948544
 30
0.0
  0
VERTEX
  5
362
  8
0
  6
CONTINUOUS
 62
     7
 10
48.95604336257691
 20
-2.87475550631178
 30
0.0
  0
VERTEX
  5
363
  8
0
  6
CONTINUOUS
 62
     7
 10
48.95611636295561
 20
-2.87242569143146
 30
0.0
  0
VERTEX
  5
364
  8
0
  6
CONTINUOUS
 62
     7
 10
48.95618854984878
 20
-2.87009585117786
 30
0.0
  0
VERTEX
  5
365
  8
0
  6
CONTINUOUS
 62
     7
 10
48.95625994466551
 20
-2.86776598651542
 30
0.0
  0
VERTEX
  5
366
  8
0
  6
CONTINUOUS
 62
     7
 10
48.95633056881493
 20
-2.86543609840855
 30
0.0
  0
VERTEX
  5
367
  8
0
  6
CONTINUOUS
 62
     7
 10
48.95640044339795
 20
-2.8631061878052
 30
0.0
  0
VERTEX
  5
368
  8
0
  6
CONTINUOUS
 62
     7
 10
48.95646958579233
 20
-2.86077625545395
 30
0.0
  0
VERTEX
  5
369
  8
0
  6
CONTINUOUS
 62
     7
 10
48.95653801090511
 20
-2.85844630197109
 30
0.0
  0
VERTEX
  5
36A
  8
0
  6
CONTINUOUS
 62
     7
 10
48.95660573359898
 20
-2.85611632797056
 30
0.0
  0
VERTEX
  5
36B
  8
0
  6
CONTINUOUS
 62
     7
 10
48.95667276873667
 20
-2.85378633406627
 30
0.0
  0
VERTEX
  5
36C
  8
0
  6
CONTINUOUS
 62
     7
 10
48.95673913118086
 20
-2.85145632087216
 30
0.0
  0
VERTEX
  5
36D
  8
0
  6
CONTINUOUS
 62
     7
 10
48.95680483579424
 20
-2.84912628900215
 30
0.0
  0
VERTEX
  5
36E
  8
0
  6
CONTINUOUS
 62
     7
 10
48.95686989743952
 20
-2.84679623907017
 30
0.0
  0
VERTEX
  5
36F
  8
0
  6
CONTINUOUS
 62
     7
 10
48.9569343309794
 20
-2.84446617169013
 30
0.0
  0
VERTEX
  5
370
  8
0
  6
CONTINUOUS
 62
     7
 10
48.95699815115415
 20
-2.84213608747031
 30
0.0
  0
VERTEX
  5
371
  8
0
  6
CONTINUOUS
 62
     7
 10
48.95706137034158
 20
-2.83980598690967
 30
0.0
  0
VERTEX
  5
372
  8
0
  6
CONTINUOUS
 62
     7
 10
48.95712399878432
 20
-2.8374758704084
 30
0.0
  0
VERTEX
  5
373
  8
0
  6
CONTINUOUS
 62
     7
 10
48.95718604664816
 20
-2.83514573836316
 30
0.0
  0
VERTEX
  5
374
  8
0
  6
CONTINUOUS
 62
     7
 10
48.95724752409893
 20
-2.83281559117058
 30
0.0
  0
VERTEX
  5
375
  8
0
  6
CONTINUOUS
 62
     7
 10
48.95730844130243
 20
-2.8304854292273
 30
0.0
  0
VERTEX
  5
376
  8
0
  6
CONTINUOUS
 62
     7
 10
48.95736880842446
 20
-2.82815525292997
 30
0.0
  0
VERTEX
  5
377
  8
0
  6
CONTINUOUS
 62
     7
 10
48.95742863563086
 20
-2.82582506267523
 30
0.0
  0
VERTEX
  5
378
  8
0
  6
CONTINUOUS
 62
     7
 10
48.95748793308741
 20
-2.82349485885971
 30
0.0
  0
VERTEX
  5
379
  8
0
  6
CONTINUOUS
 62
     7
 10
48.95754671095994
 20
-2.82116464188006
 30
0.0
  0
VERTEX
  5
37A
  8
0
  6
CONTINUOUS
 62
     7
 10
48.95760497941424
 20
-2.81883441213293
 30
0.0
  0
VERTEX
  5
37B
  8
0
  6
CONTINUOUS
 62
     7
 10
48.95766274861577
 20
-2.81650417001493
 30
0.0
  0
VERTEX
  5
37C
  8
0
  6
CONTINUOUS
 62
     7
 10
48.95772002805619
 20
-2.81417391589074
 30
0.0
  0
VERTEX
  5
37D
  8
0
  6
CONTINUOUS
 62
     7
 10
48.95777682515939
 20
-2.81184365002698
 30
0.0
  0
VERTEX
  5
37E
  8
0
  6
CONTINUOUS
 62
     7
 10
48.95783314695393
 20
-2.80951337267149
 30
0.0
  0
VERTEX
  5
37F
  8
0
  6
CONTINUOUS
 62
     7
 10
48.95788900046838
 20
-2.80718308407215
 30
0.0
  0
VERTEX
  5
380
  8
0
  6
CONTINUOUS
 62
     7
 10
48.95794439273127
 20
-2.80485278447683
 30
0.0
  0
VERTEX
  5
381
  8
0
  6
CONTINUOUS
 62
     7
 10
48.95799933077118
 20
-2.80252247413338
 30
0.0
  0
VERTEX
  5
382
  8
0
  6
CONTINUOUS
 62
     7
 10
48.95805382161664
 20
-2.80019215328967
 30
0.0
  0
VERTEX
  5
383
  8
0
  6
CONTINUOUS
 62
     7
 10
48.95810787229623
 20
-2.79786182219356
 30
0.0
  0
VERTEX
  5
384
  8
0
  6
CONTINUOUS
 62
     7
 10
48.95816148983848
 20
-2.79553148109292
 30
0.0
  0
VERTEX
  5
385
  8
0
  6
CONTINUOUS
 62
     7
 10
48.95821468127196
 20
-2.79320113023561
 30
0.0
  0
VERTEX
  5
386
  8
0
  6
CONTINUOUS
 62
     7
 10
48.95826745362521
 20
-2.79087076986949
 30
0.0
  0
VERTEX
  5
387
  8
0
  6
CONTINUOUS
 62
     7
 10
48.95831981387805
 20
-2.78854040024046
 30
0.0
  0
VERTEX
  5
388
  8
0
  6
CONTINUOUS
 62
     7
 10
48.95837176806748
 20
-2.78621002155619
 30
0.0
  0
VERTEX
  5
389
  8
0
  6
CONTINUOUS
 62
     7
 10
48.9584233213773
 20
-2.78387963398981
 30
0.0
  0
VERTEX
  5
38A
  8
0
  6
CONTINUOUS
 62
     7
 10
48.9584744789606
 20
-2.78154923771318
 30
0.0
  0
VERTEX
  5
38B
  8
0
  6
CONTINUOUS
 62
     7
 10
48.95852524597037
 20
-2.77921883289817
 30
0.0
  0
VERTEX
  5
38C
  8
0
  6
CONTINUOUS
 62
     7
 10
48.95857562755969
 20
-2.77688841971665
 30
0.0
  0
VERTEX
  5
38D
  8
0
  6
CONTINUOUS
 62
     7
 10
48.95862562888161
 20
-2.77455799834049
 30
0.0
  0
VERTEX
  5
38E
  8
0
  6
CONTINUOUS
 62
     7
 10
48.95867525508915
 20
-2.77222756894155
 30
0.0
  0
VERTEX
  5
38F
  8
0
  6
CONTINUOUS
 62
     7
 10
48.95872451133538
 20
-2.76989713169171
 30
0.0
  0
VERTEX
  5
390
  8
0
  6
CONTINUOUS
 62
     7
 10
48.95877340277335
 20
-2.76756668676283
 30
0.0
  0
VERTEX
  5
391
  8
0
  6
CONTINUOUS
 62
     7
 10
48.95882193455608
 20
-2.76523623432678
 30
0.0
  0
VERTEX
  5
392
  8
0
  6
CONTINUOUS
 62
     7
 10
48.95887011183658
 20
-2.76290577455542
 30
0.0
  0
VERTEX
  5
393
  8
0
  6
CONTINUOUS
 62
     7
 10
48.95891793951669
 20
-2.76057530761073
 30
0.0
  0
VERTEX
  5
394
  8
0
  6
CONTINUOUS
 62
     7
 10
48.95896542165952
 20
-2.75824483362158
 30
0.0
  0
VERTEX
  5
395
  8
0
  6
CONTINUOUS
 62
     7
 10
48.95901256215342
 20
-2.75591435270996
 30
0.0
  0
VERTEX
  5
396
  8
0
  6
CONTINUOUS
 62
     7
 10
48.9590593648867
 20
-2.75358386499787
 30
0.0
  0
VERTEX
  5
397
  8
0
  6
CONTINUOUS
 62
     7
 10
48.95910583374768
 20
-2.7512533706073
 30
0.0
  0
VERTEX
  5
398
  8
0
  6
CONTINUOUS
 62
     7
 10
48.95915197262468
 20
-2.74892286966023
 30
0.0
  0
VERTEX
  5
399
  8
0
  6
CONTINUOUS
 62
     7
 10
48.95919778540602
 20
-2.74659236227865
 30
0.0
  0
VERTEX
  5
39A
  8
0
  6
CONTINUOUS
 62
     7
 10
48.95924327598002
 20
-2.74426184858457
 30
0.0
  0
VERTEX
  5
39B
  8
0
  6
CONTINUOUS
 62
     7
 10
48.95928844823501
 20
-2.74193132869996
 30
0.0
  0
VERTEX
  5
39C
  8
0
  6
CONTINUOUS
 62
     7
 10
48.9593333060593
 20
-2.73960080274682
 30
0.0
  0
VERTEX
  5
39D
  8
0
  6
CONTINUOUS
 62
     7
 10
48.95937785334121
 20
-2.73727027084714
 30
0.0
  0
VERTEX
  5
39E
  8
0
  6
CONTINUOUS
 62
     7
 10
48.95942209388892
 20
-2.73493973312004
 30
0.0
  0
VERTEX
  5
39F
  8
0
  6
CONTINUOUS
 62
     7
 10
48.95946603097102
 20
-2.73260918966536
 30
0.0
  0
VERTEX
  5
3A0
  8
0
  6
CONTINUOUS
 62
     7
 10
48.95950966763353
 20
-2.73027864057496
 30
0.0
  0
VERTEX
  5
3A1
  8
0
  6
CONTINUOUS
 62
     7
 10
48.95955300692175
 20
-2.7279480859407
 30
0.0
  0
VERTEX
  5
3A2
  8
0
  6
CONTINUOUS
 62
     7
 10
48.959596051881
 20
-2.72561752585443
 30
0.0
  0
VERTEX
  5
3A3
  8
0
  6
CONTINUOUS
 62
     7
 10
48.95963880555659
 20
-2.72328696040798
 30
0.0
  0
VERTEX
  5
3A4
  8
0
  6
CONTINUOUS
 62
     7
 10
48.9596812709938
 20
-2.72095638969321
 30
0.0
  0
VERTEX
  5
3A5
  8
0
  6
CONTINUOUS
 62
     7
 10
48.95972345123798
 20
-2.71862581380197
 30
0.0
  0
VERTEX
  5
3A6
  8
0
  6
CONTINUOUS
 62
     7
 10
48.95976534933442
 20
-2.7162952328261
 30
0.0
  0
VERTEX
  5
3A7
  8
0
  6
CONTINUOUS
 62
     7
 10
48.95980696832842
 20
-2.71396464685745
 30
0.0
  0
VERTEX
  5
3A8
  8
0
  6
CONTINUOUS
 62
     7
 10
48.9598483112653
 20
-2.71163405598786
 30
0.0
  0
VERTEX
  5
3A9
  8
0
  6
CONTINUOUS
 62
     7
 10
48.95988938110033
 20
-2.70930346030535
 30
0.0
  0
VERTEX
  5
3AA
  8
0
  6
CONTINUOUS
 62
     7
 10
48.9599301804485
 20
-2.70697285988339
 30
0.0
  0
VERTEX
  5
3AB
  8
0
  6
CONTINUOUS
 62
     7
 10
48.9599707118444
 20
-2.70464225479205
 30
0.0
  0
VERTEX
  5
3AC
  8
0
  6
CONTINUOUS
 62
     7
 10
48.96001097782263
 20
-2.70231164510136
 30
0.0
  0
VERTEX
  5
3AD
  8
0
  6
CONTINUOUS
 62
     7
 10
48.96005098091779
 20
-2.6999810308814
 30
0.0
  0
VERTEX
  5
3AE
  8
0
  6
CONTINUOUS
 62
     7
 10
48.96009072366449
 20
-2.69765041220221
 30
0.0
  0
VERTEX
  5
3AF
  8
0
  6
CONTINUOUS
 62
     7
 10
48.96013020859733
 20
-2.69531978913385
 30
0.0
  0
VERTEX
  5
3B0
  8
0
  6
CONTINUOUS
 62
     7
 10
48.96016943825091
 20
-2.69298916174638
 30
0.0
  0
VERTEX
  5
3B1
  8
0
  6
CONTINUOUS
 62
     7
 10
48.96020841515982
 20
-2.69065853010983
 30
0.0
  0
VERTEX
  5
3B2
  8
0
  6
CONTINUOUS
 62
     7
 10
48.96024714185868
 20
-2.68832789429428
 30
0.0
  0
VERTEX
  5
3B3
  8
0
  6
CONTINUOUS
 62
     7
 10
48.96028562083338
 20
-2.68599725436853
 30
0.0
  0
VERTEX
  5
3B4
  8
0
  6
CONTINUOUS
 62
     7
 10
48.96032385421327
 20
-2.68366661039234
 30
0.0
  0
VERTEX
  5
3B5
  8
0
  6
CONTINUOUS
 62
     7
 10
48.96036184396925
 20
-2.6813359624214
 30
0.0
  0
VERTEX
  5
3B6
  8
0
  6
CONTINUOUS
 62
     7
 10
48.96039959207146
 20
-2.67900531051141
 30
0.0
  0
VERTEX
  5
3B7
  8
0
  6
CONTINUOUS
 62
     7
 10
48.96043710049008
 20
-2.67667465471808
 30
0.0
  0
VERTEX
  5
3B8
  8
0
  6
CONTINUOUS
 62
     7
 10
48.96047437119524
 20
-2.67434399509708
 30
0.0
  0
VERTEX
  5
3B9
  8
0
  6
CONTINUOUS
 62
     7
 10
48.96051140615712
 20
-2.67201333170411
 30
0.0
  0
VERTEX
  5
3BA
  8
0
  6
CONTINUOUS
 62
     7
 10
48.96054820734587
 20
-2.66968266459487
 30
0.0
  0
VERTEX
  5
3BB
  8
0
  6
CONTINUOUS
 62
     7
 10
48.96058477673166
 20
-2.66735199382505
 30
0.0
  0
VERTEX
  5
3BC
  8
0
  6
CONTINUOUS
 62
     7
 10
48.96062111628464
 20
-2.66502131945034
 30
0.0
  0
VERTEX
  5
3BD
  8
0
  6
CONTINUOUS
 62
     7
 10
48.96065722797497
 20
-2.66269064152643
 30
0.0
  0
VERTEX
  5
3BE
  8
0
  6
CONTINUOUS
 62
     7
 10
48.96069311377281
 20
-2.66035996010902
 30
0.0
  0
VERTEX
  5
3BF
  8
0
  6
CONTINUOUS
 62
     7
 10
48.9607287756483
 20
-2.6580292752538
 30
0.0
  0
VERTEX
  5
3C0
  8
0
  6
CONTINUOUS
 62
     7
 10
48.96076421557163
 20
-2.65569858701646
 30
0.0
  0
VERTEX
  5
3C1
  8
0
  6
CONTINUOUS
 62
     7
 10
48.96079943551294
 20
-2.6533678954527
 30
0.0
  0
VERTEX
  5
3C2
  8
0
  6
CONTINUOUS
 62
     7
 10
48.9608344374419
 20
-2.65103720061819
 30
0.0
  0
VERTEX
  5
3C3
  8
0
  6
CONTINUOUS
 62
     7
 10
48.96086922319601
 20
-2.64870650256393
 30
0.0
  0
VERTEX
  5
3C4
  8
0
  6
CONTINUOUS
 62
     7
 10
48.96090379430402
 20
-2.64637580132996
 30
0.0
  0
VERTEX
  5
3C5
  8
0
  6
CONTINUOUS
 62
     7
 10
48.96093815225061
 20
-2.64404509695479
 30
0.0
  0
VERTEX
  5
3C6
  8
0
  6
CONTINUOUS
 62
     7
 10
48.96097229852048
 20
-2.6417143894769
 30
0.0
  0
VERTEX
  5
3C7
  8
0
  6
CONTINUOUS
 62
     7
 10
48.96100623459833
 20
-2.63938367893479
 30
0.0
  0
VERTEX
  5
3C8
  8
0
  6
CONTINUOUS
 62
     7
 10
48.96103996196883
 20
-2.63705296536695
 30
0.0
  0
VERTEX
  5
3C9
  8
0
  6
CONTINUOUS
 62
     7
 10
48.96107348211669
 20
-2.63472224881187
 30
0.0
  0
VERTEX
  5
3CA
  8
0
  6
CONTINUOUS
 62
     7
 10
48.96110679652659
 20
-2.63239152930806
 30
0.0
  0
VERTEX
  5
3CB
  8
0
  6
CONTINUOUS
 62
     7
 10
48.96113990668323
 20
-2.63006080689399
 30
0.0
  0
VERTEX
  5
3CC
  8
0
  6
CONTINUOUS
 62
     7
 10
48.9611728140713
 20
-2.62773008160816
 30
0.0
  0
VERTEX
  5
3CD
  8
0
  6
CONTINUOUS
 62
     7
 10
48.9612055201755
 20
-2.62539935348908
 30
0.0
  0
VERTEX
  5
3CE
  8
0
  6
CONTINUOUS
 62
     7
 10
48.96123802648052
 20
-2.62306862257522
 30
0.0
  0
VERTEX
  5
3CF
  8
0
  6
CONTINUOUS
 62
     7
 10
48.96127033447104
 20
-2.62073788890509
 30
0.0
  0
VERTEX
  5
3D0
  8
0
  6
CONTINUOUS
 62
     7
 10
48.96130244563177
 20
-2.61840715251717
 30
0.0
  0
VERTEX
  5
3D1
  8
0
  6
CONTINUOUS
 62
     7
 10
48.96133436144738
 20
-2.61607641344997
 30
0.0
  0
VERTEX
  5
3D2
  8
0
  6
CONTINUOUS
 62
     7
 10
48.96136608340259
 20
-2.61374567174196
 30
0.0
  0
VERTEX
  5
3D3
  8
0
  6
CONTINUOUS
 62
     7
 10
48.96139761294794
 20
-2.61141492743055
 30
0.0
  0
VERTEX
  5
3D4
  8
0
  6
CONTINUOUS
 62
     7
 10
48.9614289513538
 20
-2.60908418054732
 30
0.0
  0
VERTEX
  5
3D5
  8
0
  6
CONTINUOUS
 62
     7
 10
48.96146009983124
 20
-2.60675343112193
 30
0.0
  0
VERTEX
  5
3D6
  8
0
  6
CONTINUOUS
 62
     7
 10
48.9614910595913
 20
-2.60442267918405
 30
0.0
  0
VERTEX
  5
3D7
  8
0
  6
CONTINUOUS
 62
     7
 10
48.96152183184503
 20
-2.60209192476335
 30
0.0
  0
VERTEX
  5
3D8
  8
0
  6
CONTINUOUS
 62
     7
 10
48.96155241780347
 20
-2.59976116788949
 30
0.0
  0
VERTEX
  5
3D9
  8
0
  6
CONTINUOUS
 62
     7
 10
48.96158281867766
 20
-2.59743040859214
 30
0.0
  0
VERTEX
  5
3DA
  8
0
  6
CONTINUOUS
 62
     7
 10
48.96161303567865
 20
-2.59509964690096
 30
0.0
  0
VERTEX
  5
3DB
  8
0
  6
CONTINUOUS
 62
     7
 10
48.96164307001749
 20
-2.59276888284563
 30
0.0
  0
VERTEX
  5
3DC
  8
0
  6
CONTINUOUS
 62
     7
 10
48.96167292290521
 20
-2.59043811645581
 30
0.0
  0
VERTEX
  5
3DD
  8
0
  6
CONTINUOUS
 62
     7
 10
48.96170259555286
 20
-2.58810734776117
 30
0.0
  0
VERTEX
  5
3DE
  8
0
  6
CONTINUOUS
 62
     7
 10
48.96173208917148
 20
-2.58577657679137
 30
0.0
  0
VERTEX
  5
3DF
  8
0
  6
CONTINUOUS
 62
     7
 10
48.96176140497212
 20
-2.58344580357608
 30
0.0
  0
VERTEX
  5
3E0
  8
0
  6
CONTINUOUS
 62
     7
 10
48.96179054416582
 20
-2.58111502814496
 30
0.0
  0
VERTEX
  5
3E1
  8
0
  6
CONTINUOUS
 62
     7
 10
48.96181950796363
 20
-2.5787842505277
 30
0.0
  0
VERTEX
  5
3E2
  8
0
  6
CONTINUOUS
 62
     7
 10
48.96184829757658
 20
-2.57645347075394
 30
0.0
  0
VERTEX
  5
3E3
  8
0
  6
CONTINUOUS
 62
     7
 10
48.96187691421571
 20
-2.57412268885336
 30
0.0
  0
VERTEX
  5
3E4
  8
0
  6
CONTINUOUS
 62
     7
 10
48.9619053590141
 20
-2.5717919048541
 30
0.0
  0
VERTEX
  5
3E5
  8
0
  6
CONTINUOUS
 62
     7
 10
48.96193363279869
 20
-2.56946111877831
 30
0.0
  0
VERTEX
  5
3E6
  8
0
  6
CONTINUOUS
 62
     7
 10
48.96196173632138
 20
-2.56713033064671
 30
0.0
  0
VERTEX
  5
3E7
  8
0
  6
CONTINUOUS
 62
     7
 10
48.96198967033411
 20
-2.56479954047996
 30
0.0
  0
VERTEX
  5
3E8
  8
0
  6
CONTINUOUS
 62
     7
 10
48.96201743558875
 20
-2.56246874829878
 30
0.0
  0
VERTEX
  5
3E9
  8
0
  6
CONTINUOUS
 62
     7
 10
48.96204503283722
 20
-2.56013795412385
 30
0.0
  0
VERTEX
  5
3EA
  8
0
  6
CONTINUOUS
 62
     7
 10
48.96207246283142
 20
-2.55780715797586
 30
0.0
  0
VERTEX
  5
3EB
  8
0
  6
CONTINUOUS
 62
     7
 10
48.96209972632326
 20
-2.55547635987551
 30
0.0
  0
VERTEX
  5
3EC
  8
0
  6
CONTINUOUS
 62
     7
 10
48.96212682406464
 20
-2.55314555984349
 30
0.0
  0
VERTEX
  5
3ED
  8
0
  6
CONTINUOUS
 62
     7
 10
48.96215375680747
 20
-2.55081475790049
 30
0.0
  0
VERTEX
  5
3EE
  8
0
  6
CONTINUOUS
 62
     7
 10
48.96218052530365
 20
-2.54848395406721
 30
0.0
  0
VERTEX
  5
3EF
  8
0
  6
CONTINUOUS
 62
     7
 10
48.96220713030509
 20
-2.54615314836433
 30
0.0
  0
VERTEX
  5
3F0
  8
0
  6
CONTINUOUS
 62
     7
 10
48.96223357256369
 20
-2.54382234081256
 30
0.0
  0
VERTEX
  5
3F1
  8
0
  6
CONTINUOUS
 62
     7
 10
48.96225985283136
 20
-2.54149153143258
 30
0.0
  0
VERTEX
  5
3F2
  8
0
  6
CONTINUOUS
 62
     7
 10
48.96228597186
 20
-2.5391607202451
 30
0.0
  0
VERTEX
  5
3F3
  8
0
  6
CONTINUOUS
 62
     7
 10
48.9623119304015
 20
-2.53682990727079
 30
0.0
  0
VERTEX
  5
3F4
  8
0
  6
CONTINUOUS
 62
     7
 10
48.9623377292078
 20
-2.53449909253035
 30
0.0
  0
VERTEX
  5
3F5
  8
0
  6
CONTINUOUS
 62
     7
 10
48.96236336904298
 20
-2.53216827604452
 30
0.0
  0
VERTEX
  5
3F6
  8
0
  6
CONTINUOUS
 62
     7
 10
48.96238885093945
 20
-2.52983745783471
 30
0.0
  0
VERTEX
  5
3F7
  8
0
  6
CONTINUOUS
 62
     7
 10
48.96241417619127
 20
-2.52750663792306
 30
0.0
  0
VERTEX
  5
3F8
  8
0
  6
CONTINUOUS
 62
     7
 10
48.9624393461034
 20
-2.52517581633172
 30
0.0
  0
VERTEX
  5
3F9
  8
0
  6
CONTINUOUS
 62
     7
 10
48.96246436198079
 20
-2.52284499308284
 30
0.0
  0
VERTEX
  5
3FA
  8
0
  6
CONTINUOUS
 62
     7
 10
48.96248922512835
 20
-2.52051416819857
 30
0.0
  0
VERTEX
  5
3FB
  8
0
  6
CONTINUOUS
 62
     7
 10
48.96251393685107
 20
-2.51818334170107
 30
0.0
  0
VERTEX
  5
3FC
  8
0
  6
CONTINUOUS
 62
     7
 10
48.96253849845387
 20
-2.51585251361248
 30
0.0
  0
VERTEX
  5
3FD
  8
0
  6
CONTINUOUS
 62
     7
 10
48.96256291124168
 20
-2.51352168395496
 30
0.0
  0
VERTEX
  5
3FE
  8
0
  6
CONTINUOUS
 62
     7
 10
48.96258717651949
 20
-2.51119085275066
 30
0.0
  0
VERTEX
  5
3FF
  8
0
  6
CONTINUOUS
 62
     7
 10
48.96261129559221
 20
-2.50886002002173
 30
0.0
  0
VERTEX
  5
400
  8
0
  6
CONTINUOUS
 62
     7
 10
48.9626352697648
 20
-2.50652918579033
 30
0.0
  0
VERTEX
  5
401
  8
0
  6
CONTINUOUS
 62
     7
 10
48.96265910034219
 20
-2.50419835007861
 30
0.0
  0
VERTEX
  5
402
  8
0
  6
CONTINUOUS
 62
     7
 10
48.96268278862934
 20
-2.50186751290871
 30
0.0
  0
VERTEX
  5
403
  8
0
  6
CONTINUOUS
 62
     7
 10
48.96270633593119
 20
-2.4995366743028
 30
0.0
  0
VERTEX
  5
404
  8
0
  6
CONTINUOUS
 62
     7
 10
48.96272974355268
 20
-2.49720583428303
 30
0.0
  0
VERTEX
  5
405
  8
0
  6
CONTINUOUS
 62
     7
 10
48.96275301279876
 20
-2.49487499287154
 30
0.0
  0
VERTEX
  5
406
  8
0
  6
CONTINUOUS
 62
     7
 10
48.96277614497438
 20
-2.49254415009049
 30
0.0
  0
VERTEX
  5
407
  8
0
  6
CONTINUOUS
 62
     7
 10
48.96279914133004
 20
-2.49021330596154
 30
0.0
  0
VERTEX
  5
408
  8
0
  6
CONTINUOUS
 62
     7
 10
48.96282200149552
 20
-2.48788246049183
 30
0.0
  0
VERTEX
  5
409
  8
0
  6
CONTINUOUS
 62
     7
 10
48.96284472324393
 20
-2.48555161367185
 30
0.0
  0
VERTEX
  5
40A
  8
0
  6
CONTINUOUS
 62
     7
 10
48.96286730424651
 20
-2.48322076549119
 30
0.0
  0
VERTEX
  5
40B
  8
0
  6
CONTINUOUS
 62
     7
 10
48.96288974217446
 20
-2.48088991593942
 30
0.0
  0
VERTEX
  5
40C
  8
0
  6
CONTINUOUS
 62
     7
 10
48.96291203469903
 20
-2.47855906500613
 30
0.0
  0
VERTEX
  5
40D
  8
0
  6
CONTINUOUS
 62
     7
 10
48.96293417949143
 20
-2.4762282126809
 30
0.0
  0
VERTEX
  5
40E
  8
0
  6
CONTINUOUS
 62
     7
 10
48.96295617422288
 20
-2.4738973589533
 30
0.0
  0
VERTEX
  5
40F
  8
0
  6
CONTINUOUS
 62
     7
 10
48.96297801656463
 20
-2.47156650381292
 30
0.0
  0
VERTEX
  5
410
  8
0
  6
CONTINUOUS
 62
     7
 10
48.96299970418789
 20
-2.46923564724933
 30
0.0
  0
VERTEX
  5
411
  8
0
  6
CONTINUOUS
 62
     7
 10
48.96302123476388
 20
-2.46690478925213
 30
0.0
  0
VERTEX
  5
412
  8
0
  6
CONTINUOUS
 62
     7
 10
48.96304260596383
 20
-2.46457392981088
 30
0.0
  0
VERTEX
  5
413
  8
0
  6
CONTINUOUS
 62
     7
 10
48.96306381545897
 20
-2.46224306891517
 30
0.0
  0
VERTEX
  5
414
  8
0
  6
CONTINUOUS
 62
     7
 10
48.96308486092051
 20
-2.45991220655458
 30
0.0
  0
VERTEX
  5
415
  8
0
  6
CONTINUOUS
 62
     7
 10
48.96310574001969
 20
-2.45758134271869
 30
0.0
  0
VERTEX
  5
416
  8
0
  6
CONTINUOUS
 62
     7
 10
48.96312645203835
 20
-2.45525047741007
 30
0.0
  0
VERTEX
  5
417
  8
0
  6
CONTINUOUS
 62
     7
 10
48.9631470052203
 20
-2.45291961070356
 30
0.0
  0
VERTEX
  5
418
  8
0
  6
CONTINUOUS
 62
     7
 10
48.96316741090824
 20
-2.45058874269898
 30
0.0
  0
VERTEX
  5
419
  8
0
  6
CONTINUOUS
 62
     7
 10
48.96318768044787
 20
-2.44825787349619
 30
0.0
  0
VERTEX
  5
41A
  8
0
  6
CONTINUOUS
 62
     7
 10
48.96320782518489
 20
-2.44592700319503
 30
0.0
  0
VERTEX
  5
41B
  8
0
  6
CONTINUOUS
 62
     7
 10
48.96322785646498
 20
-2.44359613189536
 30
0.0
  0
VERTEX
  5
41C
  8
0
  6
CONTINUOUS
 62
     7
 10
48.96324778563384
 20
-2.44126525969703
 30
0.0
  0
VERTEX
  5
41D
  8
0
  6
CONTINUOUS
 62
     7
 10
48.96326762403717
 20
-2.43893438669988
 30
0.0
  0
VERTEX
  5
41E
  8
0
  6
CONTINUOUS
 62
     7
 10
48.96328738302064
 20
-2.43660351300378
 30
0.0
  0
VERTEX
  5
41F
  8
0
  6
CONTINUOUS
 62
     7
 10
48.96330707392996
 20
-2.43427263870858
 30
0.0
  0
VERTEX
  5
420
  8
0
  6
CONTINUOUS
 62
     7
 10
48.96332670811082
 20
-2.43194176391411
 30
0.0
  0
VERTEX
  5
421
  8
0
  6
CONTINUOUS
 62
     7
 10
48.96334629690892
 20
-2.42961088872025
 30
0.0
  0
VERTEX
  5
422
  8
0
  6
CONTINUOUS
 62
     7
 10
48.96336585166993
 20
-2.42728001322682
 30
0.0
  0
VERTEX
  5
423
  8
0
  6
CONTINUOUS
 62
     7
 10
48.96338538373955
 20
-2.4249491375337
 30
0.0
  0
VERTEX
  5
424
  8
0
  6
CONTINUOUS
 62
     7
 10
48.96340490446349
 20
-2.42261826174072
 30
0.0
  0
SEQEND
  5
425
  8
0
  6
CONTINUOUS
 62
     7
  0
POLYLINE
  5
11D
  8
0
  6
CONTINUOUS
 62
     7
 66
     1
 10
0.0
 20
0.0
 30
0.0
  0
VERTEX
  5
426
  8
0
  6
CONTINUOUS
 62
     7
 10
40.03659509553647
 20
-2.42261826174072
 30
0.0
  0
VERTEX
  5
427
  8
0
  6
CONTINUOUS
 62
     7
 10
40.03661190070858
 20
-2.42462540518798
 30
0.0
  0
VERTEX
  5
428
  8
0
  6
CONTINUOUS
 62
     7
 10
40.03662871320416
 20
-2.42663254857098
 30
0.0
  0
VERTEX
  5
429
  8
0
  6
CONTINUOUS
 62
     7
 10
40.03664554034663
 20
-2.42863969182546
 30
0.0
  0
VERTEX
  5
42A
  8
0
  6
CONTINUOUS
 62
     7
 10
40.03666238945949
 20
-2.43064683488715
 30
0.0
  0
VERTEX
  5
42B
  8
0
  6
CONTINUOUS
 62
     7
 10
40.03667926786616
 20
-2.4326539776918
 30
0.0
  0
VERTEX
  5
42C
  8
0
  6
CONTINUOUS
 62
     7
 10
40.0366961828901
 20
-2.43466112017513
 30
0.0
  0
VERTEX
  5
42D
  8
0
  6
CONTINUOUS
 62
     7
 10
40.03671314185479
 20
-2.4366682622729
 30
0.0
  0
VERTEX
  5
42E
  8
0
  6
CONTINUOUS
 62
     7
 10
40.03673015208366
 20
-2.43867540392084
 30
0.0
  0
VERTEX
  5
42F
  8
0
  6
CONTINUOUS
 62
     7
 10
40.03674722090017
 20
-2.44068254505469
 30
0.0
  0
VERTEX
  5
430
  8
0
  6
CONTINUOUS
 62
     7
 10
40.03676435562779
 20
-2.44268968561018
 30
0.0
  0
VERTEX
  5
431
  8
0
  6
CONTINUOUS
 62
     7
 10
40.03678156358995
 20
-2.44469682552305
 30
0.0
  0
VERTEX
  5
432
  8
0
  6
CONTINUOUS
 62
     7
 10
40.03679885211013
 20
-2.44670396472905
 30
0.0
  0
VERTEX
  5
433
  8
0
  6
CONTINUOUS
 62
     7
 10
40.03681622851177
 20
-2.44871110316391
 30
0.0
  0
VERTEX
  5
434
  8
0
  6
CONTINUOUS
 62
     7
 10
40.03683370011834
 20
-2.45071824076337
 30
0.0
  0
VERTEX
  5
435
  8
0
  6
CONTINUOUS
 62
     7
 10
40.03685127425327
 20
-2.45272537746317
 30
0.0
  0
VERTEX
  5
436
  8
0
  6
CONTINUOUS
 62
     7
 10
40.03686895824004
 20
-2.45473251319904
 30
0.0
  0
VERTEX
  5
437
  8
0
  6
CONTINUOUS
 62
     7
 10
40.03688675940211
 20
-2.45673964790673
 30
0.0
  0
VERTEX
  5
438
  8
0
  6
CONTINUOUS
 62
     7
 10
40.03690468451843
 20
-2.45874678152632
 30
0.0
  0
VERTEX
  5
439
  8
0
  6
CONTINUOUS
 62
     7
 10
40.03692273489545
 20
-2.46075391404152
 30
0.0
  0
VERTEX
  5
43A
  8
0
  6
CONTINUOUS
 62
     7
 10
40.03694090867731
 20
-2.4627610454613
 30
0.0
  0
VERTEX
  5
43B
  8
0
  6
CONTINUOUS
 62
     7
 10
40.03695920396979
 20
-2.4647681757949
 30
0.0
  0
VERTEX
  5
43C
  8
0
  6
CONTINUOUS
 62
     7
 10
40.03697761887869
 20
-2.46677530505157
 30
0.0
  0
VERTEX
  5
43D
  8
0
  6
CONTINUOUS
 62
     7
 10
40.0369961515098
 20
-2.46878243324057
 30
0.0
  0
VERTEX
  5
43E
  8
0
  6
CONTINUOUS
 62
     7
 10
40.03701479996892
 20
-2.47078956037115
 30
0.0
  0
VERTEX
  5
43F
  8
0
  6
CONTINUOUS
 62
     7
 10
40.03703356236179
 20
-2.47279668645257
 30
0.0
  0
VERTEX
  5
440
  8
0
  6
CONTINUOUS
 62
     7
 10
40.03705243679425
 20
-2.47480381149406
 30
0.0
  0
VERTEX
  5
441
  8
0
  6
CONTINUOUS
 62
     7
 10
40.03707142137205
 20
-2.4768109355049
 30
0.0
  0
VERTEX
  5
442
  8
0
  6
CONTINUOUS
 62
     7
 10
40.037090514201
 20
-2.47881805849433
 30
0.0
  0
VERTEX
  5
443
  8
0
  6
CONTINUOUS
 62
     7
 10
40.03710971338687
 20
-2.4808251804716
 30
0.0
  0
VERTEX
  5
444
  8
0
  6
CONTINUOUS
 62
     7
 10
40.03712901703546
 20
-2.48283230144596
 30
0.0
  0
VERTEX
  5
445
  8
0
  6
CONTINUOUS
 62
     7
 10
40.03714842325255
 20
-2.48483942142668
 30
0.0
  0
VERTEX
  5
446
  8
0
  6
CONTINUOUS
 62
     7
 10
40.03716793014393
 20
-2.486846540423
 30
0.0
  0
VERTEX
  5
447
  8
0
  6
CONTINUOUS
 62
     7
 10
40.03718753581539
 20
-2.48885365844417
 30
0.0
  0
VERTEX
  5
448
  8
0
  6
CONTINUOUS
 62
     7
 10
40.03720723837271
 20
-2.49086077549944
 30
0.0
  0
VERTEX
  5
449
  8
0
  6
CONTINUOUS
 62
     7
 10
40.03722703627869
 20
-2.49286789159528
 30
0.0
  0
VERTEX
  5
44A
  8
0
  6
CONTINUOUS
 62
     7
 10
40.03724693061434
 20
-2.49487500671762
 30
0.0
  0
VERTEX
  5
44B
  8
0
  6
CONTINUOUS
 62
     7
 10
40.03726692362643
 20
-2.49688212084325
 30
0.0
  0
VERTEX
  5
44C
  8
0
  6
CONTINUOUS
 62
     7
 10
40.03728701756697
 20
-2.49888923394893
 30
0.0
  0
VERTEX
  5
44D
  8
0
  6
CONTINUOUS
 62
     7
 10
40.03730721468804
 20
-2.50089634601142
 30
0.0
  0
VERTEX
  5
44E
  8
0
  6
CONTINUOUS
 62
     7
 10
40.03732751724169
 20
-2.50290345700748
 30
0.0
  0
VERTEX
  5
44F
  8
0
  6
CONTINUOUS
 62
     7
 10
40.03734792747996
 20
-2.50491056691385
 30
0.0
  0
VERTEX
  5
450
  8
0
  6
CONTINUOUS
 62
     7
 10
40.03736844734496
 20
-2.50691767570919
 30
0.0
  0
VERTEX
  5
451
  8
0
  6
CONTINUOUS
 62
     7
 10
40.0373890776192
 20
-2.50892478337915
 30
0.0
  0
VERTEX
  5
452
  8
0
  6
CONTINUOUS
 62
     7
 10
40.03740981881408
 20
-2.51093188991105
 30
0.0
  0
VERTEX
  5
453
  8
0
  6
CONTINUOUS
 62
     7
 10
40.037430671441
 20
-2.5129389952922
 30
0.0
  0
VERTEX
  5
454
  8
0
  6
CONTINUOUS
 62
     7
 10
40.03745163601138
 20
-2.51494609950991
 30
0.0
  0
VERTEX
  5
455
  8
0
  6
CONTINUOUS
 62
     7
 10
40.03747271303661
 20
-2.5169532025515
 30
0.0
  0
VERTEX
  5
456
  8
0
  6
CONTINUOUS
 62
     7
 10
40.03749390302811
 20
-2.51896030440428
 30
0.0
  0
VERTEX
  5
457
  8
0
  6
CONTINUOUS
 62
     7
 10
40.03751520649838
 20
-2.52096740505555
 30
0.0
  0
VERTEX
  5
458
  8
0
  6
CONTINUOUS
 62
     7
 10
40.03753662399437
 20
-2.52297450449256
 30
0.0
  0
VERTEX
  5
459
  8
0
  6
CONTINUOUS
 62
     7
 10
40.03755815610287
 20
-2.52498160270247
 30
0.0
  0
VERTEX
  5
45A
  8
0
  6
CONTINUOUS
 62
     7
 10
40.03757980341292
 20
-2.52698869967245
 30
0.0
  0
VERTEX
  5
45B
  8
0
  6
CONTINUOUS
 62
     7
 10
40.03760156651354
 20
-2.52899579538966
 30
0.0
  0
VERTEX
  5
45C
  8
0
  6
CONTINUOUS
 62
     7
 10
40.03762344599379
 20
-2.53100288984125
 30
0.0
  0
VERTEX
  5
45D
  8
0
  6
CONTINUOUS
 62
     7
 10
40.0376454424427
 20
-2.53300998301439
 30
0.0
  0
VERTEX
  5
45E
  8
0
  6
CONTINUOUS
 62
     7
 10
40.0376675564493
 20
-2.53501707489624
 30
0.0
  0
VERTEX
  5
45F
  8
0
  6
CONTINUOUS
 62
     7
 10
40.0376897886026
 20
-2.53702416547395
 30
0.0
  0
VERTEX
  5
460
  8
0
  6
CONTINUOUS
 62
     7
 10
40.0377121394714
 20
-2.53903125473463
 30
0.0
  0
VERTEX
  5
461
  8
0
  6
CONTINUOUS
 62
     7
 10
40.03773460957063
 20
-2.54103834266521
 30
0.0
  0
VERTEX
  5
462
  8
0
  6
CONTINUOUS
 62
     7
 10
40.03775719940629
 20
-2.54304542925259
 30
0.0
  0
VERTEX
  5
463
  8
0
  6
CONTINUOUS
 62
     7
 10
40.03777990948436
 20
-2.54505251448369
 30
0.0
  0
VERTEX
  5
464
  8
0
  6
CONTINUOUS
 62
     7
 10
40.03780274031084
 20
-2.54705959834541
 30
0.0
  0
VERTEX
  5
465
  8
0
  6
CONTINUOUS
 62
     7
 10
40.03782569239175
 20
-2.54906668082466
 30
0.0
  0
VERTEX
  5
466
  8
0
  6
CONTINUOUS
 62
     7
 10
40.03784876623306
 20
-2.55107376190835
 30
0.0
  0
VERTEX
  5
467
  8
0
  6
CONTINUOUS
 62
     7
 10
40.03787196234079
 20
-2.55308084158337
 30
0.0
  0
VERTEX
  5
468
  8
0
  6
CONTINUOUS
 62
     7
 10
40.03789528122097
 20
-2.55508791983665
 30
0.0
  0
VERTEX
  5
469
  8
0
  6
CONTINUOUS
 62
     7
 10
40.03791872339591
 20
-2.55709499665467
 30
0.0
  0
VERTEX
  5
46A
  8
0
  6
CONTINUOUS
 62
     7
 10
40.03794228942699
 20
-2.55910207202296
 30
0.0
  0
VERTEX
  5
46B
  8
0
  6
CONTINUOUS
 62
     7
 10
40.03796597988129
 20
-2.56110914592691
 30
0.0
  0
VERTEX
  5
46C
  8
0
  6
CONTINUOUS
 62
     7
 10
40.03798979532594
 20
-2.56311621835189
 30
0.0
  0
VERTEX
  5
46D
  8
0
  6
CONTINUOUS
 62
     7
 10
40.03801373632807
 20
-2.56512328928328
 30
0.0
  0
VERTEX
  5
46E
  8
0
  6
CONTINUOUS
 62
     7
 10
40.03803780345479
 20
-2.56713035870647
 30
0.0
  0
VERTEX
  5
46F
  8
0
  6
CONTINUOUS
 62
     7
 10
40.0380619972732
 20
-2.56913742660683
 30
0.0
  0
VERTEX
  5
470
  8
0
  6
CONTINUOUS
 62
     7
 10
40.03808631835044
 20
-2.57114449296974
 30
0.0
  0
VERTEX
  5
471
  8
0
  6
CONTINUOUS
 62
     7
 10
40.0381107672536
 20
-2.5731515577806
 30
0.0
  0
VERTEX
  5
472
  8
0
  6
CONTINUOUS
 62
     7
 10
40.03813534455306
 20
-2.57515862102467
 30
0.0
  0
VERTEX
  5
473
  8
0
  6
CONTINUOUS
 62
     7
 10
40.0381600508632
 20
-2.57716568268609
 30
0.0
  0
VERTEX
  5
474
  8
0
  6
CONTINUOUS
 62
     7
 10
40.03818488683014
 20
-2.57917274274811
 30
0.0
  0
VERTEX
  5
475
  8
0
  6
CONTINUOUS
 62
     7
 10
40.03820985310069
 20
-2.58117980119398
 30
0.0
  0
VERTEX
  5
476
  8
0
  6
CONTINUOUS
 62
     7
 10
40.03823495032165
 20
-2.58318685800692
 30
0.0
  0
VERTEX
  5
477
  8
0
  6
CONTINUOUS
 62
     7
 10
40.03826017913985
 20
-2.5851939131702
 30
0.0
  0
VERTEX
  5
478
  8
0
  6
CONTINUOUS
 62
     7
 10
40.03828554020208
 20
-2.58720096666704
 30
0.0
  0
VERTEX
  5
479
  8
0
  6
CONTINUOUS
 62
     7
 10
40.03831103415514
 20
-2.58920801848069
 30
0.0
  0
VERTEX
  5
47A
  8
0
  6
CONTINUOUS
 62
     7
 10
40.03833666164588
 20
-2.59121506859439
 30
0.0
  0
VERTEX
  5
47B
  8
0
  6
CONTINUOUS
 62
     7
 10
40.03836242332108
 20
-2.59322211699139
 30
0.0
  0
VERTEX
  5
47C
  8
0
  6
CONTINUOUS
 62
     7
 10
40.03838831983085
 20
-2.59522916365483
 30
0.0
  0
VERTEX
  5
47D
  8
0
  6
CONTINUOUS
 62
     7
 10
40.03841435188273
 20
-2.59723620856639
 30
0.0
  0
VERTEX
  5
47E
  8
0
  6
CONTINUOUS
 62
     7
 10
40.03844052023294
 20
-2.59924325170647
 30
0.0
  0
VERTEX
  5
47F
  8
0
  6
CONTINUOUS
 62
     7
 10
40.03846682563925
 20
-2.60125029305543
 30
0.0
  0
VERTEX
  5
480
  8
0
  6
CONTINUOUS
 62
     7
 10
40.03849326885942
 20
-2.60325733259363
 30
0.0
  0
VERTEX
  5
481
  8
0
  6
CONTINUOUS
 62
     7
 10
40.03851985065124
 20
-2.60526437030144
 30
0.0
  0
VERTEX
  5
482
  8
0
  6
CONTINUOUS
 62
     7
 10
40.03854657177248
 20
-2.60727140615922
 30
0.0
  0
VERTEX
  5
483
  8
0
  6
CONTINUOUS
 62
     7
 10
40.0385734329809
 20
-2.60927844014733
 30
0.0
  0
VERTEX
  5
484
  8
0
  6
CONTINUOUS
 62
     7
 10
40.03860043503426
 20
-2.61128547224614
 30
0.0
  0
VERTEX
  5
485
  8
0
  6
CONTINUOUS
 62
     7
 10
40.03862757869037
 20
-2.613292502436
 30
0.0
  0
VERTEX
  5
486
  8
0
  6
CONTINUOUS
 62
     7
 10
40.03865486470697
 20
-2.61529953069729
 30
0.0
  0
VERTEX
  5
487
  8
0
  6
CONTINUOUS
 62
     7
 10
40.03868229386875
 20
-2.61730655700961
 30
0.0
  0
VERTEX
  5
488
  8
0
  6
CONTINUOUS
 62
     7
 10
40.03870986705081
 20
-2.61931358135013
 30
0.0
  0
VERTEX
  5
489
  8
0
  6
CONTINUOUS
 62
     7
 10
40.0387375851472
 20
-2.62132060369545
 30
0.0
  0
VERTEX
  5
48A
  8
0
  6
CONTINUOUS
 62
     7
 10
40.03876544905199
 20
-2.62332762402219
 30
0.0
  0
VERTEX
  5
48B
  8
0
  6
CONTINUOUS
 62
     7
 10
40.03879345965927
 20
-2.62533464230698
 30
0.0
  0
VERTEX
  5
48C
  8
0
  6
CONTINUOUS
 62
     7
 10
40.03882161786309
 20
-2.62734165852644
 30
0.0
  0
VERTEX
  5
48D
  8
0
  6
CONTINUOUS
 62
     7
 10
40.03884992455753
 20
-2.62934867265718
 30
0.0
  0
VERTEX
  5
48E
  8
0
  6
CONTINUOUS
 62
     7
 10
40.03887838063665
 20
-2.63135568467583
 30
0.0
  0
VERTEX
  5
48F
  8
0
  6
CONTINUOUS
 62
     7
 10
40.03890698699454
 20
-2.63336269455901
 30
0.0
  0
VERTEX
  5
490
  8
0
  6
CONTINUOUS
 62
     7
 10
40.03893574452524
 20
-2.63536970228333
 30
0.0
  0
VERTEX
  5
491
  8
0
  6
CONTINUOUS
 62
     7
 10
40.03896465412301
 20
-2.63737670782542
 30
0.0
  0
VERTEX
  5
492
  8
0
  6
CONTINUOUS
 62
     7
 10
40.03899371672765
 20
-2.63938371116055
 30
0.0
  0
VERTEX
  5
493
  8
0
  6
CONTINUOUS
 62
     7
 10
40.03902293338592
 20
-2.64139071226093
 30
0.0
  0
VERTEX
  5
494
  8
0
  6
CONTINUOUS
 62
     7
 10
40.03905230515993
 20
-2.64339771109828
 30
0.0
  0
VERTEX
  5
495
  8
0
  6
CONTINUOUS
 62
     7
 10
40.03908183311176
 20
-2.64540470764435
 30
0.0
  0
VERTEX
  5
496
  8
0
  6
CONTINUOUS
 62
     7
 10
40.03911151830348
 20
-2.64741170187087
 30
0.0
  0
VERTEX
  5
497
  8
0
  6
CONTINUOUS
 62
     7
 10
40.03914136179719
 20
-2.64941869374959
 30
0.0
  0
VERTEX
  5
498
  8
0
  6
CONTINUOUS
 62
     7
 10
40.039171364655
 20
-2.65142568325224
 30
0.0
  0
VERTEX
  5
499
  8
0
  6
CONTINUOUS
 62
     7
 10
40.03920152793896
 20
-2.65343267035057
 30
0.0
  0
VERTEX
  5
49A
  8
0
  6
CONTINUOUS
 62
     7
 10
40.03923185271118
 20
-2.6554396550163
 30
0.0
  0
VERTEX
  5
49B
  8
0
  6
CONTINUOUS
 62
     7
 10
40.03926234003376
 20
-2.65744663722119
 30
0.0
  0
VERTEX
  5
49C
  8
0
  6
CONTINUOUS
 62
     7
 10
40.03929299096877
 20
-2.65945361693697
 30
0.0
  0
VERTEX
  5
49D
  8
0
  6
CONTINUOUS
 62
     7
 10
40.03932380661367
 20
-2.66146059413429
 30
0.0
  0
VERTEX
  5
49E
  8
0
  6
CONTINUOUS
 62
     7
 10
40.03935478820495
 20
-2.66346756877951
 30
0.0
  0
VERTEX
  5
49F
  8
0
  6
CONTINUOUS
 62
     7
 10
40.03938593701327
 20
-2.66547454083796
 30
0.0
  0
VERTEX
  5
4A0
  8
0
  6
CONTINUOUS
 62
     7
 10
40.03941725430928
 20
-2.66748151027494
 30
0.0
  0
VERTEX
  5
4A1
  8
0
  6
CONTINUOUS
 62
     7
 10
40.03944874136362
 20
-2.66948847705576
 30
0.0
  0
VERTEX
  5
4A2
  8
0
  6
CONTINUOUS
 62
     7
 10
40.03948039944696
 20
-2.67149544114575
 30
0.0
  0
VERTEX
  5
4A3
  8
0
  6
CONTINUOUS
 62
     7
 10
40.03951222982993
 20
-2.67350240251022
 30
0.0
  0
VERTEX
  5
4A4
  8
0
  6
CONTINUOUS
 62
     7
 10
40.0395442337832
 20
-2.67550936111447
 30
0.0
  0
VERTEX
  5
4A5
  8
0
  6
CONTINUOUS
 62
     7
 10
40.03957641257741
 20
-2.67751631692382
 30
0.0
  0
VERTEX
  5
4A6
  8
0
  6
CONTINUOUS
 62
     7
 10
40.03960876748322
 20
-2.6795232699036
 30
0.0
  0
VERTEX
  5
4A7
  8
0
  6
CONTINUOUS
 62
     7
 10
40.03964129977126
 20
-2.6815302200191
 30
0.0
  0
VERTEX
  5
4A8
  8
0
  6
CONTINUOUS
 62
     7
 10
40.03967401072172
 20
-2.68353716723533
 30
0.0
  0
VERTEX
  5
4A9
  8
0
  6
CONTINUOUS
 62
     7
 10
40.03970690175663
 20
-2.68554411151268
 30
0.0
  0
VERTEX
  5
4AA
  8
0
  6
CONTINUOUS
 62
     7
 10
40.03973997440706
 20
-2.68755105280794
 30
0.0
  0
VERTEX
  5
4AB
  8
0
  6
CONTINUOUS
 62
     7
 10
40.03977323020686
 20
-2.68955799107785
 30
0.0
  0
VERTEX
  5
4AC
  8
0
  6
CONTINUOUS
 62
     7
 10
40.03980667068991
 20
-2.69156492627913
 30
0.0
  0
VERTEX
  5
4AD
  8
0
  6
CONTINUOUS
 62
     7
 10
40.03984029739005
 20
-2.69357185836851
 30
0.0
  0
VERTEX
  5
4AE
  8
0
  6
CONTINUOUS
 62
     7
 10
40.03987411184114
 20
-2.6955787873027
 30
0.0
  0
VERTEX
  5
4AF
  8
0
  6
CONTINUOUS
 62
     7
 10
40.03990811557706
 20
-2.69758571303844
 30
0.0
  0
VERTEX
  5
4B0
  8
0
  6
CONTINUOUS
 62
     7
 10
40.03994231013164
 20
-2.69959263553244
 30
0.0
  0
VERTEX
  5
4B1
  8
0
  6
CONTINUOUS
 62
     7
 10
40.03997669703877
 20
-2.70159955474143
 30
0.0
  0
VERTEX
  5
4B2
  8
0
  6
CONTINUOUS
 62
     7
 10
40.04001127783228
 20
-2.70360647062214
 30
0.0
  0
VERTEX
  5
4B3
  8
0
  6
CONTINUOUS
 62
     7
 10
40.04004605404606
 20
-2.70561338313128
 30
0.0
  0
VERTEX
  5
4B4
  8
0
  6
CONTINUOUS
 62
     7
 10
40.04008102727687
 20
-2.70762029222342
 30
0.0
  0
VERTEX
  5
4B5
  8
0
  6
CONTINUOUS
 62
     7
 10
40.04011619934613
 20
-2.70962719784535
 30
0.0
  0
VERTEX
  5
4B6
  8
0
  6
CONTINUOUS
 62
     7
 10
40.04015157212531
 20
-2.71163409994214
 30
0.0
  0
VERTEX
  5
4B7
  8
0
  6
CONTINUOUS
 62
     7
 10
40.0401871474859
 20
-2.71364099845888
 30
0.0
  0
VERTEX
  5
4B8
  8
0
  6
CONTINUOUS
 62
     7
 10
40.0402229272994
 20
-2.71564789334062
 30
0.0
  0
VERTEX
  5
4B9
  8
0
  6
CONTINUOUS
 62
     7
 10
40.04025891343727
 20
-2.71765478453245
 30
0.0
  0
VERTEX
  5
4BA
  8
0
  6
CONTINUOUS
 62
     7
 10
40.04029510777102
 20
-2.71966167197945
 30
0.0
  0
VERTEX
  5
4BB
  8
0
  6
CONTINUOUS
 62
     7
 10
40.04033151217212
 20
-2.72166855562667
 30
0.0
  0
VERTEX
  5
4BC
  8
0
  6
CONTINUOUS
 62
     7
 10
40.04036812851206
 20
-2.7236754354192
 30
0.0
  0
VERTEX
  5
4BD
  8
0
  6
CONTINUOUS
 62
     7
 10
40.04040495866233
 20
-2.7256823113021
 30
0.0
  0
VERTEX
  5
4BE
  8
0
  6
CONTINUOUS
 62
     7
 10
40.04044200449441
 20
-2.72768918322047
 30
0.0
  0
VERTEX
  5
4BF
  8
0
  6
CONTINUOUS
 62
     7
 10
40.04047926788414
 20
-2.72969605111919
 30
0.0
  0
VERTEX
  5
4C0
  8
0
  6
CONTINUOUS
 62
     7
 10
40.04051675088791
 20
-2.73170291493659
 30
0.0
  0
VERTEX
  5
4C1
  8
0
  6
CONTINUOUS
 62
     7
 10
40.04055445580354
 20
-2.73370977460214
 30
0.0
  0
VERTEX
  5
4C2
  8
0
  6
CONTINUOUS
 62
     7
 10
40.04059238494572
 20
-2.73571663004469
 30
0.0
  0
VERTEX
  5
4C3
  8
0
  6
CONTINUOUS
 62
     7
 10
40.0406305406291
 20
-2.7377234811931
 30
0.0
  0
VERTEX
  5
4C4
  8
0
  6
CONTINUOUS
 62
     7
 10
40.04066892516838
 20
-2.73973032797623
 30
0.0
  0
VERTEX
  5
4C5
  8
0
  6
CONTINUOUS
 62
     7
 10
40.04070754087821
 20
-2.74173717032294
 30
0.0
  0
VERTEX
  5
4C6
  8
0
  6
CONTINUOUS
 62
     7
 10
40.04074639007327
 20
-2.74374400816208
 30
0.0
  0
VERTEX
  5
4C7
  8
0
  6
CONTINUOUS
 62
     7
 10
40.04078547506823
 20
-2.74575084142251
 30
0.0
  0
VERTEX
  5
4C8
  8
0
  6
CONTINUOUS
 62
     7
 10
40.04082479817777
 20
-2.74775767003309
 30
0.0
  0
VERTEX
  5
4C9
  8
0
  6
CONTINUOUS
 62
     7
 10
40.04086436171656
 20
-2.74976449392266
 30
0.0
  0
VERTEX
  5
4CA
  8
0
  6
CONTINUOUS
 62
     7
 10
40.04090416799927
 20
-2.75177131302011
 30
0.0
  0
VERTEX
  5
4CB
  8
0
  6
CONTINUOUS
 62
     7
 10
40.04094421937783
 20
-2.75377812725283
 30
0.0
  0
VERTEX
  5
4CC
  8
0
  6
CONTINUOUS
 62
     7
 10
40.04098451855712
 20
-2.75578493653462
 30
0.0
  0
VERTEX
  5
4CD
  8
0
  6
CONTINUOUS
 62
     7
 10
40.04102506843662
 20
-2.75779174077177
 30
0.0
  0
VERTEX
  5
4CE
  8
0
  6
CONTINUOUS
 62
     7
 10
40.04106587191787
 20
-2.75979853987048
 30
0.0
  0
VERTEX
  5
4CF
  8
0
  6
CONTINUOUS
 62
     7
 10
40.04110693190242
 20
-2.76180533373695
 30
0.0
  0
VERTEX
  5
4D0
  8
0
  6
CONTINUOUS
 62
     7
 10
40.04114825129179
 20
-2.76381212227738
 30
0.0
  0
VERTEX
  5
4D1
  8
0
  6
CONTINUOUS
 62
     7
 10
40.04118983298751
 20
-2.76581890539797
 30
0.0
  0
VERTEX
  5
4D2
  8
0
  6
CONTINUOUS
 62
     7
 10
40.04123167989112
 20
-2.76782568300494
 30
0.0
  0
VERTEX
  5
4D3
  8
0
  6
CONTINUOUS
 62
     7
 10
40.04127379490414
 20
-2.76983245500448
 30
0.0
  0
VERTEX
  5
4D4
  8
0
  6
CONTINUOUS
 62
     7
 10
40.04131618092812
 20
-2.77183922130279
 30
0.0
  0
VERTEX
  5
4D5
  8
0
  6
CONTINUOUS
 62
     7
 10
40.04135884086458
 20
-2.77384598180608
 30
0.0
  0
VERTEX
  5
4D6
  8
0
  6
CONTINUOUS
 62
     7
 10
40.04140177761528
 20
-2.77585273642054
 30
0.0
  0
VERTEX
  5
4D7
  8
0
  6
CONTINUOUS
 62
     7
 10
40.04144499427147
 20
-2.77785948504451
 30
0.0
  0
VERTEX
  5
4D8
  8
0
  6
CONTINUOUS
 62
     7
 10
40.04148849446031
 20
-2.77986622755414
 30
0.0
  0
VERTEX
  5
4D9
  8
0
  6
CONTINUOUS
 62
     7
 10
40.04153228190309
 20
-2.78187296382168
 30
0.0
  0
VERTEX
  5
4DA
  8
0
  6
CONTINUOUS
 62
     7
 10
40.04157636032105
 20
-2.78387969371937
 30
0.0
  0
VERTEX
  5
4DB
  8
0
  6
CONTINUOUS
 62
     7
 10
40.04162073343544
 20
-2.78588641711945
 30
0.0
  0
VERTEX
  5
4DC
  8
0
  6
CONTINUOUS
 62
     7
 10
40.04166540496752
 20
-2.78789313389419
 30
0.0
  0
VERTEX
  5
4DD
  8
0
  6
CONTINUOUS
 62
     7
 10
40.04171037863856
 20
-2.78989984391581
 30
0.0
  0
VERTEX
  5
4DE
  8
0
  6
CONTINUOUS
 62
     7
 10
40.04175565816979
 20
-2.79190654705657
 30
0.0
  0
VERTEX
  5
4DF
  8
0
  6
CONTINUOUS
 62
     7
 10
40.04180124728248
 20
-2.79391324318872
 30
0.0
  0
VERTEX
  5
4E0
  8
0
  6
CONTINUOUS
 62
     7
 10
40.04184714969789
 20
-2.7959199321845
 30
0.0
  0
VERTEX
  5
4E1
  8
0
  6
CONTINUOUS
 62
     7
 10
40.04189336913726
 20
-2.79792661391616
 30
0.0
  0
VERTEX
  5
4E2
  8
0
  6
CONTINUOUS
 62
     7
 10
40.04193990936795
 20
-2.79993328825396
 30
0.0
  0
VERTEX
  5
4E3
  8
0
  6
CONTINUOUS
 62
     7
 10
40.04198677475671
 20
-2.80193995504232
 30
0.0
  0
VERTEX
  5
4E4
  8
0
  6
CONTINUOUS
 62
     7
 10
40.04203397008945
 20
-2.80394661410757
 30
0.0
  0
VERTEX
  5
4E5
  8
0
  6
CONTINUOUS
 62
     7
 10
40.04208150016071
 20
-2.8059532652757
 30
0.0
  0
VERTEX
  5
4E6
  8
0
  6
CONTINUOUS
 62
     7
 10
40.04212936976502
 20
-2.80795990837267
 30
0.0
  0
VERTEX
  5
4E7
  8
0
  6
CONTINUOUS
 62
     7
 10
40.04217758369691
 20
-2.80996654322445
 30
0.0
  0
VERTEX
  5
4E8
  8
0
  6
CONTINUOUS
 62
     7
 10
40.04222614675092
 20
-2.81197316965702
 30
0.0
  0
VERTEX
  5
4E9
  8
0
  6
CONTINUOUS
 62
     7
 10
40.04227506372159
 20
-2.81397978749636
 30
0.0
  0
VERTEX
  5
4EA
  8
0
  6
CONTINUOUS
 62
     7
 10
40.04232433940343
 20
-2.81598639656842
 30
0.0
  0
VERTEX
  5
4EB
  8
0
  6
CONTINUOUS
 62
     7
 10
40.04237397859098
 20
-2.81799299669919
 30
0.0
  0
VERTEX
  5
4EC
  8
0
  6
CONTINUOUS
 62
     7
 10
40.04242398607878
 20
-2.81999958771464
 30
0.0
  0
VERTEX
  5
4ED
  8
0
  6
CONTINUOUS
 62
     7
 10
40.04247436667486
 20
-2.82200616944009
 30
0.0
  0
VERTEX
  5
4EE
  8
0
  6
CONTINUOUS
 62
     7
 10
40.04252512588688
 20
-2.82401274166714
 30
0.0
  0
VERTEX
  5
4EF
  8
0
  6
CONTINUOUS
 62
     7
 10
40.042576270248
 20
-2.82601930413803
 30
0.0
  0
VERTEX
  5
4F0
  8
0
  6
CONTINUOUS
 62
     7
 10
40.04262780637301
 20
-2.828025856591
 30
0.0
  0
VERTEX
  5
4F1
  8
0
  6
CONTINUOUS
 62
     7
 10
40.04267974087671
 20
-2.83003239876434
 30
0.0
  0
VERTEX
  5
4F2
  8
0
  6
CONTINUOUS
 62
     7
 10
40.0427320803739
 20
-2.83203893039633
 30
0.0
  0
VERTEX
  5
4F3
  8
0
  6
CONTINUOUS
 62
     7
 10
40.04278483147939
 20
-2.83404545122523
 30
0.0
  0
VERTEX
  5
4F4
  8
0
  6
CONTINUOUS
 62
     7
 10
40.04283800080798
 20
-2.83605196098932
 30
0.0
  0
VERTEX
  5
4F5
  8
0
  6
CONTINUOUS
 62
     7
 10
40.04289159497447
 20
-2.83805845942687
 30
0.0
  0
VERTEX
  5
4F6
  8
0
  6
CONTINUOUS
 62
     7
 10
40.04294562059366
 20
-2.84006494627616
 30
0.0
  0
VERTEX
  5
4F7
  8
0
  6
CONTINUOUS
 62
     7
 10
40.04300008428035
 20
-2.84207142127546
 30
0.0
  0
VERTEX
  5
4F8
  8
0
  6
CONTINUOUS
 62
     7
 10
40.04305499266809
 20
-2.84407788416226
 30
0.0
  0
VERTEX
  5
4F9
  8
0
  6
CONTINUOUS
 62
     7
 10
40.04311035344815
 20
-2.84608433462971
 30
0.0
  0
VERTEX
  5
4FA
  8
0
  6
CONTINUOUS
 62
     7
 10
40.0431661759132
 20
-2.84809077230382
 30
0.0
  0
VERTEX
  5
4FB
  8
0
  6
CONTINUOUS
 62
     7
 10
40.04322246948934
 20
-2.85009719680503
 30
0.0
  0
VERTEX
  5
4FC
  8
0
  6
CONTINUOUS
 62
     7
 10
40.04327924360268
 20
-2.85210360775376
 30
0.0
  0
VERTEX
  5
4FD
  8
0
  6
CONTINUOUS
 62
     7
 10
40.04333650767931
 20
-2.85411000477044
 30
0.0
  0
VERTEX
  5
4FE
  8
0
  6
CONTINUOUS
 62
     7
 10
40.04339427114535
 20
-2.85611638747549
 30
0.0
  0
VERTEX
  5
4FF
  8
0
  6
CONTINUOUS
 62
     7
 10
40.04345254342689
 20
-2.85812275548934
 30
0.0
  0
VERTEX
  5
500
  8
0
  6
CONTINUOUS
 62
     7
 10
40.04351133395004
 20
-2.86012910843243
 30
0.0
  0
VERTEX
  5
501
  8
0
  6
CONTINUOUS
 62
     7
 10
40.04357065226432
 20
-2.86213544591787
 30
0.0
  0
VERTEX
  5
502
  8
0
  6
CONTINUOUS
 62
     7
 10
40.04363050956403
 20
-2.86414176746157
 30
0.0
  0
VERTEX
  5
503
  8
0
  6
CONTINUOUS
 62
     7
 10
40.04369091821363
 20
-2.86614807251027
 30
0.0
  0
VERTEX
  5
504
  8
0
  6
CONTINUOUS
 62
     7
 10
40.04375189060264
 20
-2.8681543605092
 30
0.0
  0
VERTEX
  5
505
  8
0
  6
CONTINUOUS
 62
     7
 10
40.04381343912058
 20
-2.87016063090361
 30
0.0
  0
VERTEX
  5
506
  8
0
  6
CONTINUOUS
 62
     7
 10
40.04387557615698
 20
-2.87216688313876
 30
0.0
  0
VERTEX
  5
507
  8
0
  6
CONTINUOUS
 62
     7
 10
40.04393831410133
 20
-2.87417311665988
 30
0.0
  0
VERTEX
  5
508
  8
0
  6
CONTINUOUS
 62
     7
 10
40.04400166534317
 20
-2.87617933091223
 30
0.0
  0
VERTEX
  5
509
  8
0
  6
CONTINUOUS
 62
     7
 10
40.04406564227199
 20
-2.87818552534105
 30
0.0
  0
VERTEX
  5
50A
  8
0
  6
CONTINUOUS
 62
     7
 10
40.04413025751935
 20
-2.88019169937938
 30
0.0
  0
VERTEX
  5
50B
  8
0
  6
CONTINUOUS
 62
     7
 10
40.04419552683478
 20
-2.88219785230275
 30
0.0
  0
VERTEX
  5
50C
  8
0
  6
CONTINUOUS
 62
     7
 10
40.04426146813423
 20
-2.88420398327731
 30
0.0
  0
VERTEX
  5
50D
  8
0
  6
CONTINUOUS
 62
     7
 10
40.0443280993774
 20
-2.886210091467
 30
0.0
  0
VERTEX
  5
50E
  8
0
  6
CONTINUOUS
 62
     7
 10
40.04439543852396
 20
-2.88821617603575
 30
0.0
  0
VERTEX
  5
50F
  8
0
  6
CONTINUOUS
 62
     7
 10
40.04446350353359
 20
-2.89022223614749
 30
0.0
  0
VERTEX
  5
510
  8
0
  6
CONTINUOUS
 62
     7
 10
40.044532312366
 20
-2.89222827096616
 30
0.0
  0
VERTEX
  5
511
  8
0
  6
CONTINUOUS
 62
     7
 10
40.04460188298087
 20
-2.89423427965569
 30
0.0
  0
VERTEX
  5
512
  8
0
  6
CONTINUOUS
 62
     7
 10
40.04467223333787
 20
-2.89624026138
 30
0.0
  0
VERTEX
  5
513
  8
0
  6
CONTINUOUS
 62
     7
 10
40.04474338171083
 20
-2.89824621528126
 30
0.0
  0
VERTEX
  5
514
  8
0
  6
CONTINUOUS
 62
     7
 10
40.04481535166343
 20
-2.90025214013489
 30
0.0
  0
VERTEX
  5
515
  8
0
  6
CONTINUOUS
 62
     7
 10
40.04488817115608
 20
-2.90225803441151
 30
0.0
  0
VERTEX
  5
516
  8
0
  6
CONTINUOUS
 62
     7
 10
40.04496186828269
 20
-2.90426389657246
 30
0.0
  0
VERTEX
  5
517
  8
0
  6
CONTINUOUS
 62
     7
 10
40.04503647113719
 20
-2.90626972507911
 30
0.0
  0
VERTEX
  5
518
  8
0
  6
CONTINUOUS
 62
     7
 10
40.04511200781352
 20
-2.90827551839281
 30
0.0
  0
VERTEX
  5
519
  8
0
  6
CONTINUOUS
 62
     7
 10
40.0451885064056
 20
-2.91028127497491
 30
0.0
  0
VERTEX
  5
51A
  8
0
  6
CONTINUOUS
 62
     7
 10
40.04526599500736
 20
-2.91228699328678
 30
0.0
  0
VERTEX
  5
51B
  8
0
  6
CONTINUOUS
 62
     7
 10
40.04534450171271
 20
-2.91429267178976
 30
0.0
  0
VERTEX
  5
51C
  8
0
  6
CONTINUOUS
 62
     7
 10
40.04542405532978
 20
-2.91629830891191
 30
0.0
  0
VERTEX
  5
51D
  8
0
  6
CONTINUOUS
 62
     7
 10
40.04550469426584
 20
-2.91830390263366
 30
0.0
  0
VERTEX
  5
51E
  8
0
  6
CONTINUOUS
 62
     7
 10
40.04558646379839
 20
-2.92030945061509
 30
0.0
  0
VERTEX
  5
51F
  8
0
  6
CONTINUOUS
 62
     7
 10
40.04566940935413
 20
-2.92231495050932
 30
0.0
  0
VERTEX
  5
520
  8
0
  6
CONTINUOUS
 62
     7
 10
40.04575357635973
 20
-2.92432039996945
 30
0.0
  0
VERTEX
  5
521
  8
0
  6
CONTINUOUS
 62
     7
 10
40.04583901024188
 20
-2.92632579664861
 30
0.0
  0
VERTEX
  5
522
  8
0
  6
CONTINUOUS
 62
     7
 10
40.04592575642725
 20
-2.92833113819991
 30
0.0
  0
VERTEX
  5
523
  8
0
  6
CONTINUOUS
 62
     7
 10
40.04601386034254
 20
-2.93033642227647
 30
0.0
  0
VERTEX
  5
524
  8
0
  6
CONTINUOUS
 62
     7
 10
40.04610336741442
 20
-2.93234164653141
 30
0.0
  0
VERTEX
  5
525
  8
0
  6
CONTINUOUS
 62
     7
 10
40.04619433063344
 20
-2.93434680781737
 30
0.0
  0
VERTEX
  5
526
  8
0
  6
CONTINUOUS
 62
     7
 10
40.0462868322639
 20
-2.93635189988911
 30
0.0
  0
VERTEX
  5
527
  8
0
  6
CONTINUOUS
 62
     7
 10
40.04638096165102
 20
-2.93835691575202
 30
0.0
  0
VERTEX
  5
528
  8
0
  6
CONTINUOUS
 62
     7
 10
40.04647680814001
 20
-2.94036184841147
 30
0.0
  0
VERTEX
  5
529
  8
0
  6
CONTINUOUS
 62
     7
 10
40.04657446107612
 20
-2.94236669087286
 30
0.0
  0
VERTEX
  5
52A
  8
0
  6
CONTINUOUS
 62
     7
 10
40.04667400980456
 20
-2.94437143614158
 30
0.0
  0
VERTEX
  5
52B
  8
0
  6
CONTINUOUS
 62
     7
 10
40.04677554367057
 20
-2.94637607722301
 30
0.0
  0
VERTEX
  5
52C
  8
0
  6
CONTINUOUS
 62
     7
 10
40.04687915201937
 20
-2.94838060712255
 30
0.0
  0
VERTEX
  5
52D
  8
0
  6
CONTINUOUS
 62
     7
 10
40.04698493186927
 20
-2.95038501939184
 30
0.0
  0
VERTEX
  5
52E
  8
0
  6
CONTINUOUS
 62
     7
 10
40.04709301899486
 20
-2.95238931034156
 30
0.0
  0
VERTEX
  5
52F
  8
0
  6
CONTINUOUS
 62
     7
 10
40.04720356137891
 20
-2.95439347715154
 30
0.0
  0
VERTEX
  5
530
  8
0
  6
CONTINUOUS
 62
     7
 10
40.04731670700878
 20
-2.95639751700188
 30
0.0
  0
VERTEX
  5
531
  8
0
  6
CONTINUOUS
 62
     7
 10
40.04743260902441
 20
-2.95840142521557
 30
0.0
  0
VERTEX
  5
532
  8
0
  6
CONTINUOUS
 62
     7
 10
40.04755150125522
 20
-2.96040516803282
 30
0.0
  0
VERTEX
  5
533
  8
0
  6
CONTINUOUS
 62
     7
 10
40.04767368153477
 20
-2.96240868862492
 30
0.0
  0
VERTEX
  5
534
  8
0
  6
CONTINUOUS
 62
     7
 10
40.047799449456
 20
-2.96441192952906
 30
0.0
  0
VERTEX
  5
535
  8
0
  6
CONTINUOUS
 62
     7
 10
40.04792910430528
 20
-2.96641483445656
 30
0.0
  0
VERTEX
  5
536
  8
0
  6
CONTINUOUS
 62
     7
 10
40.04806292905675
 20
-2.96841740960701
 30
0.0
  0
VERTEX
  5
537
  8
0
  6
CONTINUOUS
 62
     7
 10
40.0482011825279
 20
-2.97041975371778
 30
0.0
  0
VERTEX
  5
538
  8
0
  6
CONTINUOUS
 62
     7
 10
40.04834412158464
 20
-2.97242197300221
 30
0.0
  0
VERTEX
  5
539
  8
0
  6
CONTINUOUS
 62
     7
 10
40.04849201180983
 20
-2.97442416891111
 30
0.0
  0
VERTEX
  5
53A
  8
0
  6
CONTINUOUS
 62
     7
 10
40.04864567589592
 20
-2.97642613851456
 30
0.0
  0
VERTEX
  5
53B
  8
0
  6
CONTINUOUS
 62
     7
 10
40.04880682025281
 20
-2.97842719605756
 30
0.0
  0
VERTEX
  5
53C
  8
0
  6
CONTINUOUS
 62
     7
 10
40.04897722971975
 20
-2.98042661293469
 30
0.0
  0
VERTEX
  5
53D
  8
0
  6
CONTINUOUS
 62
     7
 10
40.04915855406478
 20
-2.98242379498763
 30
0.0
  0
VERTEX
  5
53E
  8
0
  6
CONTINUOUS
 62
     7
 10
40.04935062821577
 20
-2.98441995451338
 30
0.0
  0
VERTEX
  5
53F
  8
0
  6
CONTINUOUS
 62
     7
 10
40.04955198852257
 20
-2.98641759638725
 30
0.0
  0
VERTEX
  5
540
  8
0
  6
CONTINUOUS
 62
     7
 10
40.0497613867847
 20
-2.9884190976138
 30
0.0
  0
VERTEX
  5
541
  8
0
  6
CONTINUOUS
 62
     7
 10
40.04998857631249
 20
-2.99041979436381
 30
0.0
  0
VERTEX
  5
542
  8
0
  6
CONTINUOUS
 62
     7
 10
40.05025855616465
 20
-2.99240526571363
 30
0.0
  0
VERTEX
  5
543
  8
0
  6
CONTINUOUS
 62
     7
 10
40.05059222150956
 20
-2.99436501704936
 30
0.0
  0
VERTEX
  5
544
  8
0
  6
CONTINUOUS
 62
     7
 10
40.05095319392883
 20
-2.99633945718081
 30
0.0
  0
VERTEX
  5
545
  8
0
  6
CONTINUOUS
 62
     7
 10
40.05133488876222
 20
-2.99835797710909
 30
0.0
  0
VERTEX
  5
546
  8
0
  6
CONTINUOUS
 62
     7
 10
40.05241475680423
 20
-2.99999999999992
 30
0.0
  0
SEQEND
  5
547
  8
0
  6
CONTINUOUS
 62
     7
  0
ENDSEC
  0
EOF
