  0
SECTION
  2
HEADER
  9
$ACADVER
  1
AC1009
  9
$DWGCODEPAGE
  3
ansi_1252
  9
$INSBASE
 10
0.0
 20
0.0
 30
0.0
  9
$EXTMIN
 10
0.0
 20
-80.35000000000002
 30
0.0
  9
$EXTMAX
 10
52.00000000000038
 20
55.65000000000032
 30
0.0
  9
$LIMMIN
 10
0.0
 20
0.0
  9
$LIMMAX
 10
12.0
 20
9.0
  9
$ORTHOMODE
 70
     0
  9
$REGENMODE
 70
     1
  9
$FILLMODE
 70
     1
  9
$QTEXTMODE
 70
     0
  9
$MIRRTEXT
 70
     1
  9
$DRAGMODE
 70
     2
  9
$LTSCALE
 40
1.0
  9
$OSMODE
 70
    37
  9
$ATTMODE
 70
     1
  9
$TEXTSIZE
 40
0.2
  9
$TRACEWID
 40
0.05
  9
$TEXTSTYLE
  7
STANDARD
  9
$CLAYER
  8
0
  9
$CELTYPE
  6
BYLAYER
  9
$CECOLOR
 62
   256
  9
$DIMSCALE
 40
1.0
  9
$DIMASZ
 40
0.18
  9
$DIMEXO
 40
0.0625
  9
$DIMDLI
 40
0.38
  9
$DIMRND
 40
0.0
  9
$DIMDLE
 40
0.0
  9
$DIMEXE
 40
0.18
  9
$DIMTP
 40
0.0
  9
$DIMTM
 40
0.0
  9
$DIMTXT
 40
0.18
  9
$DIMCEN
 40
0.09
  9
$DIMTSZ
 40
0.0
  9
$DIMTOL
 70
     0
  9
$DIMLIM
 70
     0
  9
$DIMTIH
 70
     1
  9
$DIMTOH
 70
     1
  9
$DIMSE1
 70
     0
  9
$DIMSE2
 70
     0
  9
$DIMTAD
 70
     0
  9
$DIMZIN
 70
     0
  9
$DIMBLK
  1

  9
$DIMASO
 70
     1
  9
$DIMSHO
 70
     1
  9
$DIMPOST
  1

  9
$DIMAPOST
  1

  9
$DIMALT
 70
     0
  9
$DIMALTD
 70
     2
  9
$DIMALTF
 40
25.4
  9
$DIMLFAC
 40
1.0
  9
$DIMTOFL
 70
     0
  9
$DIMTVP
 40
0.0
  9
$DIMTIX
 70
     0
  9
$DIMSOXD
 70
     0
  9
$DIMSAH
 70
     0
  9
$DIMBLK1
  1

  9
$DIMBLK2
  1

  9
$DIMSTYLE
  2
STANDARD
  9
$DIMCLRD
 70
     0
  9
$DIMCLRE
 70
     0
  9
$DIMCLRT
 70
     0
  9
$DIMTFAC
 40
1.0
  9
$DIMGAP
 40
0.09
  9
$LUNITS
 70
     2
  9
$LUPREC
 70
     4
  9
$SKETCHINC
 40
0.1
  9
$FILLETRAD
 40
0.5
  9
$AUNITS
 70
     0
  9
$AUPREC
 70
     0
  9
$MENU
  1
.
  9
$ELEVATION
 40
0.0
  9
$PELEVATION
 40
0.0
  9
$THICKNESS
 40
0.0
  9
$LIMCHECK
 70
     0
  9
$CHAMFERA
 40
0.5
  9
$CHAMFERB
 40
0.5
  9
$SKPOLY
 70
     0
  9
$TDCREATE
 40
2455520.370827708
  9
$TDUPDATE
 40
2455520.37082772
  9
$TDINDWG
 40
0.0000000116
  9
$TDUSRTIMER
 40
0.0000000116
  9
$USRTIMER
 70
     1
  9
$ANGBASE
 50
0.0
  9
$ANGDIR
 70
     0
  9
$PDMODE
 70
     0
  9
$PDSIZE
 40
0.0
  9
$PLINEWID
 40
0.0
  9
$COORDS
 70
     1
  9
$SPLFRAME
 70
     0
  9
$SPLINETYPE
 70
     6
  9
$SPLINESEGS
 70
     8
  9
$ATTDIA
 70
     0
  9
$ATTREQ
 70
     1
  9
$HANDLING
 70
     1
  9
$HANDSEED
  5
5E6
  9
$SURFTAB1
 70
     6
  9
$SURFTAB2
 70
     6
  9
$SURFTYPE
 70
     6
  9
$SURFU
 70
     6
  9
$SURFV
 70
     6
  9
$UCSNAME
  2

  9
$UCSORG
 10
0.0
 20
0.0
 30
0.0
  9
$UCSXDIR
 10
1.0
 20
0.0
 30
0.0
  9
$UCSYDIR
 10
0.0
 20
1.0
 30
0.0
  9
$PUCSNAME
  2

  9
$PUCSORG
 10
0.0
 20
0.0
 30
0.0
  9
$PUCSXDIR
 10
1.0
 20
0.0
 30
0.0
  9
$PUCSYDIR
 10
0.0
 20
1.0
 30
0.0
  9
$USERI1
 70
     0
  9
$USERI2
 70
     0
  9
$USERI3
 70
     0
  9
$USERI4
 70
     0
  9
$USERI5
 70
     0
  9
$USERR1
 40
16.0
  9
$USERR2
 40
0.0
  9
$USERR3
 40
0.0
  9
$USERR4
 40
0.0
  9
$USERR5
 40
0.0
  9
$WORLDVIEW
 70
     1
  9
$SHADEDGE
 70
     3
  9
$SHADEDIF
 70
    70
  9
$TILEMODE
 70
     1
  9
$MAXACTVP
 70
    64
  9
$PLIMCHECK
 70
     0
  9
$PEXTMIN
 10
1.00000000000000E+20
 20
1.00000000000000E+20
 30
1.00000000000000E+20
  9
$PEXTMAX
 10
-1.00000000000000E+20
 20
-1.00000000000000E+20
 30
-1.00000000000000E+20
  9
$PLIMMIN
 10
0.0
 20
0.0
  9
$PLIMMAX
 10
12.0
 20
9.0
  9
$UNITMODE
 70
     0
  9
$VISRETAIN
 70
     1
  9
$PLINEGEN
 70
     0
  9
$PSLTSCALE
 70
     1
  0
ENDSEC
  0
SECTION
  2
TABLES
  0
TABLE
  2
VPORT
 70
     1
  0
VPORT
  2
*ACTIVE
 70
     0
 10
0.0
 20
0.0
 11
1.0
 21
1.0
 12
26.00000000000019
 22
-12.34999999999985
 13
0.0
 23
0.0
 14
0.5
 24
0.5
 15
0.5
 25
0.5
 16
0.0
 26
0.0
 36
1.0
 17
0.0
 27
0.0
 37
0.0
 40
149.6000000000004
 41
1.60267857142857
 42
50.0
 43
0.0
 44
0.0
 50
0.0
 51
0.0
 71
     0
 72
   100
 73
     1
 74
     3
 75
     0
 76
     0
 77
     0
 78
     0
  0
ENDTAB
  0
TABLE
  2
LTYPE
 70
     8
  0
LTYPE
  2
CONTINUOUS
 70
     0
  3
Solid line
 72
    65
 73
     0
 40
0.0
  0
LTYPE
  2
DASHED
 70
     0
  3
Dashed
 72
    65
 73
     2
 40
15.0
 49
7.0
 49
-8.0
  0
LTYPE
  2
DOTTED
 70
     0
  3
Dotted
 72
    65
 73
     2
 40
1.0
 49
0.0
 49
-1.0
  0
LTYPE
  2
DOT_CENTER
 70
     0
  3
Dot_Center
 72
    65
 73
     4
 40
14.0
 49
12.0
 49
-1.0
 49
0.0
 49
-1.0
  0
LTYPE
  2
LONG_DASHED
 70
     0
  3
Long_Dashed
 72
    65
 73
     2
 40
15.0
 49
10.0
 49
-5.0
  0
LTYPE
  2
DASH_CENTER
 70
     0
  3
Dash_Center
 72
    65
 73
     4
 40
14.0
 49
11.0
 49
-1.0
 49
1.0
 49
-1.0
  0
LTYPE
  2
PHANTOM
 70
     0
  3
Phantom
 72
    65
 73
     6
 40
13.0
 49
10.0
 49
-1.0
 49
0.0
 49
-1.0
 49
0.0
 49
-1.0
  0
LTYPE
  2
CENTER_DASH_DASH
 70
     0
  3
Center_Dash_Dash
 72
    65
 73
     6
 40
14.0
 49
9.0
 49
-1.0
 49
1.0
 49
-1.0
 49
1.0
 49
-1.0
  0
ENDTAB
  0
TABLE
  2
LAYER
 70
     2
  0
LAYER
  2
0
 70
     0
 62
     7
  6
CONTINUOUS
  0
LAYER
  2
1
 70
     0
 62
     7
  6
CONTINUOUS
  0
ENDTAB
  0
TABLE
  2
STYLE
 70
     1
  0
STYLE
  2
STANDARD
 70
     0
 40
0.0
 41
1.0
 50
0.0
 71
     0
 42
0.2
  3
txt
  4

  0
ENDTAB
  0
TABLE
  2
VIEW
 70
     0
  0
ENDTAB
  0
TABLE
  2
UCS
 70
     0
  0
ENDTAB
  0
TABLE
  2
APPID
 70
     1
  0
APPID
  2
ACAD
 70
     0
  0
ENDTAB
  0
TABLE
  2
DIMSTYLE
 70
     1
  0
DIMSTYLE
  2
STANDARD
 70
     0
  3

  4

  5

  6

  7

 40
1.0
 41
0.18
 42
0.0625
 43
0.38
 44
0.18
 45
0.0
 46
0.0
 47
0.0
 48
0.0
140
0.18
141
0.09
142
0.0
143
25.4
144
1.0
145
0.0
146
1.0
147
0.09
 71
     0
 72
     0
 73
     1
 74
     1
 75
     0
 76
     0
 77
     0
 78
     0
170
     0
171
     2
172
     0
173
     0
174
     0
175
     0
176
     0
177
     0
178
     0
  0
ENDTAB
  0
ENDSEC
  0
SECTION
  2
BLOCKS
  0
BLOCK
  8
0
  2
$MODEL_SPACE
 70
     0
 10
0.0
 20
0.0
 30
0.0
  3
$MODEL_SPACE
  1

  0
ENDBLK
  5
21
  8
0
  0
BLOCK
 67
     1
  8
0
  2
$PAPER_SPACE
 70
     0
 10
0.0
 20
0.0
 30
0.0
  3
$PAPER_SPACE
  1

  0
ENDBLK
  5
1D
 67
     1
  8
0
  0
ENDSEC
  0
SECTION
  2
ENTITIES
  0
POINT
  5
43
  8
1
 62
     3
 10
0.0
 20
0.0
 30
0.0
  0
POINT
  5
44
  8
1
 62
     7
 10
0.0
 20
0.0
 30
0.0
  0
LINE
  5
45
  8
0
  6
CONTINUOUS
 62
     7
 10
0.0
 20
0.0
 30
0.0
 11
0.0
 21
-70.34999999999971
 31
0.0
  0
LINE
  5
46
  8
0
  6
CONTINUOUS
 62
     7
 10
18.40000000000002
 20
-59.7000000000003
 30
0.0
 11
18.40000000000002
 21
-57.80000000000001
 31
0.0
  0
LINE
  5
47
  8
0
  6
CONTINUOUS
 62
     7
 10
18.40000000000002
 20
-57.80000000000001
 30
0.0
 11
18.20000000000009
 21
-57.80000000000001
 31
0.0
  0
LINE
  5
48
  8
0
  6
CONTINUOUS
 62
     7
 10
18.20000000000009
 20
-57.80000000000001
 30
0.0
 11
16.09999999999995
 21
-57.80000000000001
 31
0.0
  0
LINE
  5
49
  8
0
  6
CONTINUOUS
 62
     7
 10
16.09999999999995
 20
-57.80000000000001
 30
0.0
 11
16.09999999999995
 21
-51.80000000000021
 31
0.0
  0
LINE
  5
4A
  8
0
  6
CONTINUOUS
 62
     7
 10
18.40000000000002
 20
-69.80000000000021
 30
0.0
 11
18.40000000000002
 21
-69.14999999999921
 31
0.0
  0
LINE
  5
4B
  8
0
  6
CONTINUOUS
 62
     7
 10
16.09999999999995
 20
-69.80000000000021
 30
0.0
 11
18.40000000000002
 21
-69.80000000000021
 31
0.0
  0
LINE
  5
4C
  8
0
  6
CONTINUOUS
 62
     7
 10
16.09999999999995
 20
-69.99999999999912
 30
0.0
 11
16.09999999999995
 21
-69.80000000000021
 31
0.0
  0
LINE
  5
4D
  8
0
  6
CONTINUOUS
 62
     7
 10
16.09999999999995
 20
-75.80000000000001
 30
0.0
 11
16.09999999999995
 21
-69.99999999999912
 31
0.0
  0
LINE
  5
4E
  8
0
  6
CONTINUOUS
 62
     7
 10
18.19999999999997
 20
-75.80000000000001
 30
0.0
 11
16.09999999999995
 21
-75.80000000000001
 31
0.0
  0
LINE
  5
4F
  8
0
  6
CONTINUOUS
 62
     7
 10
18.40000000000002
 20
-75.80000000000001
 30
0.0
 11
18.19999999999997
 21
-75.80000000000001
 31
0.0
  0
LINE
  5
50
  8
0
  6
CONTINUOUS
 62
     7
 10
18.40000000000002
 20
-77.5499999999993
 30
0.0
 11
18.40000000000002
 21
-75.80000000000001
 31
0.0
  0
LINE
  5
51
  8
0
  6
CONTINUOUS
 62
     7
 10
33.60000000000007
 20
-75.80000000000001
 30
0.0
 11
33.60000000000007
 21
-77.5499999999993
 31
0.0
  0
LINE
  5
52
  8
0
  6
CONTINUOUS
 62
     7
 10
33.60000000000007
 20
-75.80000000000001
 30
0.0
 11
33.79999999999988
 21
-75.80000000000001
 31
0.0
  0
LINE
  5
53
  8
0
  6
CONTINUOUS
 62
     7
 10
33.79999999999988
 20
-75.80000000000001
 30
0.0
 11
35.90000000000002
 21
-75.80000000000001
 31
0.0
  0
LINE
  5
54
  8
0
  6
CONTINUOUS
 62
     7
 10
35.90000000000002
 20
-69.99999999999872
 30
0.0
 11
35.90000000000002
 21
-75.80000000000001
 31
0.0
  0
LINE
  5
55
  8
0
  6
CONTINUOUS
 62
     7
 10
35.90000000000002
 20
-69.80000000000021
 30
0.0
 11
35.90000000000002
 21
-69.99999999999872
 31
0.0
  0
LINE
  5
56
  8
0
  6
CONTINUOUS
 62
     7
 10
33.60000000000007
 20
-69.80000000000021
 30
0.0
 11
35.90000000000002
 21
-69.80000000000021
 31
0.0
  0
LINE
  5
57
  8
0
  6
CONTINUOUS
 62
     7
 10
33.60000000000007
 20
-69.14999999999921
 30
0.0
 11
33.60000000000007
 21
-69.80000000000021
 31
0.0
  0
LINE
  5
58
  8
0
  6
CONTINUOUS
 62
     7
 10
35.90000000000002
 20
-51.80000000000021
 30
0.0
 11
35.90000000000002
 21
-57.80000000000001
 31
0.0
  0
LINE
  5
59
  8
0
  6
CONTINUOUS
 62
     7
 10
33.79999999999988
 20
-57.80000000000001
 30
0.0
 11
35.90000000000002
 21
-57.80000000000001
 31
0.0
  0
LINE
  5
5A
  8
0
  6
CONTINUOUS
 62
     7
 10
33.60000000000007
 20
-57.80000000000001
 30
0.0
 11
33.79999999999988
 21
-57.80000000000001
 31
0.0
  0
LINE
  5
5B
  8
0
  6
CONTINUOUS
 62
     7
 10
33.60000000000007
 20
-57.80000000000001
 30
0.0
 11
33.60000000000007
 21
-59.7000000000003
 31
0.0
  0
LINE
  5
5C
  8
0
  6
CONTINUOUS
 62
     7
 10
33.60000000000007
 20
-40.35000000000022
 30
0.0
 11
33.60000000000007
 21
-41.90000000000012
 31
0.0
  0
LINE
  5
5D
  8
0
  6
CONTINUOUS
 62
     7
 10
33.8
 20
-40.35000000000022
 30
0.0
 11
33.60000000000007
 21
-40.35000000000022
 31
0.0
  0
LINE
  5
5E
  8
0
  6
CONTINUOUS
 62
     7
 10
35.99999999999993
 20
-40.35000000000022
 30
0.0
 11
33.8
 21
-40.35000000000022
 31
0.0
  0
LINE
  5
5F
  8
0
  6
CONTINUOUS
 62
     7
 10
35.99999999999993
 20
-35.50000000000031
 30
0.0
 11
35.99999999999993
 21
-40.35000000000022
 31
0.0
  0
LINE
  5
60
  8
0
  6
CONTINUOUS
 62
     7
 10
35.99999999999993
 20
-35.00000000000031
 30
0.0
 11
35.99999999999993
 21
-35.50000000000031
 31
0.0
  0
LINE
  5
61
  8
0
  6
CONTINUOUS
 62
     7
 10
18.40000000000002
 20
-41.90000000000012
 30
0.0
 11
18.40000000000002
 21
-40.35000000000031
 31
0.0
  0
LINE
  5
62
  8
0
  6
CONTINUOUS
 62
     7
 10
18.40000000000002
 20
-40.35000000000031
 30
0.0
 11
18.20000000000009
 21
-40.35000000000031
 31
0.0
  0
LINE
  5
63
  8
0
  6
CONTINUOUS
 62
     7
 10
18.20000000000009
 20
-40.35000000000031
 30
0.0
 11
16.00000000000004
 21
-40.35000000000022
 31
0.0
  0
LINE
  5
64
  8
0
  6
CONTINUOUS
 62
     7
 10
16.00000000000004
 20
-40.35000000000022
 30
0.0
 11
16.00000000000004
 21
-35.50000000000001
 31
0.0
  0
LINE
  5
65
  8
0
  6
CONTINUOUS
 62
     7
 10
16.00000000000004
 20
-35.50000000000001
 30
0.0
 11
16.00000000000004
 21
-35.00000000000031
 31
0.0
  0
LINE
  5
66
  8
0
  6
CONTINUOUS
 62
     7
 10
3.020946077914
 20
0.0
 30
0.0
 11
11.97905392208617
 21
0.0
 31
0.0
  0
LINE
  5
67
  8
0
  6
CONTINUOUS
 62
     7
 10
11.97905392208617
 20
0.0
 30
0.0
 11
12.65000000000003
 21
0.0
 31
0.0
  0
LINE
  5
68
  8
0
  6
CONTINUOUS
 62
     7
 10
33.14999999999991
 20
-75.80000000000001
 30
0.0
 11
33.14999999999991
 21
-77.5499999999993
 31
0.0
  0
LINE
  5
69
  8
0
  6
CONTINUOUS
 62
     7
 10
33.60000000000007
 20
-51.80000000000021
 30
0.0
 11
33.15000000000002
 21
-51.80000000000021
 31
0.0
  0
LINE
  5
6A
  8
0
  6
CONTINUOUS
 62
     7
 10
36.19999999999986
 20
-77.5499999999993
 30
0.0
 11
36.19999999999992
 21
-77.6547623084746
 31
0.0
  0
LINE
  5
6B
  8
0
  6
CONTINUOUS
 62
     7
 10
33.60000000000007
 20
-77.5499999999993
 30
0.0
 11
36.19999999999986
 21
-77.5499999999993
 31
0.0
  0
LINE
  5
6C
  8
0
  6
CONTINUOUS
 62
     7
 10
14.49999999999994
 20
-80.34999999999971
 30
0.0
 11
37.49999999999982
 21
-80.35000000000002
 31
0.0
  0
LINE
  5
6D
  8
0
  6
CONTINUOUS
 62
     7
 10
36.19999999999992
 20
-76.69999999999942
 30
0.0
 11
36.19999999999986
 21
-77.5499999999993
 31
0.0
  0
LINE
  5
6E
  8
0
  6
CONTINUOUS
 62
     7
 10
36.19999999999992
 20
-69.99999999999912
 30
0.0
 11
36.19999999999992
 21
-76.69999999999942
 31
0.0
  0
LINE
  5
6F
  8
0
  6
CONTINUOUS
 62
     7
 10
15.79999999999988
 20
-69.99999999999912
 30
0.0
 11
15.79999999999988
 21
-76.69999999999942
 31
0.0
  0
LINE
  5
70
  8
0
  6
CONTINUOUS
 62
     7
 10
15.79999999999988
 20
-69.14999999999921
 30
0.0
 11
15.79999999999988
 21
-69.99999999999912
 31
0.0
  0
LINE
  5
71
  8
0
  6
CONTINUOUS
 62
     7
 10
15.79999999999988
 20
-77.5499999999993
 30
0.0
 11
15.79999999999988
 21
-77.6547623084746
 31
0.0
  0
LINE
  5
72
  8
0
  6
CONTINUOUS
 62
     7
 10
15.79999999999988
 20
-76.69999999999942
 30
0.0
 11
15.79999999999988
 21
-77.5499999999993
 31
0.0
  0
LINE
  5
73
  8
0
  6
CONTINUOUS
 62
     7
 10
18.84999999999995
 20
-75.80000000000001
 30
0.0
 11
18.84999999999995
 21
-77.5499999999993
 31
0.0
  0
LINE
  5
74
  8
0
  6
CONTINUOUS
 62
     7
 10
33.15000000000002
 20
-51.80000000000021
 30
0.0
 11
33.04523769152472
 21
-51.80000000000021
 31
0.0
  0
LINE
  5
75
  8
0
  6
CONTINUOUS
 62
     7
 10
35.90000000000002
 20
-51.80000000000021
 30
0.0
 11
33.60000000000007
 21
-51.80000000000021
 31
0.0
  0
LINE
  5
76
  8
0
  6
CONTINUOUS
 62
     7
 10
33.60000000000007
 20
-59.7000000000003
 30
0.0
 11
36.19999999999992
 21
-59.7000000000003
 31
0.0
  0
LINE
  5
77
  8
0
  6
CONTINUOUS
 62
     7
 10
36.19999999999992
 20
-59.7000000000003
 30
0.0
 11
36.20000000000009
 21
-59.8047623084756
 31
0.0
  0
LINE
  5
78
  8
0
  6
CONTINUOUS
 62
     7
 10
33.60000000000007
 20
-69.14999999999921
 30
0.0
 11
33.14999999999991
 21
-69.14999999999921
 31
0.0
  0
LINE
  5
79
  8
0
  6
CONTINUOUS
 62
     7
 10
33.60000000000007
 20
-41.90000000000012
 30
0.0
 11
36.20000000000003
 21
-41.90000000000012
 31
0.0
  0
LINE
  5
7A
  8
0
  6
CONTINUOUS
 62
     7
 10
36.20000000000003
 20
-41.90000000000012
 30
0.0
 11
36.20000000000003
 21
-40.85000000000002
 31
0.0
  0
LINE
  5
7B
  8
0
  6
CONTINUOUS
 62
     7
 10
35.99999999999993
 20
-35.00000000000031
 30
0.0
 11
33.15000000000002
 21
-35.00000000000031
 31
0.0
  0
LINE
  5
7C
  8
0
  6
CONTINUOUS
 62
     7
 10
36.20000000000003
 20
-35.00000000000031
 30
0.0
 11
36.20000000000003
 21
-34.89523769152501
 31
0.0
  0
LINE
  5
7D
  8
0
  6
CONTINUOUS
 62
     7
 10
15.8
 20
-40.85000000000002
 30
0.0
 11
15.8
 21
-35.50000000000001
 31
0.0
  0
LINE
  5
7E
  8
0
  6
CONTINUOUS
 62
     7
 10
15.8
 20
-35.50000000000001
 30
0.0
 11
15.8
 21
-35.00000000000031
 31
0.0
  0
LINE
  5
7F
  8
0
  6
CONTINUOUS
 62
     7
 10
15.8
 20
-35.00000000000031
 30
0.0
 11
15.8
 21
-34.89523769152501
 31
0.0
  0
LINE
  5
80
  8
0
  6
CONTINUOUS
 62
     7
 10
16.00000000000004
 20
-35.00000000000031
 30
0.0
 11
18.85000000000007
 21
-35.00000000000031
 31
0.0
  0
LINE
  5
81
  8
0
  6
CONTINUOUS
 62
     7
 10
15.8
 20
-41.90000000000012
 30
0.0
 11
15.8
 21
-40.85000000000002
 31
0.0
  0
LINE
  5
82
  8
0
  6
CONTINUOUS
 62
     7
 10
18.40000000000002
 20
-41.90000000000012
 30
0.0
 11
15.8
 21
-41.90000000000012
 31
0.0
  0
LINE
  5
83
  8
0
  6
CONTINUOUS
 62
     7
 10
18.40000000000002
 20
-69.14999999999921
 30
0.0
 11
18.84999999999995
 21
-69.14999999999921
 31
0.0
  0
LINE
  5
84
  8
0
  6
CONTINUOUS
 62
     7
 10
18.85000000000007
 20
-51.80000000000021
 30
0.0
 11
18.95476230847525
 21
-51.80000000000021
 31
0.0
  0
LINE
  5
85
  8
0
  6
CONTINUOUS
 62
     7
 10
18.40000000000002
 20
-51.80000000000021
 30
0.0
 11
18.85000000000007
 21
-51.80000000000021
 31
0.0
  0
LINE
  5
86
  8
0
  6
CONTINUOUS
 62
     7
 10
16.09999999999995
 20
-51.80000000000021
 30
0.0
 11
18.40000000000002
 21
-51.80000000000021
 31
0.0
  0
LINE
  5
87
  8
0
  6
CONTINUOUS
 62
     7
 10
15.8
 20
-58.80000000000001
 30
0.0
 11
15.79999999999988
 21
-59.7000000000003
 31
0.0
  0
LINE
  5
88
  8
0
  6
CONTINUOUS
 62
     7
 10
18.40000000000002
 20
-59.7000000000003
 30
0.0
 11
15.79999999999988
 21
-59.7000000000003
 31
0.0
  0
LINE
  5
89
  8
0
  6
CONTINUOUS
 62
     7
 10
29.59999999999972
 20
-45.02387491768153
 30
0.0
 11
29.59999999999972
 21
-45.09744788236742
 31
0.0
  0
LINE
  5
8A
  8
0
  6
CONTINUOUS
 62
     7
 10
22.39999999999968
 20
-45.02387491768153
 30
0.0
 11
22.39999999999968
 21
-45.09744788236742
 31
0.0
  0
LINE
  5
8B
  8
0
  6
CONTINUOUS
 62
     7
 10
28.10000000000007
 20
-45.02387491768153
 30
0.0
 11
28.02407046756223
 21
-45.02387491768153
 31
0.0
  0
LINE
  5
8C
  8
0
  6
CONTINUOUS
 62
     7
 10
23.97592953243775
 20
-45.02387491768153
 30
0.0
 11
23.90000000000002
 21
-45.02387491768153
 31
0.0
  0
LINE
  5
8D
  8
0
  6
CONTINUOUS
 62
     7
 10
28.02407046756223
 20
-45.02387491768153
 30
0.0
 11
23.97592953243775
 21
-45.02387491768153
 31
0.0
  0
LINE
  5
8E
  8
0
  6
CONTINUOUS
 62
     7
 10
23.90000000000002
 20
-45.02387491768153
 30
0.0
 11
22.39999999999968
 21
-45.02387491768153
 31
0.0
  0
LINE
  5
8F
  8
0
  6
CONTINUOUS
 62
     7
 10
29.59999999999972
 20
-45.09744788236742
 30
0.0
 11
29.59999999999972
 21
-49.65000000000012
 31
0.0
  0
LINE
  5
90
  8
0
  6
CONTINUOUS
 62
     7
 10
22.39999999999968
 20
-45.09744788236742
 30
0.0
 11
22.39999999999968
 21
-49.65000000000012
 31
0.0
  0
LINE
  5
91
  8
0
  6
CONTINUOUS
 62
     7
 10
28.10000000000007
 20
-45.09744788236742
 30
0.0
 11
28.02407046756223
 21
-45.09744788236742
 31
0.0
  0
LINE
  5
92
  8
0
  6
CONTINUOUS
 62
     7
 10
23.97592953243775
 20
-45.09744788236742
 30
0.0
 11
23.90000000000002
 21
-45.09744788236742
 31
0.0
  0
LINE
  5
93
  8
0
  6
CONTINUOUS
 62
     7
 10
28.02407046756223
 20
-45.09744788236742
 30
0.0
 11
23.97592953243775
 21
-45.09744788236742
 31
0.0
  0
LINE
  5
94
  8
0
  6
CONTINUOUS
 62
     7
 10
23.90000000000002
 20
-45.09744788236742
 30
0.0
 11
22.39999999999968
 21
-45.09744788236742
 31
0.0
  0
LINE
  5
95
  8
0
  6
CONTINUOUS
 62
     7
 10
18.40000000000002
 20
-77.5499999999993
 30
0.0
 11
15.79999999999988
 21
-77.5499999999993
 31
0.0
  0
LINE
  5
96
  8
0
  6
CONTINUOUS
 62
     7
 10
36.20000000000003
 20
-35.50000000000001
 30
0.0
 11
36.20000000000003
 21
-35.00000000000031
 31
0.0
  0
LINE
  5
97
  8
0
  6
CONTINUOUS
 62
     7
 10
36.20000000000003
 20
-40.85000000000002
 30
0.0
 11
36.20000000000003
 21
-35.50000000000001
 31
0.0
  0
LINE
  5
98
  8
0
  6
CONTINUOUS
 62
     7
 10
36.20000000000003
 20
-58.80000000000001
 30
0.0
 11
36.19999999999992
 21
-59.7000000000003
 31
0.0
  0
LINE
  5
99
  8
0
  6
CONTINUOUS
 62
     7
 10
40.02094607791382
 20
0.0
 30
0.0
 11
39.35000000000007
 21
0.0
 31
0.0
  0
LINE
  5
9A
  8
0
  6
CONTINUOUS
 62
     7
 10
48.97905392208615
 20
0.0
 30
0.0
 11
40.02094607791382
 21
0.0
 31
0.0
  0
LINE
  5
9B
  8
0
  6
CONTINUOUS
 62
     7
 10
2.35000000000002
 20
-4.00000000000001
 30
0.0
 11
2.24523769152481
 21
-4.10476230847532
 31
0.0
  0
LINE
  5
9C
  8
0
  6
CONTINUOUS
 62
     7
 10
2.34999999999991
 20
0.00000000000017
 30
0.0
 11
2.24523769152481
 21
0.1047623084753
 31
0.0
  0
LINE
  5
9D
  8
0
  6
CONTINUOUS
 62
     7
 10
0.0
 20
16.64999999999998
 30
0.0
 11
0.0
 21
0.0
 31
0.0
  0
LINE
  5
9E
  8
0
  6
CONTINUOUS
 62
     7
 10
12.65000000000003
 20
-4.00000000000001
 30
0.0
 11
2.35000000000002
 21
-4.00000000000001
 31
0.0
  0
LINE
  5
9F
  8
0
  6
CONTINUOUS
 62
     7
 10
2.35000000000002
 20
-4.00000000000001
 30
0.0
 11
2.34999999999991
 21
0.00000000000017
 31
0.0
  0
LINE
  5
A0
  8
0
  6
CONTINUOUS
 62
     7
 10
3.03659509553648
 20
-2.42261826174035
 30
0.0
 11
3.020946077914
 21
-0.5
 31
0.0
  0
LINE
  5
A1
  8
0
  6
CONTINUOUS
 62
     7
 10
3.020946077914
 20
-0.5
 30
0.0
 11
3.020946077914
 21
0.0
 31
0.0
  0
LINE
  5
A2
  8
0
  6
CONTINUOUS
 62
     7
 10
11.94758524319587
 20
-2.99999999999977
 30
0.0
 11
3.0524147568043
 21
-2.99999999999977
 31
0.0
  0
LINE
  5
A3
  8
0
  6
CONTINUOUS
 62
     7
 10
11.97905392208617
 20
-0.5
 30
0.0
 11
3.020946077914
 21
-0.5
 31
0.0
  0
LINE
  5
A4
  8
0
  6
CONTINUOUS
 62
     7
 10
36.99999999999993
 20
55.65000000000032
 30
0.0
 11
41.99999999999993
 21
50.65000000000032
 31
0.0
  0
LINE
  5
A5
  8
0
  6
CONTINUOUS
 62
     7
 10
15.00000000000006
 20
55.65000000000032
 30
0.0
 11
10.0
 21
50.65000000000032
 31
0.0
  0
LINE
  5
A6
  8
0
  6
CONTINUOUS
 62
     7
 10
2.24523769152481
 20
0.1047623084753
 30
0.0
 11
12.75476230847522
 21
0.1047623084753
 31
0.0
  0
LINE
  5
A7
  8
0
  6
CONTINUOUS
 62
     7
 10
2.24523769152481
 20
-4.10476230847532
 30
0.0
 11
2.24523769152481
 21
0.1047623084753
 31
0.0
  0
LINE
  5
A8
  8
0
  6
CONTINUOUS
 62
     7
 10
12.75476230847522
 20
-4.10476230847532
 30
0.0
 11
2.24523769152481
 21
-4.10476230847532
 31
0.0
  0
LINE
  5
A9
  8
0
  6
CONTINUOUS
 62
     7
 10
10.0
 20
26.65000000000032
 30
0.0
 11
0.0
 21
16.64999999999998
 31
0.0
  0
LINE
  5
AA
  8
0
  6
CONTINUOUS
 62
     7
 10
0.0
 20
-70.34999999999971
 30
0.0
 11
5.00000000000028
 21
-75.35000000000002
 31
0.0
  0
LINE
  5
AB
  8
0
  6
CONTINUOUS
 62
     7
 10
33.15000000000002
 20
-51.80000000000021
 30
0.0
 11
33.15000000000002
 21
-59.7000000000003
 31
0.0
  0
LINE
  5
AC
  8
0
  6
CONTINUOUS
 62
     7
 10
29.59999999999972
 20
-45.02387491768153
 30
0.0
 11
28.10000000000007
 21
-45.02387491768153
 31
0.0
  0
LINE
  5
AD
  8
0
  6
CONTINUOUS
 62
     7
 10
29.59999999999972
 20
-45.09744788236742
 30
0.0
 11
28.10000000000007
 21
-45.09744788236742
 31
0.0
  0
LINE
  5
AE
  8
0
  6
CONTINUOUS
 62
     7
 10
33.15000000000002
 20
-41.9000000000004
 30
0.0
 11
33.04523769152472
 21
-42.00476230847542
 31
0.0
  0
LINE
  5
AF
  8
0
  6
CONTINUOUS
 62
     7
 10
33.79999999999988
 20
-58.80000000000001
 30
0.0
 11
36.20000000000003
 21
-58.80000000000001
 31
0.0
  0
LINE
  5
B0
  8
0
  6
CONTINUOUS
 62
     7
 10
33.15000000000002
 20
-59.7000000000003
 30
0.0
 11
33.04523769152472
 21
-59.8047623084756
 31
0.0
  0
LINE
  5
B1
  8
0
  6
CONTINUOUS
 62
     7
 10
33.8
 20
-40.85000000000022
 30
0.0
 11
36.20000000000003
 21
-40.85000000000002
 31
0.0
  0
LINE
  5
B2
  8
0
  6
CONTINUOUS
 62
     7
 10
33.15000000000002
 20
-35.00000000000031
 30
0.0
 11
33.04523769152472
 21
-34.89523769152501
 31
0.0
  0
LINE
  5
B3
  8
0
  6
CONTINUOUS
 62
     7
 10
36.20000000000003
 20
-35.00000000000031
 30
0.0
 11
35.99999999999993
 21
-35.00000000000031
 31
0.0
  0
LINE
  5
B4
  8
0
  6
CONTINUOUS
 62
     7
 10
33.15000000000002
 20
-41.9000000000004
 30
0.0
 11
33.60000000000007
 21
-41.90000000000012
 31
0.0
  0
LINE
  5
B5
  8
0
  6
CONTINUOUS
 62
     7
 10
33.15000000000002
 20
-35.00000000000031
 30
0.0
 11
33.15000000000002
 21
-41.9000000000004
 31
0.0
  0
LINE
  5
B6
  8
0
  6
CONTINUOUS
 62
     7
 10
49.65000000000013
 20
0.0
 30
0.0
 11
49.75476230847519
 21
0.1047623084753
 31
0.0
  0
LINE
  5
B7
  8
0
  6
CONTINUOUS
 62
     7
 10
49.65000000000001
 20
-4.00000000000001
 30
0.0
 11
49.75476230847519
 21
-4.10476230847532
 31
0.0
  0
LINE
  5
B8
  8
0
  6
CONTINUOUS
 62
     7
 10
49.65000000000001
 20
-4.00000000000001
 30
0.0
 11
49.65000000000013
 21
0.0
 31
0.0
  0
LINE
  5
B9
  8
0
  6
CONTINUOUS
 62
     7
 10
48.97905392208615
 20
-0.5
 30
0.0
 11
48.97905392208615
 21
0.0
 31
0.0
  0
LINE
  5
BA
  8
0
  6
CONTINUOUS
 62
     7
 10
40.02094607791382
 20
0.0
 30
0.0
 11
40.02094607791393
 21
-0.50000000000028
 31
0.0
  0
LINE
  5
BB
  8
0
  6
CONTINUOUS
 62
     7
 10
40.02094607791393
 20
-0.50000000000028
 30
0.0
 11
40.03659509553658
 21
-2.42261826174058
 31
0.0
  0
LINE
  5
BC
  8
0
  6
CONTINUOUS
 62
     7
 10
40.02094607791393
 20
-0.50000000000028
 30
0.0
 11
48.97905392208615
 21
-0.5
 31
0.0
  0
LINE
  5
BD
  8
0
  6
CONTINUOUS
 62
     7
 10
39.35000000000007
 20
0.0
 30
0.0
 11
39.35000000000007
 21
-4.00000000000001
 31
0.0
  0
LINE
  5
BE
  8
0
  6
CONTINUOUS
 62
     7
 10
49.65000000000013
 20
0.0
 30
0.0
 11
48.97905392208615
 21
0.0
 31
0.0
  0
LINE
  5
BF
  8
0
  6
CONTINUOUS
 62
     7
 10
48.9634049044635
 20
-2.42261826174035
 30
0.0
 11
48.97905392208615
 21
-0.5
 31
0.0
  0
LINE
  5
C0
  8
0
  6
CONTINUOUS
 62
     7
 10
40.05241475680411
 20
-2.99999999999977
 30
0.0
 11
48.94758524319585
 21
-2.99999999999977
 31
0.0
  0
LINE
  5
C1
  8
0
  6
CONTINUOUS
 62
     7
 10
39.35000000000007
 20
-4.00000000000001
 30
0.0
 11
39.24523769152488
 21
-4.10476230847532
 31
0.0
  0
LINE
  5
C2
  8
0
  6
CONTINUOUS
 62
     7
 10
39.24523769152488
 20
0.1047623084753
 30
0.0
 11
39.35000000000007
 21
0.0
 31
0.0
  0
LINE
  5
C3
  8
0
  6
CONTINUOUS
 62
     7
 10
39.35000000000007
 20
-4.00000000000001
 30
0.0
 11
49.65000000000001
 21
-4.00000000000001
 31
0.0
  0
LINE
  5
C4
  8
0
  6
CONTINUOUS
 62
     7
 10
41.99999999999993
 20
50.65000000000032
 30
0.0
 11
41.99999999999993
 21
26.65000000000032
 31
0.0
  0
LINE
  5
C5
  8
0
  6
CONTINUOUS
 62
     7
 10
52.00000000000038
 20
16.64999999999981
 30
0.0
 11
41.99999999999993
 21
26.65000000000032
 31
0.0
  0
LINE
  5
C6
  8
0
  6
CONTINUOUS
 62
     7
 10
15.00000000000006
 20
55.65000000000032
 30
0.0
 11
36.99999999999993
 21
55.65000000000032
 31
0.0
  0
LINE
  5
C7
  8
0
  6
CONTINUOUS
 62
     7
 10
9.50000000000034
 20
-75.35000000000002
 30
0.0
 11
5.00000000000028
 21
-75.35000000000002
 31
0.0
  0
LINE
  5
C8
  8
0
  6
CONTINUOUS
 62
     7
 10
12.75476230847522
 20
0.1047623084753
 30
0.0
 11
12.75476230847522
 21
-4.10476230847532
 31
0.0
  0
LINE
  5
C9
  8
0
  6
CONTINUOUS
 62
     7
 10
2.34999999999991
 20
0.00000000000017
 30
0.0
 11
3.020946077914
 21
0.0
 31
0.0
  0
LINE
  5
CA
  8
0
  6
CONTINUOUS
 62
     7
 10
12.75476230847522
 20
0.1047623084753
 30
0.0
 11
12.65000000000003
 21
0.0
 31
0.0
  0
LINE
  5
CB
  8
0
  6
CONTINUOUS
 62
     7
 10
12.65000000000003
 20
0.0
 30
0.0
 11
12.65000000000003
 21
-4.00000000000001
 31
0.0
  0
LINE
  5
CC
  8
0
  6
CONTINUOUS
 62
     7
 10
11.97905392208617
 20
-0.5
 30
0.0
 11
11.96340490446352
 21
-2.42261826174058
 31
0.0
  0
LINE
  5
CD
  8
0
  6
CONTINUOUS
 62
     7
 10
11.97905392208617
 20
0.0
 30
0.0
 11
11.97905392208617
 21
-0.5
 31
0.0
  0
LINE
  5
CE
  8
0
  6
CONTINUOUS
 62
     7
 10
12.65000000000003
 20
-4.00000000000001
 30
0.0
 11
12.75476230847522
 21
-4.10476230847532
 31
0.0
  0
LINE
  5
CF
  8
0
  6
CONTINUOUS
 62
     7
 10
33.04523769152472
 20
-42.00476230847542
 30
0.0
 11
36.20000000000003
 21
-42.00476230847542
 31
0.0
  0
LINE
  5
D0
  8
0
  6
CONTINUOUS
 62
     7
 10
33.04523769152472
 20
-59.8047623084756
 30
0.0
 11
36.20000000000009
 21
-59.8047623084756
 31
0.0
  0
LINE
  5
D1
  8
0
  6
CONTINUOUS
 62
     7
 10
33.04523769152472
 20
-51.80000000000021
 30
0.0
 11
33.04523769152472
 21
-59.8047623084756
 31
0.0
  0
LINE
  5
D2
  8
0
  6
CONTINUOUS
 62
     7
 10
47.00000000000016
 20
-75.34999999999971
 30
0.0
 11
52.00000000000038
 21
-70.34999999999971
 31
0.0
  0
LINE
  5
D3
  8
0
  6
CONTINUOUS
 62
     7
 10
33.04523769152461
 20
-69.04523769152422
 30
0.0
 11
33.04523769152461
 21
-77.6547623084746
 31
0.0
  0
LINE
  5
D4
  8
0
  6
CONTINUOUS
 62
     7
 10
36.19999999999992
 20
-69.04523769152391
 30
0.0
 11
33.04523769152461
 21
-69.04523769152422
 31
0.0
  0
LINE
  5
D5
  8
0
  6
CONTINUOUS
 62
     7
 10
33.04523769152461
 20
-77.6547623084746
 30
0.0
 11
36.19999999999992
 21
-77.6547623084746
 31
0.0
  0
LINE
  5
D6
  8
0
  6
CONTINUOUS
 62
     7
 10
29.59999999999972
 20
-44.83468729420301
 30
0.0
 11
29.59999999999972
 21
-45.02387491768153
 31
0.0
  0
LINE
  5
D7
  8
0
  6
CONTINUOUS
 62
     7
 10
29.59999999999972
 20
-44.83468729420301
 30
0.0
 11
22.39999999999968
 21
-44.83468729420301
 31
0.0
  0
LINE
  5
D8
  8
0
  6
CONTINUOUS
 62
     7
 10
29.59999999999972
 20
-49.65000000000012
 30
0.0
 11
22.39999999999968
 21
-49.65000000000012
 31
0.0
  0
LINE
  5
D9
  8
0
  6
CONTINUOUS
 62
     7
 10
22.39999999999968
 20
-44.83468729420301
 30
0.0
 11
22.39999999999968
 21
-45.02387491768153
 31
0.0
  0
LINE
  5
DA
  8
0
  6
CONTINUOUS
 62
     7
 10
36.19999999999992
 20
-69.99999999999912
 30
0.0
 11
35.90000000000002
 21
-69.99999999999872
 31
0.0
  0
LINE
  5
DB
  8
0
  6
CONTINUOUS
 62
     7
 10
36.19999999999992
 20
-69.04523769152391
 30
0.0
 11
36.19999999999992
 21
-69.14999999999921
 31
0.0
  0
LINE
  5
DC
  8
0
  6
CONTINUOUS
 62
     7
 10
36.19999999999992
 20
-69.14999999999921
 30
0.0
 11
33.60000000000007
 21
-69.14999999999921
 31
0.0
  0
LINE
  5
DD
  8
0
  6
CONTINUOUS
 62
     7
 10
18.95476230847525
 20
-59.8047623084756
 30
0.0
 11
15.8
 21
-59.8047623084756
 31
0.0
  0
LINE
  5
DE
  8
0
  6
CONTINUOUS
 62
     7
 10
18.84999999999995
 20
-69.14999999999921
 30
0.0
 11
18.95476230847514
 21
-69.04523769152391
 31
0.0
  0
LINE
  5
DF
  8
0
  6
CONTINUOUS
 62
     7
 10
18.85000000000007
 20
-59.7000000000003
 30
0.0
 11
18.95476230847525
 21
-59.8047623084756
 31
0.0
  0
LINE
  5
E0
  8
0
  6
CONTINUOUS
 62
     7
 10
18.20000000000009
 20
-40.85000000000022
 30
0.0
 11
15.8
 21
-40.85000000000002
 31
0.0
  0
LINE
  5
E1
  8
0
  6
CONTINUOUS
 62
     7
 10
18.20000000000009
 20
-40.85000000000022
 30
0.0
 11
18.20000000000009
 21
-40.35000000000031
 31
0.0
  0
LINE
  5
E2
  8
0
  6
CONTINUOUS
 62
     7
 10
16.00000000000004
 20
-35.50000000000001
 30
0.0
 11
15.8
 21
-35.50000000000001
 31
0.0
  0
LINE
  5
E3
  8
0
  6
CONTINUOUS
 62
     7
 10
18.85000000000007
 20
-35.00000000000031
 30
0.0
 11
18.85000000000007
 21
-41.90000000000012
 31
0.0
  0
LINE
  5
E4
  8
0
  6
CONTINUOUS
 62
     7
 10
15.8
 20
-35.00000000000031
 30
0.0
 11
16.00000000000004
 21
-35.00000000000031
 31
0.0
  0
LINE
  5
E5
  8
0
  6
CONTINUOUS
 62
     7
 10
18.85000000000007
 20
-41.90000000000012
 30
0.0
 11
18.40000000000002
 21
-41.90000000000012
 31
0.0
  0
LINE
  5
E6
  8
0
  6
CONTINUOUS
 62
     7
 10
18.95476230847525
 20
-42.00476230847571
 30
0.0
 11
15.8
 21
-42.00476230847542
 31
0.0
  0
LINE
  5
E7
  8
0
  6
CONTINUOUS
 62
     7
 10
18.85000000000007
 20
-35.00000000000031
 30
0.0
 11
18.95476230847525
 21
-34.89523769152501
 31
0.0
  0
LINE
  5
E8
  8
0
  6
CONTINUOUS
 62
     7
 10
15.8
 20
-34.89523769152501
 30
0.0
 11
18.95476230847525
 21
-34.89523769152501
 31
0.0
  0
LINE
  5
E9
  8
0
  6
CONTINUOUS
 62
     7
 10
15.8
 20
-42.00476230847542
 30
0.0
 11
15.8
 21
-41.90000000000012
 31
0.0
  0
LINE
  5
EA
  8
0
  6
CONTINUOUS
 62
     7
 10
18.95476230847525
 20
-42.00476230847571
 30
0.0
 11
18.85000000000007
 21
-41.90000000000012
 31
0.0
  0
LINE
  5
EB
  8
0
  6
CONTINUOUS
 62
     7
 10
18.95476230847525
 20
-34.89523769152501
 30
0.0
 11
18.95476230847525
 21
-42.00476230847571
 31
0.0
  0
LINE
  5
EC
  8
0
  6
CONTINUOUS
 62
     7
 10
33.14999999999991
 20
-69.14999999999921
 30
0.0
 11
33.04523769152461
 21
-69.04523769152422
 31
0.0
  0
LINE
  5
ED
  8
0
  6
CONTINUOUS
 62
     7
 10
15.79999999999988
 20
-69.14999999999921
 30
0.0
 11
18.40000000000002
 21
-69.14999999999921
 31
0.0
  0
LINE
  5
EE
  8
0
  6
CONTINUOUS
 62
     7
 10
15.79999999999988
 20
-69.04523769152391
 30
0.0
 11
18.95476230847514
 21
-69.04523769152391
 31
0.0
  0
LINE
  5
EF
  8
0
  6
CONTINUOUS
 62
     7
 10
15.79999999999988
 20
-69.99999999999912
 30
0.0
 11
16.09999999999995
 21
-69.99999999999912
 31
0.0
  0
LINE
  5
F0
  8
0
  6
CONTINUOUS
 62
     7
 10
33.14999999999991
 20
-69.14999999999921
 30
0.0
 11
33.14999999999991
 21
-75.80000000000001
 31
0.0
  0
LINE
  5
F1
  8
0
  6
CONTINUOUS
 62
     7
 10
33.79999999999988
 20
-58.80000000000001
 30
0.0
 11
33.79999999999988
 21
-57.80000000000001
 31
0.0
  0
LINE
  5
F2
  8
0
  6
CONTINUOUS
 62
     7
 10
33.15000000000002
 20
-59.7000000000003
 30
0.0
 11
33.60000000000007
 21
-59.7000000000003
 31
0.0
  0
LINE
  5
F3
  8
0
  6
CONTINUOUS
 62
     7
 10
36.20000000000009
 20
-51.80000000000021
 30
0.0
 11
36.20000000000003
 21
-58.80000000000001
 31
0.0
  0
LINE
  5
F4
  8
0
  6
CONTINUOUS
 62
     7
 10
33.8
 20
-40.85000000000022
 30
0.0
 11
33.8
 21
-40.35000000000022
 31
0.0
  0
LINE
  5
F5
  8
0
  6
CONTINUOUS
 62
     7
 10
36.20000000000003
 20
-35.50000000000001
 30
0.0
 11
35.99999999999993
 21
-35.50000000000031
 31
0.0
  0
LINE
  5
F6
  8
0
  6
CONTINUOUS
 62
     7
 10
39.24523769152488
 20
-4.10476230847532
 30
0.0
 11
49.75476230847519
 21
-4.10476230847532
 31
0.0
  0
LINE
  5
F7
  8
0
  6
CONTINUOUS
 62
     7
 10
49.75476230847519
 20
0.1047623084753
 30
0.0
 11
39.24523769152488
 21
0.1047623084753
 31
0.0
  0
LINE
  5
F8
  8
0
  6
CONTINUOUS
 62
     7
 10
39.24523769152488
 20
0.1047623084753
 30
0.0
 11
39.24523769152488
 21
-4.10476230847532
 31
0.0
  0
LINE
  5
F9
  8
0
  6
CONTINUOUS
 62
     7
 10
36.20000000000003
 20
-42.00476230847542
 30
0.0
 11
36.20000000000003
 21
-41.90000000000012
 31
0.0
  0
LINE
  5
FA
  8
0
  6
CONTINUOUS
 62
     7
 10
33.04523769152472
 20
-34.89523769152501
 30
0.0
 11
33.04523769152472
 21
-42.00476230847542
 31
0.0
  0
LINE
  5
FB
  8
0
  6
CONTINUOUS
 62
     7
 10
36.20000000000003
 20
-34.89523769152501
 30
0.0
 11
33.04523769152472
 21
-34.89523769152501
 31
0.0
  0
LINE
  5
FC
  8
0
  6
CONTINUOUS
 62
     7
 10
36.20000000000009
 20
-51.80000000000021
 30
0.0
 11
35.90000000000002
 21
-51.80000000000021
 31
0.0
  0
LINE
  5
FD
  8
0
  6
CONTINUOUS
 62
     7
 10
18.95476230847525
 20
-51.80000000000021
 30
0.0
 11
18.95476230847525
 21
-59.8047623084756
 31
0.0
  0
LINE
  5
FE
  8
0
  6
CONTINUOUS
 62
     7
 10
15.8
 20
-51.80000000000021
 30
0.0
 11
16.09999999999995
 21
-51.80000000000021
 31
0.0
  0
LINE
  5
FF
  8
0
  6
CONTINUOUS
 62
     7
 10
15.8
 20
-51.80000000000021
 30
0.0
 11
15.8
 21
-58.80000000000001
 31
0.0
  0
LINE
  5
100
  8
0
  6
CONTINUOUS
 62
     7
 10
15.79999999999988
 20
-59.7000000000003
 30
0.0
 11
15.8
 21
-59.8047623084756
 31
0.0
  0
LINE
  5
101
  8
0
  6
CONTINUOUS
 62
     7
 10
18.20000000000009
 20
-58.80000000000001
 30
0.0
 11
15.8
 21
-58.80000000000001
 31
0.0
  0
LINE
  5
102
  8
0
  6
CONTINUOUS
 62
     7
 10
18.20000000000009
 20
-58.80000000000001
 30
0.0
 11
18.20000000000009
 21
-57.80000000000001
 31
0.0
  0
LINE
  5
103
  8
0
  6
CONTINUOUS
 62
     7
 10
18.85000000000007
 20
-59.7000000000003
 30
0.0
 11
18.40000000000002
 21
-59.7000000000003
 31
0.0
  0
LINE
  5
104
  8
0
  6
CONTINUOUS
 62
     7
 10
18.85000000000007
 20
-51.80000000000021
 30
0.0
 11
18.85000000000007
 21
-59.7000000000003
 31
0.0
  0
LINE
  5
105
  8
0
  6
CONTINUOUS
 62
     7
 10
18.84999999999995
 20
-69.14999999999921
 30
0.0
 11
18.84999999999995
 21
-75.80000000000001
 31
0.0
  0
LINE
  5
106
  8
0
  6
CONTINUOUS
 62
     7
 10
18.95476230847514
 20
-69.04523769152391
 30
0.0
 11
18.95476230847514
 21
-77.6547623084746
 31
0.0
  0
LINE
  5
107
  8
0
  6
CONTINUOUS
 62
     7
 10
18.19999999999997
 20
-75.80000000000001
 30
0.0
 11
18.19999999999997
 21
-76.69999999999922
 31
0.0
  0
LINE
  5
108
  8
0
  6
CONTINUOUS
 62
     7
 10
18.19999999999997
 20
-76.69999999999922
 30
0.0
 11
15.79999999999988
 21
-76.69999999999942
 31
0.0
  0
LINE
  5
109
  8
0
  6
CONTINUOUS
 62
     7
 10
15.79999999999988
 20
-69.04523769152391
 30
0.0
 11
15.79999999999988
 21
-69.14999999999921
 31
0.0
  0
LINE
  5
10A
  8
0
  6
CONTINUOUS
 62
     7
 10
36.19999999999992
 20
-69.14999999999921
 30
0.0
 11
36.19999999999992
 21
-69.99999999999912
 31
0.0
  0
LINE
  5
10B
  8
0
  6
CONTINUOUS
 62
     7
 10
33.79999999999988
 20
-76.69999999999922
 30
0.0
 11
33.79999999999988
 21
-75.80000000000001
 31
0.0
  0
LINE
  5
10C
  8
0
  6
CONTINUOUS
 62
     7
 10
33.04523769152461
 20
-77.6547623084746
 30
0.0
 11
33.14999999999991
 21
-77.5499999999993
 31
0.0
  0
LINE
  5
10D
  8
0
  6
CONTINUOUS
 62
     7
 10
18.95476230847514
 20
-77.6547623084746
 30
0.0
 11
18.84999999999995
 21
-77.5499999999993
 31
0.0
  0
LINE
  5
10E
  8
0
  6
CONTINUOUS
 62
     7
 10
18.95476230847514
 20
-77.6547623084746
 30
0.0
 11
15.79999999999988
 21
-77.6547623084746
 31
0.0
  0
LINE
  5
10F
  8
0
  6
CONTINUOUS
 62
     7
 10
33.14999999999991
 20
-77.5499999999993
 30
0.0
 11
33.60000000000007
 21
-77.5499999999993
 31
0.0
  0
LINE
  5
110
  8
0
  6
CONTINUOUS
 62
     7
 10
18.84999999999995
 20
-77.5499999999993
 30
0.0
 11
18.40000000000002
 21
-77.5499999999993
 31
0.0
  0
LINE
  5
111
  8
0
  6
CONTINUOUS
 62
     7
 10
33.79999999999988
 20
-76.69999999999922
 30
0.0
 11
36.19999999999992
 21
-76.69999999999942
 31
0.0
  0
LINE
  5
112
  8
0
  6
CONTINUOUS
 62
     7
 10
37.49999999999982
 20
-80.35000000000002
 30
0.0
 11
42.50000000000004
 21
-75.34999999999971
 31
0.0
  0
LINE
  5
113
  8
0
  6
CONTINUOUS
 62
     7
 10
42.50000000000004
 20
-75.34999999999971
 30
0.0
 11
47.00000000000016
 21
-75.34999999999971
 31
0.0
  0
LINE
  5
114
  8
0
  6
CONTINUOUS
 62
     7
 10
49.75476230847519
 20
-4.10476230847532
 30
0.0
 11
49.75476230847519
 21
0.1047623084753
 31
0.0
  0
LINE
  5
115
  8
0
  6
CONTINUOUS
 62
     7
 10
52.00000000000038
 20
-70.34999999999971
 30
0.0
 11
52.00000000000038
 21
16.64999999999981
 31
0.0
  0
LINE
  5
116
  8
0
  6
CONTINUOUS
 62
     7
 10
10.0
 20
50.65000000000032
 30
0.0
 11
10.0
 21
26.65000000000032
 31
0.0
  0
LINE
  5
117
  8
0
  6
CONTINUOUS
 62
     7
 10
9.50000000000034
 20
-75.35000000000002
 30
0.0
 11
14.49999999999994
 21
-80.34999999999971
 31
0.0
  0
LINE
  5
118
  8
0
  6
DASHED
 62
     7
 10
35.90000000000002
 20
-51.80000000000021
 30
0.0
 11
33.60000000000007
 21
-51.80000000000021
 31
0.0
  0
LINE
  5
119
  8
0
  6
CONTINUOUS
 62
     7
 10
28.10000000000007
 20
-45.02387491768153
 30
0.0
 11
28.10000000000007
 21
-45.09744788236742
 31
0.0
  0
LINE
  5
11A
  8
0
  6
CONTINUOUS
 62
     7
 10
23.97592953243775
 20
-45.09744788236742
 30
0.0
 11
23.97592953243775
 21
-45.02387491768153
 31
0.0
  0
LINE
  5
11B
  8
0
  6
CONTINUOUS
 62
     7
 10
28.02407046756223
 20
-45.02387491768153
 30
0.0
 11
28.02407046756223
 21
-45.09744788236742
 31
0.0
  0
LINE
  5
11C
  8
0
  6
CONTINUOUS
 62
     7
 10
23.90000000000002
 20
-45.09744788236742
 30
0.0
 11
23.90000000000002
 21
-45.02387491768153
 31
0.0
  0
LINE
  5
11D
  8
0
  6
DASHED
 62
     7
 10
16.09999999999995
 20
-51.80000000000021
 30
0.0
 11
18.40000000000002
 21
-51.80000000000021
 31
0.0
  0
LINE
  5
11E
  8
0
  6
CONTINUOUS
 62
     7
 10
18.84999999999995
 20
-75.80000000000001
 30
0.0
 11
18.40000000000002
 21
-75.80000000000001
 31
0.0
  0
LINE
  5
11F
  8
0
  6
CONTINUOUS
 62
     7
 10
33.14999999999991
 20
-75.80000000000001
 30
0.0
 11
33.60000000000007
 21
-75.80000000000001
 31
0.0
  0
CIRCLE
  5
120
  8
0
  6
CONTINUOUS
 62
     7
 10
8.0
 20
17.00000000000017
 30
0.0
 40
1.650000000000091
  0
CIRCLE
  5
121
  8
0
  6
CONTINUOUS
 62
     7
 10
8.00000000000011
 20
-70.4999999999998
 30
0.0
 40
1.649999999999778
  0
CIRCLE
  5
122
  8
0
  6
CONTINUOUS
 62
     7
 10
8.0
 20
-43.4999999999998
 30
0.0
 40
1.64999999999992
  0
CIRCLE
  5
123
  8
0
  6
CONTINUOUS
 62
     7
 10
44.00000000000004
 20
17.00000000000017
 30
0.0
 40
1.650000000000091
  0
CIRCLE
  5
124
  8
0
  6
CONTINUOUS
 62
     7
 10
26.00000000000004
 20
2.50000000004519
 30
0.0
 40
1.650000000000091
  0
CIRCLE
  5
125
  8
0
  6
CONTINUOUS
 62
     7
 10
44.00000000000038
 20
-70.4999999999998
 30
0.0
 40
1.650000000000105
  0
CIRCLE
  5
126
  8
0
  6
CONTINUOUS
 62
     7
 10
26.00000000000027
 20
-64.4999999999998
 30
0.0
 40
1.650000000000091
  0
CIRCLE
  5
127
  8
0
  6
CONTINUOUS
 62
     7
 10
26.00000000000027
 20
-70.4999999999998
 30
0.0
 40
1.650000000000091
  0
CIRCLE
  5
128
  8
0
  6
CONTINUOUS
 62
     7
 10
44.00000000000004
 20
-43.4999999999998
 30
0.0
 40
1.650000000000091
  0
CIRCLE
  5
129
  8
0
  6
CONTINUOUS
 62
     7
 10
8.0
 20
-43.4999999999998
 30
0.0
 40
2.14999999999992
  0
CIRCLE
  5
12A
  8
0
  6
CONTINUOUS
 62
     7
 10
9.49999999999989
 20
-17.74999999999982
 30
0.0
 40
2.150000000000102
  0
CIRCLE
  5
12B
  8
0
  6
CONTINUOUS
 62
     7
 10
26.00000000000004
 20
50.20000000000022
 30
0.0
 40
2.150000000000155
  0
CIRCLE
  5
12C
  8
0
  6
CONTINUOUS
 62
     7
 10
8.0
 20
17.00000000000017
 30
0.0
 40
2.150000000000091
  0
CIRCLE
  5
12D
  8
0
  6
CONTINUOUS
 62
     7
 10
9.49999999999989
 20
-17.74999999999982
 30
0.0
 40
1.650000000000102
  0
CIRCLE
  5
12E
  8
0
  6
CONTINUOUS
 62
     7
 10
8.00000000000011
 20
-70.4999999999998
 30
0.0
 40
2.150000000000119
  0
CIRCLE
  5
12F
  8
0
  6
CONTINUOUS
 62
     7
 10
26.00000000000004
 20
50.20000000000022
 30
0.0
 40
1.650000000000155
  0
CIRCLE
  5
130
  8
0
  6
CONTINUOUS
 62
     7
 10
26.00000000000004
 20
42.20000000000022
 30
0.0
 40
1.650000000000155
  0
CIRCLE
  5
131
  8
0
  6
CONTINUOUS
 62
     7
 10
25.9999999999997
 20
20.20000000000022
 30
0.0
 40
1.650000000000148
  0
CIRCLE
  5
132
  8
0
  6
CONTINUOUS
 62
     7
 10
25.9999999999997
 20
20.20000000000022
 30
0.0
 40
2.14999999999981
  0
CIRCLE
  5
133
  8
0
  6
CONTINUOUS
 62
     7
 10
26.00000000000004
 20
36.5000000000004
 30
0.0
 40
1.650000000000087
  0
CIRCLE
  5
134
  8
0
  6
CONTINUOUS
 62
     7
 10
26.00000000000004
 20
36.5000000000004
 30
0.0
 40
2.150000000000091
  0
CIRCLE
  5
135
  8
0
  6
CONTINUOUS
 62
     7
 10
26.00000000000004
 20
42.20000000000022
 30
0.0
 40
2.150000000000155
  0
CIRCLE
  5
136
  8
0
  6
CONTINUOUS
 62
     7
 10
44.00000000000004
 20
17.00000000000017
 30
0.0
 40
2.150000000000091
  0
CIRCLE
  5
137
  8
0
  6
CONTINUOUS
 62
     7
 10
26.00000000000004
 20
2.50000000004519
 30
0.0
 40
2.150000000000091
  0
CIRCLE
  5
138
  8
0
  6
CONTINUOUS
 62
     7
 10
26.00000000000027
 20
-70.4999999999998
 30
0.0
 40
2.150000000000119
  0
CIRCLE
  5
139
  8
0
  6
CONTINUOUS
 62
     7
 10
26.00000000000027
 20
-64.4999999999998
 30
0.0
 40
2.150000000000006
  0
CIRCLE
  5
13A
  8
0
  6
CONTINUOUS
 62
     7
 10
44.00000000000038
 20
-70.4999999999998
 30
0.0
 40
2.150000000000119
  0
CIRCLE
  5
13B
  8
0
  6
CONTINUOUS
 62
     7
 10
44.00000000000004
 20
-43.4999999999998
 30
0.0
 40
2.14999999999992
  0
CIRCLE
  5
13C
  8
0
  6
CONTINUOUS
 62
     7
 10
25.99999999999959
 20
-9.79999999995484
 30
0.0
 40
1.649999999999975
  0
CIRCLE
  5
13D
  8
0
  6
CONTINUOUS
 62
     7
 10
25.99999999999959
 20
-9.79999999995484
 30
0.0
 40
2.149999999999775
  0
CIRCLE
  5
13E
  8
0
  6
CONTINUOUS
 62
     7
 10
42.50000000000016
 20
-17.74999999999982
 30
0.0
 40
1.650000000000102
  0
CIRCLE
  5
13F
  8
0
  6
CONTINUOUS
 62
     7
 10
42.50000000000016
 20
-17.74999999999982
 30
0.0
 40
2.150000000000102
  0
POLYLINE
  5
140
  8
0
  6
CONTINUOUS
 62
     7
 66
     1
 10
0.0
 20
0.0
 30
0.0
  0
VERTEX
  5
146
  8
0
  6
CONTINUOUS
 62
     7
 10
3.0524147568043
 20
-2.99999999999977
 30
0.0
  0
VERTEX
  5
147
  8
0
  6
CONTINUOUS
 62
     7
 10
3.05136969207144
 20
-2.99845623937698
 30
0.0
  0
VERTEX
  5
148
  8
0
  6
CONTINUOUS
 62
     7
 10
3.05098125340552
 20
-2.99655767290379
 30
0.0
  0
VERTEX
  5
149
  8
0
  6
CONTINUOUS
 62
     7
 10
3.05061542071394
 20
-2.99469999291989
 30
0.0
  0
VERTEX
  5
14A
  8
0
  6
CONTINUOUS
 62
     7
 10
3.05032555759016
 20
-2.99281882228297
 30
0.0
  0
VERTEX
  5
14B
  8
0
  6
CONTINUOUS
 62
     7
 10
3.05007143779022
 20
-2.99093262212088
 30
0.0
  0
VERTEX
  5
14C
  8
0
  6
CONTINUOUS
 62
     7
 10
3.04983794087733
 20
-2.98904674952583
 30
0.0
  0
VERTEX
  5
14D
  8
0
  6
CONTINUOUS
 62
     7
 10
3.04962537788425
 20
-2.9871573401097
 30
0.0
  0
VERTEX
  5
14E
  8
0
  6
CONTINUOUS
 62
     7
 10
3.04942930845349
 20
-2.98526544763031
 30
0.0
  0
VERTEX
  5
14F
  8
0
  6
CONTINUOUS
 62
     7
 10
3.04924515573799
 20
-2.9833726099798
 30
0.0
  0
VERTEX
  5
150
  8
0
  6
CONTINUOUS
 62
     7
 10
3.04907100904575
 20
-2.98147909729871
 30
0.0
  0
VERTEX
  5
151
  8
0
  6
CONTINUOUS
 62
     7
 10
3.04890568199125
 20
-2.97958483698368
 30
0.0
  0
VERTEX
  5
152
  8
0
  6
CONTINUOUS
 62
     7
 10
3.04874810366864
 20
-2.97768983001953
 30
0.0
  0
VERTEX
  5
153
  8
0
  6
CONTINUOUS
 62
     7
 10
3.04859739883372
 20
-2.9757942020993
 30
0.0
  0
VERTEX
  5
154
  8
0
  6
CONTINUOUS
 62
     7
 10
3.04845271122878
 20
-2.97389809098101
 30
0.0
  0
VERTEX
  5
155
  8
0
  6
CONTINUOUS
 62
     7
 10
3.04831328053498
 20
-2.97200161134369
 30
0.0
  0
VERTEX
  5
156
  8
0
  6
CONTINUOUS
 62
     7
 10
3.04817864721017
 20
-2.97010480551181
 30
0.0
  0
VERTEX
  5
157
  8
0
  6
CONTINUOUS
 62
     7
 10
3.04804841049893
 20
-2.96820770166815
 30
0.0
  0
VERTEX
  5
158
  8
0
  6
CONTINUOUS
 62
     7
 10
3.04792217016554
 20
-2.96631032797559
 30
0.0
  0
VERTEX
  5
159
  8
0
  6
CONTINUOUS
 62
     7
 10
3.0477995798473
 20
-2.96441271053311
 30
0.0
  0
VERTEX
  5
15A
  8
0
  6
CONTINUOUS
 62
     7
 10
3.04768039328308
 20
-2.96251487160475
 30
0.0
  0
VERTEX
  5
15B
  8
0
  6
CONTINUOUS
 62
     7
 10
3.04756437510513
 20
-2.96061683303723
 30
0.0
  0
VERTEX
  5
15C
  8
0
  6
CONTINUOUS
 62
     7
 10
3.04745128994569
 20
-2.95871861667727
 30
0.0
  0
VERTEX
  5
15D
  8
0
  6
CONTINUOUS
 62
     7
 10
3.04734091094995
 20
-2.95682024332993
 30
0.0
  0
VERTEX
  5
15E
  8
0
  6
CONTINUOUS
 62
     7
 10
3.04723307382678
 20
-2.95492172614515
 30
0.0
  0
VERTEX
  5
15F
  8
0
  6
CONTINUOUS
 62
     7
 10
3.04712764218894
 20
-2.95302307485856
 30
0.0
  0
VERTEX
  5
160
  8
0
  6
CONTINUOUS
 62
     7
 10
3.04702447977788
 20
-2.95112429919006
 30
0.0
  0
VERTEX
  5
161
  8
0
  6
CONTINUOUS
 62
     7
 10
3.04692345033508
 20
-2.94922540885954
 30
0.0
  0
VERTEX
  5
162
  8
0
  6
CONTINUOUS
 62
     7
 10
3.04682442009591
 20
-2.94732641340074
 30
0.0
  0
VERTEX
  5
163
  8
0
  6
CONTINUOUS
 62
     7
 10
3.04672728765578
 20
-2.94542731993168
 30
0.0
  0
VERTEX
  5
164
  8
0
  6
CONTINUOUS
 62
     7
 10
3.04663197420697
 20
-2.94352813388353
 30
0.0
  0
VERTEX
  5
165
  8
0
  6
CONTINUOUS
 62
     7
 10
3.04653840140376
 20
-2.94162886065296
 30
0.0
  0
VERTEX
  5
166
  8
0
  6
CONTINUOUS
 62
     7
 10
3.04644649090042
 20
-2.93972950563667
 30
0.0
  0
VERTEX
  5
167
  8
0
  6
CONTINUOUS
 62
     7
 10
3.04635616435122
 20
-2.93783007423133
 30
0.0
  0
VERTEX
  5
168
  8
0
  6
CONTINUOUS
 62
     7
 10
3.04626734341042
 20
-2.93593057183362
 30
0.0
  0
VERTEX
  5
169
  8
0
  6
CONTINUOUS
 62
     7
 10
3.0461799501166
 20
-2.93403100380863
 30
0.0
  0
VERTEX
  5
16A
  8
0
  6
CONTINUOUS
 62
     7
 10
3.04609392079909
 20
-2.93213137434635
 30
0.0
  0
VERTEX
  5
16B
  8
0
  6
CONTINUOUS
 62
     7
 10
3.04600920998489
 20
-2.93023168614049
 30
0.0
  0
VERTEX
  5
16C
  8
0
  6
CONTINUOUS
 62
     7
 10
3.04592577338094
 20
-2.92833194178772
 30
0.0
  0
VERTEX
  5
16D
  8
0
  6
CONTINUOUS
 62
     7
 10
3.04584356669421
 20
-2.9264321438847
 30
0.0
  0
VERTEX
  5
16E
  8
0
  6
CONTINUOUS
 62
     7
 10
3.04576254563166
 20
-2.92453229502812
 30
0.0
  0
VERTEX
  5
16F
  8
0
  6
CONTINUOUS
 62
     7
 10
3.04568266590025
 20
-2.92263239781463
 30
0.0
  0
VERTEX
  5
170
  8
0
  6
CONTINUOUS
 62
     7
 10
3.04560388320695
 20
-2.92073245484092
 30
0.0
  0
VERTEX
  5
171
  8
0
  6
CONTINUOUS
 62
     7
 10
3.04552615339715
 20
-2.91883246869453
 30
0.0
  0
VERTEX
  5
172
  8
0
  6
CONTINUOUS
 62
     7
 10
3.04544943896654
 20
-2.91693244152547
 30
0.0
  0
VERTEX
  5
173
  8
0
  6
CONTINUOUS
 62
     7
 10
3.04537371186472
 20
-2.91503237486173
 30
0.0
  0
VERTEX
  5
174
  8
0
  6
CONTINUOUS
 62
     7
 10
3.04529894476229
 20
-2.91313227018383
 30
0.0
  0
VERTEX
  5
175
  8
0
  6
CONTINUOUS
 62
     7
 10
3.04522511032985
 20
-2.91123212897231
 30
0.0
  0
VERTEX
  5
176
  8
0
  6
CONTINUOUS
 62
     7
 10
3.04515218123802
 20
-2.9093319527077
 30
0.0
  0
VERTEX
  5
177
  8
0
  6
CONTINUOUS
 62
     7
 10
3.0450801301574
 20
-2.90743174287055
 30
0.0
  0
VERTEX
  5
178
  8
0
  6
CONTINUOUS
 62
     7
 10
3.04500892975859
 20
-2.90553150094139
 30
0.0
  0
VERTEX
  5
179
  8
0
  6
CONTINUOUS
 62
     7
 10
3.0449385527122
 20
-2.90363122840075
 30
0.0
  0
VERTEX
  5
17A
  8
0
  6
CONTINUOUS
 62
     7
 10
3.04486897192416
 20
-2.90173092671422
 30
0.0
  0
VERTEX
  5
17B
  8
0
  6
CONTINUOUS
 62
     7
 10
3.04480016516591
 20
-2.89983059703816
 30
0.0
  0
VERTEX
  5
17C
  8
0
  6
CONTINUOUS
 62
     7
 10
3.04473211478866
 20
-2.89793024023789
 30
0.0
  0
VERTEX
  5
17D
  8
0
  6
CONTINUOUS
 62
     7
 10
3.04466480332178
 20
-2.89602985716741
 30
0.0
  0
VERTEX
  5
17E
  8
0
  6
CONTINUOUS
 62
     7
 10
3.04459821329459
 20
-2.89412944868069
 30
0.0
  0
VERTEX
  5
17F
  8
0
  6
CONTINUOUS
 62
     7
 10
3.04453232723646
 20
-2.89222901563175
 30
0.0
  0
VERTEX
  5
180
  8
0
  6
CONTINUOUS
 62
     7
 10
3.04446712767671
 20
-2.89032855887456
 30
0.0
  0
VERTEX
  5
181
  8
0
  6
CONTINUOUS
 62
     7
 10
3.04440259714469
 20
-2.88842807926313
 30
0.0
  0
VERTEX
  5
182
  8
0
  6
CONTINUOUS
 62
     7
 10
3.04433871816975
 20
-2.88652757765145
 30
0.0
  0
VERTEX
  5
183
  8
0
  6
CONTINUOUS
 62
     7
 10
3.04427547328124
 20
-2.88462705489351
 30
0.0
  0
VERTEX
  5
184
  8
0
  6
CONTINUOUS
 62
     7
 10
3.04421284570056
 20
-2.88272651180435
 30
0.0
  0
VERTEX
  5
185
  8
0
  6
CONTINUOUS
 62
     7
 10
3.04415082249511
 20
-2.88082594898254
 30
0.0
  0
VERTEX
  5
186
  8
0
  6
CONTINUOUS
 62
     7
 10
3.04408939206048
 20
-2.8789253669519
 30
0.0
  0
VERTEX
  5
187
  8
0
  6
CONTINUOUS
 62
     7
 10
3.04402854279353
 20
-2.87702476623617
 30
0.0
  0
VERTEX
  5
188
  8
0
  6
CONTINUOUS
 62
     7
 10
3.04396826309114
 20
-2.87512414735909
 30
0.0
  0
VERTEX
  5
189
  8
0
  6
CONTINUOUS
 62
     7
 10
3.04390854135018
 20
-2.8732235108444
 30
0.0
  0
VERTEX
  5
18A
  8
0
  6
CONTINUOUS
 62
     7
 10
3.0438493659675
 20
-2.87132285721583
 30
0.0
  0
VERTEX
  5
18B
  8
0
  6
CONTINUOUS
 62
     7
 10
3.04379072533998
 20
-2.86942218699715
 30
0.0
  0
VERTEX
  5
18C
  8
0
  6
CONTINUOUS
 62
     7
 10
3.04373260786449
 20
-2.86752150071207
 30
0.0
  0
VERTEX
  5
18D
  8
0
  6
CONTINUOUS
 62
     7
 10
3.04367500193789
 20
-2.86562079888435
 30
0.0
  0
VERTEX
  5
18E
  8
0
  6
CONTINUOUS
 62
     7
 10
3.04361789602125
 20
-2.86372008203427
 30
0.0
  0
VERTEX
  5
18F
  8
0
  6
CONTINUOUS
 62
     7
 10
3.04356128019092
 20
-2.86181935059488
 30
0.0
  0
VERTEX
  5
190
  8
0
  6
CONTINUOUS
 62
     7
 10
3.04350514621928
 20
-2.85991860490768
 30
0.0
  0
VERTEX
  5
191
  8
0
  6
CONTINUOUS
 62
     7
 10
3.04344948595911
 20
-2.85801784530983
 30
0.0
  0
VERTEX
  5
192
  8
0
  6
CONTINUOUS
 62
     7
 10
3.04339429126318
 20
-2.85611707213847
 30
0.0
  0
VERTEX
  5
193
  8
0
  6
CONTINUOUS
 62
     7
 10
3.04333955398427
 20
-2.85421628573077
 30
0.0
  0
VERTEX
  5
194
  8
0
  6
CONTINUOUS
 62
     7
 10
3.04328526597518
 20
-2.85231548642388
 30
0.0
  0
VERTEX
  5
195
  8
0
  6
CONTINUOUS
 62
     7
 10
3.04323141908866
 20
-2.85041467455495
 30
0.0
  0
VERTEX
  5
196
  8
0
  6
CONTINUOUS
 62
     7
 10
3.0431780051775
 20
-2.84851385046114
 30
0.0
  0
VERTEX
  5
197
  8
0
  6
CONTINUOUS
 62
     7
 10
3.04312501609449
 20
-2.84661301447959
 30
0.0
  0
VERTEX
  5
198
  8
0
  6
CONTINUOUS
 62
     7
 10
3.04307244369239
 20
-2.84471216694747
 30
0.0
  0
VERTEX
  5
199
  8
0
  6
CONTINUOUS
 62
     7
 10
3.04302027983602
 20
-2.84281130820137
 30
0.0
  0
VERTEX
  5
19A
  8
0
  6
CONTINUOUS
 62
     7
 10
3.0429685172826
 20
-2.84091043853581
 30
0.0
  0
VERTEX
  5
19B
  8
0
  6
CONTINUOUS
 62
     7
 10
3.04291715028103
 20
-2.83900955817504
 30
0.0
  0
VERTEX
  5
19C
  8
0
  6
CONTINUOUS
 62
     7
 10
3.0428661732221
 20
-2.83710866733663
 30
0.0
  0
VERTEX
  5
19D
  8
0
  6
CONTINUOUS
 62
     7
 10
3.04281558049659
 20
-2.83520776623813
 30
0.0
  0
VERTEX
  5
19E
  8
0
  6
CONTINUOUS
 62
     7
 10
3.0427653664953
 20
-2.83330685509711
 30
0.0
  0
VERTEX
  5
19F
  8
0
  6
CONTINUOUS
 62
     7
 10
3.042715525609
 20
-2.83140593413112
 30
0.0
  0
VERTEX
  5
1A0
  8
0
  6
CONTINUOUS
 62
     7
 10
3.04266605222848
 20
-2.82950500355773
 30
0.0
  0
VERTEX
  5
1A1
  8
0
  6
CONTINUOUS
 62
     7
 10
3.04261694074453
 20
-2.8276040635945
 30
0.0
  0
VERTEX
  5
1A2
  8
0
  6
CONTINUOUS
 62
     7
 10
3.04256818554793
 20
-2.82570311445898
 30
0.0
  0
VERTEX
  5
1A3
  8
0
  6
CONTINUOUS
 62
     7
 10
3.04251978102946
 20
-2.82380215636874
 30
0.0
  0
VERTEX
  5
1A4
  8
0
  6
CONTINUOUS
 62
     7
 10
3.04247172157992
 20
-2.82190118954133
 30
0.0
  0
VERTEX
  5
1A5
  8
0
  6
CONTINUOUS
 62
     7
 10
3.04242400167063
 20
-2.82000021419073
 30
0.0
  0
VERTEX
  5
1A6
  8
0
  6
CONTINUOUS
 62
     7
 10
3.04237661666139
 20
-2.81809923049119
 30
0.0
  0
VERTEX
  5
1A7
  8
0
  6
CONTINUOUS
 62
     7
 10
3.04232956246337
 20
-2.81619823859233
 30
0.0
  0
VERTEX
  5
1A8
  8
0
  6
CONTINUOUS
 62
     7
 10
3.04228283499598
 20
-2.81429723864343
 30
0.0
  0
VERTEX
  5
1A9
  8
0
  6
CONTINUOUS
 62
     7
 10
3.04223643017861
 20
-2.81239623079373
 30
0.0
  0
VERTEX
  5
1AA
  8
0
  6
CONTINUOUS
 62
     7
 10
3.0421903439307
 20
-2.8104952151925
 30
0.0
  0
VERTEX
  5
1AB
  8
0
  6
CONTINUOUS
 62
     7
 10
3.04214457217163
 20
-2.80859419198899
 30
0.0
  0
VERTEX
  5
1AC
  8
0
  6
CONTINUOUS
 62
     7
 10
3.04209911082083
 20
-2.80669316133246
 30
0.0
  0
VERTEX
  5
1AD
  8
0
  6
CONTINUOUS
 62
     7
 10
3.04205395579771
 20
-2.80479212337218
 30
0.0
  0
VERTEX
  5
1AE
  8
0
  6
CONTINUOUS
 62
     7
 10
3.04200910302167
 20
-2.8028910782574
 30
0.0
  0
VERTEX
  5
1AF
  8
0
  6
CONTINUOUS
 62
     7
 10
3.04196454841212
 20
-2.80099002613738
 30
0.0
  0
VERTEX
  5
1B0
  8
0
  6
CONTINUOUS
 62
     7
 10
3.04192028788847
 20
-2.79908896716137
 30
0.0
  0
VERTEX
  5
1B1
  8
0
  6
CONTINUOUS
 62
     7
 10
3.04187631744062
 20
-2.7971879014755
 30
0.0
  0
VERTEX
  5
1B2
  8
0
  6
CONTINUOUS
 62
     7
 10
3.04183263362802
 20
-2.79528682920043
 30
0.0
  0
VERTEX
  5
1B3
  8
0
  6
CONTINUOUS
 62
     7
 10
3.04178923328582
 20
-2.79338575044455
 30
0.0
  0
VERTEX
  5
1B4
  8
0
  6
CONTINUOUS
 62
     7
 10
3.04174611325096
 20
-2.79148466531613
 30
0.0
  0
VERTEX
  5
1B5
  8
0
  6
CONTINUOUS
 62
     7
 10
3.04170327036037
 20
-2.78958357392346
 30
0.0
  0
VERTEX
  5
1B6
  8
0
  6
CONTINUOUS
 62
     7
 10
3.041660701451
 20
-2.78768247637484
 30
0.0
  0
VERTEX
  5
1B7
  8
0
  6
CONTINUOUS
 62
     7
 10
3.04161840335978
 20
-2.78578137277856
 30
0.0
  0
VERTEX
  5
1B8
  8
0
  6
CONTINUOUS
 62
     7
 10
3.04157637292365
 20
-2.78388026324289
 30
0.0
  0
VERTEX
  5
1B9
  8
0
  6
CONTINUOUS
 62
     7
 10
3.04153460697955
 20
-2.78197914787614
 30
0.0
  0
VERTEX
  5
1BA
  8
0
  6
CONTINUOUS
 62
     7
 10
3.04149310236443
 20
-2.78007802678658
 30
0.0
  0
VERTEX
  5
1BB
  8
0
  6
CONTINUOUS
 62
     7
 10
3.04145185591521
 20
-2.77817690008252
 30
0.0
  0
VERTEX
  5
1BC
  8
0
  6
CONTINUOUS
 62
     7
 10
3.04141086446885
 20
-2.77627576787223
 30
0.0
  0
VERTEX
  5
1BD
  8
0
  6
CONTINUOUS
 62
     7
 10
3.04137012489471
 20
-2.77437463026268
 30
0.0
  0
VERTEX
  5
1BE
  8
0
  6
CONTINUOUS
 62
     7
 10
3.04132963445712
 20
-2.77247348734468
 30
0.0
  0
VERTEX
  5
1BF
  8
0
  6
CONTINUOUS
 62
     7
 10
3.04128939068391
 20
-2.77057233919828
 30
0.0
  0
VERTEX
  5
1C0
  8
0
  6
CONTINUOUS
 62
     7
 10
3.0412493911077
 20
-2.76867118590331
 30
0.0
  0
VERTEX
  5
1C1
  8
0
  6
CONTINUOUS
 62
     7
 10
3.04120963326113
 20
-2.76677002753961
 30
0.0
  0
VERTEX
  5
1C2
  8
0
  6
CONTINUOUS
 62
     7
 10
3.04117011467683
 20
-2.76486886418703
 30
0.0
  0
VERTEX
  5
1C3
  8
0
  6
CONTINUOUS
 62
     7
 10
3.04113083288744
 20
-2.76296769592542
 30
0.0
  0
VERTEX
  5
1C4
  8
0
  6
CONTINUOUS
 62
     7
 10
3.04109178542558
 20
-2.7610665228346
 30
0.0
  0
VERTEX
  5
1C5
  8
0
  6
CONTINUOUS
 62
     7
 10
3.0410529698239
 20
-2.75916534499443
 30
0.0
  0
VERTEX
  5
1C6
  8
0
  6
CONTINUOUS
 62
     7
 10
3.04101438361501
 20
-2.75726416248475
 30
0.0
  0
VERTEX
  5
1C7
  8
0
  6
CONTINUOUS
 62
     7
 10
3.04097602433156
 20
-2.75536297538539
 30
0.0
  0
VERTEX
  5
1C8
  8
0
  6
CONTINUOUS
 62
     7
 10
3.04093788950617
 20
-2.7534617837762
 30
0.0
  0
VERTEX
  5
1C9
  8
0
  6
CONTINUOUS
 62
     7
 10
3.04089997667685
 20
-2.75156058773682
 30
0.0
  0
VERTEX
  5
1CA
  8
0
  6
CONTINUOUS
 62
     7
 10
3.04086228358907
 20
-2.74965938733883
 30
0.0
  0
VERTEX
  5
1CB
  8
0
  6
CONTINUOUS
 62
     7
 10
3.04082480825692
 20
-2.74775818264339
 30
0.0
  0
VERTEX
  5
1CC
  8
0
  6
CONTINUOUS
 62
     7
 10
3.04078754871237
 20
-2.74585697371096
 30
0.0
  0
VERTEX
  5
1CD
  8
0
  6
CONTINUOUS
 62
     7
 10
3.04075050298738
 20
-2.74395576060201
 30
0.0
  0
VERTEX
  5
1CE
  8
0
  6
CONTINUOUS
 62
     7
 10
3.04071366911393
 20
-2.74205454337702
 30
0.0
  0
VERTEX
  5
1CF
  8
0
  6
CONTINUOUS
 62
     7
 10
3.04067704512398
 20
-2.74015332209644
 30
0.0
  0
VERTEX
  5
1D0
  8
0
  6
CONTINUOUS
 62
     7
 10
3.0406406290495
 20
-2.73825209682075
 30
0.0
  0
VERTEX
  5
1D1
  8
0
  6
CONTINUOUS
 62
     7
 10
3.04060441892245
 20
-2.73635086761042
 30
0.0
  0
VERTEX
  5
1D2
  8
0
  6
CONTINUOUS
 62
     7
 10
3.0405684127748
 20
-2.7344496345259
 30
0.0
  0
VERTEX
  5
1D3
  8
0
  6
CONTINUOUS
 62
     7
 10
3.04053260863851
 20
-2.73254839762767
 30
0.0
  0
VERTEX
  5
1D4
  8
0
  6
CONTINUOUS
 62
     7
 10
3.04049700454556
 20
-2.73064715697619
 30
0.0
  0
VERTEX
  5
1D5
  8
0
  6
CONTINUOUS
 62
     7
 10
3.04046159852796
 20
-2.72874591263194
 30
0.0
  0
VERTEX
  5
1D6
  8
0
  6
CONTINUOUS
 62
     7
 10
3.04042638869865
 20
-2.72684466465242
 30
0.0
  0
VERTEX
  5
1D7
  8
0
  6
CONTINUOUS
 62
     7
 10
3.04039137341888
 20
-2.72494341308607
 30
0.0
  0
VERTEX
  5
1D8
  8
0
  6
CONTINUOUS
 62
     7
 10
3.04035655109736
 20
-2.7230421579796
 30
0.0
  0
VERTEX
  5
1D9
  8
0
  6
CONTINUOUS
 62
     7
 10
3.04032192014279
 20
-2.72114089937972
 30
0.0
  0
VERTEX
  5
1DA
  8
0
  6
CONTINUOUS
 62
     7
 10
3.04028747896388
 20
-2.71923963733314
 30
0.0
  0
VERTEX
  5
1DB
  8
0
  6
CONTINUOUS
 62
     7
 10
3.04025322596934
 20
-2.71733837188658
 30
0.0
  0
VERTEX
  5
1DC
  8
0
  6
CONTINUOUS
 62
     7
 10
3.04021915956787
 20
-2.71543710308672
 30
0.0
  0
VERTEX
  5
1DD
  8
0
  6
CONTINUOUS
 62
     7
 10
3.04018527816818
 20
-2.7135358309803
 30
0.0
  0
VERTEX
  5
1DE
  8
0
  6
CONTINUOUS
 62
     7
 10
3.04015158017896
 20
-2.71163455561401
 30
0.0
  0
VERTEX
  5
1DF
  8
0
  6
CONTINUOUS
 62
     7
 10
3.04011806400893
 20
-2.70973327703457
 30
0.0
  0
VERTEX
  5
1E0
  8
0
  6
CONTINUOUS
 62
     7
 10
3.0400847280668
 20
-2.70783199528869
 30
0.0
  0
VERTEX
  5
1E1
  8
0
  6
CONTINUOUS
 62
     7
 10
3.04005157076126
 20
-2.70593071042306
 30
0.0
  0
VERTEX
  5
1E2
  8
0
  6
CONTINUOUS
 62
     7
 10
3.04001859052488
 20
-2.70402942248359
 30
0.0
  0
VERTEX
  5
1E3
  8
0
  6
CONTINUOUS
 62
     7
 10
3.03998578597058
 20
-2.70212813150992
 30
0.0
  0
VERTEX
  5
1E4
  8
0
  6
CONTINUOUS
 62
     7
 10
3.03995315579376
 20
-2.70022683753887
 30
0.0
  0
VERTEX
  5
1E5
  8
0
  6
CONTINUOUS
 62
     7
 10
3.03992069869021
 20
-2.69832554060722
 30
0.0
  0
VERTEX
  5
1E6
  8
0
  6
CONTINUOUS
 62
     7
 10
3.03988841335573
 20
-2.69642424075178
 30
0.0
  0
VERTEX
  5
1E7
  8
0
  6
CONTINUOUS
 62
     7
 10
3.03985629848614
 20
-2.69452293800934
 30
0.0
  0
VERTEX
  5
1E8
  8
0
  6
CONTINUOUS
 62
     7
 10
3.03982435277724
 20
-2.6926216324167
 30
0.0
  0
VERTEX
  5
1E9
  8
0
  6
CONTINUOUS
 62
     7
 10
3.03979257492483
 20
-2.69072032401064
 30
0.0
  0
VERTEX
  5
1EA
  8
0
  6
CONTINUOUS
 62
     7
 10
3.03976096362471
 20
-2.68881901282796
 30
0.0
  0
VERTEX
  5
1EB
  8
0
  6
CONTINUOUS
 62
     7
 10
3.03972951757271
 20
-2.68691769890547
 30
0.0
  0
VERTEX
  5
1EC
  8
0
  6
CONTINUOUS
 62
     7
 10
3.03969823546461
 20
-2.68501638227994
 30
0.0
  0
VERTEX
  5
1ED
  8
0
  6
CONTINUOUS
 62
     7
 10
3.03966711599622
 20
-2.68311506298818
 30
0.0
  0
VERTEX
  5
1EE
  8
0
  6
CONTINUOUS
 62
     7
 10
3.03963615787093
 20
-2.68121374106674
 30
0.0
  0
VERTEX
  5
1EF
  8
0
  6
CONTINUOUS
 62
     7
 10
3.03960535991114
 20
-2.67931241654827
 30
0.0
  0
VERTEX
  5
1F0
  8
0
  6
CONTINUOUS
 62
     7
 10
3.03957472103385
 20
-2.67741108946236
 30
0.0
  0
VERTEX
  5
1F1
  8
0
  6
CONTINUOUS
 62
     7
 10
3.03954424015865
 20
-2.67550975983851
 30
0.0
  0
VERTEX
  5
1F2
  8
0
  6
CONTINUOUS
 62
     7
 10
3.03951391620514
 20
-2.67360842770619
 30
0.0
  0
VERTEX
  5
1F3
  8
0
  6
CONTINUOUS
 62
     7
 10
3.03948374809291
 20
-2.67170709309491
 30
0.0
  0
VERTEX
  5
1F4
  8
0
  6
CONTINUOUS
 62
     7
 10
3.03945373474156
 20
-2.66980575603417
 30
0.0
  0
VERTEX
  5
1F5
  8
0
  6
CONTINUOUS
 62
     7
 10
3.03942387507069
 20
-2.66790441655344
 30
0.0
  0
VERTEX
  5
1F6
  8
0
  6
CONTINUOUS
 62
     7
 10
3.03939416799989
 20
-2.66600307468223
 30
0.0
  0
VERTEX
  5
1F7
  8
0
  6
CONTINUOUS
 62
     7
 10
3.03936461244877
 20
-2.66410173045004
 30
0.0
  0
VERTEX
  5
1F8
  8
0
  6
CONTINUOUS
 62
     7
 10
3.03933520733692
 20
-2.66220038388634
 30
0.0
  0
VERTEX
  5
1F9
  8
0
  6
CONTINUOUS
 62
     7
 10
3.03930595158394
 20
-2.66029903502064
 30
0.0
  0
VERTEX
  5
1FA
  8
0
  6
CONTINUOUS
 62
     7
 10
3.03927684411432
 20
-2.65839768388228
 30
0.0
  0
VERTEX
  5
1FB
  8
0
  6
CONTINUOUS
 62
     7
 10
3.03924788394286
 20
-2.65649633049782
 30
0.0
  0
VERTEX
  5
1FC
  8
0
  6
CONTINUOUS
 62
     7
 10
3.03921907016381
 20
-2.65459497489137
 30
0.0
  0
VERTEX
  5
1FD
  8
0
  6
CONTINUOUS
 62
     7
 10
3.03919040187408
 20
-2.65269361708696
 30
0.0
  0
VERTEX
  5
1FE
  8
0
  6
CONTINUOUS
 62
     7
 10
3.03916187817062
 20
-2.65079225710862
 30
0.0
  0
VERTEX
  5
1FF
  8
0
  6
CONTINUOUS
 62
     7
 10
3.03913349815036
 20
-2.64889089498038
 30
0.0
  0
VERTEX
  5
200
  8
0
  6
CONTINUOUS
 62
     7
 10
3.03910526091024
 20
-2.64698953072627
 30
0.0
  0
VERTEX
  5
201
  8
0
  6
CONTINUOUS
 62
     7
 10
3.03907716554718
 20
-2.64508816437031
 30
0.0
  0
VERTEX
  5
202
  8
0
  6
CONTINUOUS
 62
     7
 10
3.03904921115813
 20
-2.64318679593654
 30
0.0
  0
VERTEX
  5
203
  8
0
  6
CONTINUOUS
 62
     7
 10
3.03902139684001
 20
-2.64128542544899
 30
0.0
  0
VERTEX
  5
204
  8
0
  6
CONTINUOUS
 62
     7
 10
3.03899372168977
 20
-2.63938405293168
 30
0.0
  0
VERTEX
  5
205
  8
0
  6
CONTINUOUS
 62
     7
 10
3.03896618480433
 20
-2.63748267840865
 30
0.0
  0
VERTEX
  5
206
  8
0
  6
CONTINUOUS
 62
     7
 10
3.03893878529076
 20
-2.63558130190362
 30
0.0
  0
VERTEX
  5
207
  8
0
  6
CONTINUOUS
 62
     7
 10
3.03891152234368
 20
-2.6336799234378
 30
0.0
  0
VERTEX
  5
208
  8
0
  6
CONTINUOUS
 62
     7
 10
3.03888439520251
 20
-2.63177854303107
 30
0.0
  0
VERTEX
  5
209
  8
0
  6
CONTINUOUS
 62
     7
 10
3.03885740310707
 20
-2.6298771607033
 30
0.0
  0
VERTEX
  5
20A
  8
0
  6
CONTINUOUS
 62
     7
 10
3.03883054529713
 20
-2.62797577647439
 30
0.0
  0
VERTEX
  5
20B
  8
0
  6
CONTINUOUS
 62
     7
 10
3.03880382101249
 20
-2.62607439036421
 30
0.0
  0
VERTEX
  5
20C
  8
0
  6
CONTINUOUS
 62
     7
 10
3.03877722949297
 20
-2.62417300239263
 30
0.0
  0
VERTEX
  5
20D
  8
0
  6
CONTINUOUS
 62
     7
 10
3.03875076997833
 20
-2.62227161257955
 30
0.0
  0
VERTEX
  5
20E
  8
0
  6
CONTINUOUS
 62
     7
 10
3.0387244417084
 20
-2.62037022094483
 30
0.0
  0
VERTEX
  5
20F
  8
0
  6
CONTINUOUS
 62
     7
 10
3.03869824392295
 20
-2.61846882750835
 30
0.0
  0
VERTEX
  5
210
  8
0
  6
CONTINUOUS
 62
     7
 10
3.0386721758618
 20
-2.61656743229
 30
0.0
  0
VERTEX
  5
211
  8
0
  6
CONTINUOUS
 62
     7
 10
3.03864623676511
 20
-2.61466603530965
 30
0.0
  0
VERTEX
  5
212
  8
0
  6
CONTINUOUS
 62
     7
 10
3.03862042591126
 20
-2.61276463658611
 30
0.0
  0
VERTEX
  5
213
  8
0
  6
CONTINUOUS
 62
     7
 10
3.03859474264847
 20
-2.61086323613629
 30
0.0
  0
VERTEX
  5
214
  8
0
  6
CONTINUOUS
 62
     7
 10
3.03856918633242
 20
-2.60896183397688
 30
0.0
  0
VERTEX
  5
215
  8
0
  6
CONTINUOUS
 62
     7
 10
3.03854375631881
 20
-2.60706043012458
 30
0.0
  0
VERTEX
  5
216
  8
0
  6
CONTINUOUS
 62
     7
 10
3.03851845196333
 20
-2.60515902459609
 30
0.0
  0
VERTEX
  5
217
  8
0
  6
CONTINUOUS
 62
     7
 10
3.03849327262166
 20
-2.6032576174081
 30
0.0
  0
VERTEX
  5
218
  8
0
  6
CONTINUOUS
 62
     7
 10
3.03846821764949
 20
-2.60135620857732
 30
0.0
  0
VERTEX
  5
219
  8
0
  6
CONTINUOUS
 62
     7
 10
3.03844328640251
 20
-2.59945479812043
 30
0.0
  0
VERTEX
  5
21A
  8
0
  6
CONTINUOUS
 62
     7
 10
3.03841847823641
 20
-2.59755338605414
 30
0.0
  0
VERTEX
  5
21B
  8
0
  6
CONTINUOUS
 62
     7
 10
3.03839379250687
 20
-2.59565197239514
 30
0.0
  0
VERTEX
  5
21C
  8
0
  6
CONTINUOUS
 62
     7
 10
3.03836922856968
 20
-2.59375055716013
 30
0.0
  0
VERTEX
  5
21D
  8
0
  6
CONTINUOUS
 62
     7
 10
3.03834478580629
 20
-2.59184914036513
 30
0.0
  0
VERTEX
  5
21E
  8
0
  6
CONTINUOUS
 62
     7
 10
3.03832046365818
 20
-2.58994772202462
 30
0.0
  0
VERTEX
  5
21F
  8
0
  6
CONTINUOUS
 62
     7
 10
3.03829626157536
 20
-2.58804630215285
 30
0.0
  0
VERTEX
  5
220
  8
0
  6
CONTINUOUS
 62
     7
 10
3.03827217900788
 20
-2.58614488076406
 30
0.0
  0
VERTEX
  5
221
  8
0
  6
CONTINUOUS
 62
     7
 10
3.03824821540577
 20
-2.58424345787251
 30
0.0
  0
VERTEX
  5
222
  8
0
  6
CONTINUOUS
 62
     7
 10
3.03822437021905
 20
-2.58234203349244
 30
0.0
  0
VERTEX
  5
223
  8
0
  6
CONTINUOUS
 62
     7
 10
3.03820064289775
 20
-2.58044060763811
 30
0.0
  0
VERTEX
  5
224
  8
0
  6
CONTINUOUS
 62
     7
 10
3.03817703289191
 20
-2.57853918032375
 30
0.0
  0
VERTEX
  5
225
  8
0
  6
CONTINUOUS
 62
     7
 10
3.03815353965156
 20
-2.57663775156363
 30
0.0
  0
VERTEX
  5
226
  8
0
  6
CONTINUOUS
 62
     7
 10
3.03813016262672
 20
-2.57473632137199
 30
0.0
  0
VERTEX
  5
227
  8
0
  6
CONTINUOUS
 62
     7
 10
3.03810690126944
 20
-2.57283488976302
 30
0.0
  0
VERTEX
  5
228
  8
0
  6
CONTINUOUS
 62
     7
 10
3.03808375506679
 20
-2.57093345674998
 30
0.0
  0
VERTEX
  5
229
  8
0
  6
CONTINUOUS
 62
     7
 10
3.03806072353564
 20
-2.56903202234533
 30
0.0
  0
VERTEX
  5
22A
  8
0
  6
CONTINUOUS
 62
     7
 10
3.03803780619379
 20
-2.5671305865615
 30
0.0
  0
VERTEX
  5
22B
  8
0
  6
CONTINUOUS
 62
     7
 10
3.03801500255906
 20
-2.56522914941091
 30
0.0
  0
VERTEX
  5
22C
  8
0
  6
CONTINUOUS
 62
     7
 10
3.03799231214925
 20
-2.563327710906
 30
0.0
  0
VERTEX
  5
22D
  8
0
  6
CONTINUOUS
 62
     7
 10
3.03796973448219
 20
-2.5614262710592
 30
0.0
  0
VERTEX
  5
22E
  8
0
  6
CONTINUOUS
 62
     7
 10
3.03794726907566
 20
-2.55952482988294
 30
0.0
  0
VERTEX
  5
22F
  8
0
  6
CONTINUOUS
 62
     7
 10
3.0379249154475
 20
-2.55762338738964
 30
0.0
  0
VERTEX
  5
230
  8
0
  6
CONTINUOUS
 62
     7
 10
3.0379026731155
 20
-2.55572194359175
 30
0.0
  0
VERTEX
  5
231
  8
0
  6
CONTINUOUS
 62
     7
 10
3.03788054159846
 20
-2.55382049850166
 30
0.0
  0
VERTEX
  5
232
  8
0
  6
CONTINUOUS
 62
     7
 10
3.03785852043949
 20
-2.55191905213118
 30
0.0
  0
VERTEX
  5
233
  8
0
  6
CONTINUOUS
 62
     7
 10
3.03783660920711
 20
-2.55001760449146
 30
0.0
  0
VERTEX
  5
234
  8
0
  6
CONTINUOUS
 62
     7
 10
3.03781480747101
 20
-2.54811615559364
 30
0.0
  0
VERTEX
  5
235
  8
0
  6
CONTINUOUS
 62
     7
 10
3.03779311480091
 20
-2.54621470544886
 30
0.0
  0
VERTEX
  5
236
  8
0
  6
CONTINUOUS
 62
     7
 10
3.03777153076652
 20
-2.54431325406824
 30
0.0
  0
VERTEX
  5
237
  8
0
  6
CONTINUOUS
 62
     7
 10
3.03775005493753
 20
-2.54241180146292
 30
0.0
  0
VERTEX
  5
238
  8
0
  6
CONTINUOUS
 62
     7
 10
3.03772868688366
 20
-2.54051034764404
 30
0.0
  0
VERTEX
  5
239
  8
0
  6
CONTINUOUS
 62
     7
 10
3.03770742617461
 20
-2.53860889262272
 30
0.0
  0
VERTEX
  5
23A
  8
0
  6
CONTINUOUS
 62
     7
 10
3.03768627238009
 20
-2.5367074364101
 30
0.0
  0
VERTEX
  5
23B
  8
0
  6
CONTINUOUS
 62
     7
 10
3.03766522505728
 20
-2.53480597901727
 30
0.0
  0
VERTEX
  5
23C
  8
0
  6
CONTINUOUS
 62
     7
 10
3.03764428371652
 20
-2.53290452045519
 30
0.0
  0
VERTEX
  5
23D
  8
0
  6
CONTINUOUS
 62
     7
 10
3.03762344785721
 20
-2.53100306073476
 30
0.0
  0
VERTEX
  5
23E
  8
0
  6
CONTINUOUS
 62
     7
 10
3.03760271697875
 20
-2.5291015998669
 30
0.0
  0
VERTEX
  5
23F
  8
0
  6
CONTINUOUS
 62
     7
 10
3.03758209058054
 20
-2.52720013786253
 30
0.0
  0
VERTEX
  5
240
  8
0
  6
CONTINUOUS
 62
     7
 10
3.03756156816196
 20
-2.52529867473256
 30
0.0
  0
VERTEX
  5
241
  8
0
  6
CONTINUOUS
 62
     7
 10
3.03754114922243
 20
-2.5233972104879
 30
0.0
  0
VERTEX
  5
242
  8
0
  6
CONTINUOUS
 62
     7
 10
3.03752083326133
 20
-2.52149574513948
 30
0.0
  0
VERTEX
  5
243
  8
0
  6
CONTINUOUS
 62
     7
 10
3.03750061977825
 20
-2.51959427869819
 30
0.0
  0
VERTEX
  5
244
  8
0
  6
CONTINUOUS
 62
     7
 10
3.03748050829332
 20
-2.51769281117493
 30
0.0
  0
VERTEX
  5
245
  8
0
  6
CONTINUOUS
 62
     7
 10
3.03746049836624
 20
-2.51579134258049
 30
0.0
  0
VERTEX
  5
246
  8
0
  6
CONTINUOUS
 62
     7
 10
3.03744058956114
 20
-2.51388987292568
 30
0.0
  0
VERTEX
  5
247
  8
0
  6
CONTINUOUS
 62
     7
 10
3.03742078144216
 20
-2.5119884022213
 30
0.0
  0
VERTEX
  5
248
  8
0
  6
CONTINUOUS
 62
     7
 10
3.03740107357346
 20
-2.51008693047815
 30
0.0
  0
VERTEX
  5
249
  8
0
  6
CONTINUOUS
 62
     7
 10
3.03738146551918
 20
-2.50818545770702
 30
0.0
  0
VERTEX
  5
24A
  8
0
  6
CONTINUOUS
 62
     7
 10
3.03736195684347
 20
-2.50628398391872
 30
0.0
  0
VERTEX
  5
24B
  8
0
  6
CONTINUOUS
 62
     7
 10
3.03734254710643
 20
-2.50438250912407
 30
0.0
  0
VERTEX
  5
24C
  8
0
  6
CONTINUOUS
 62
     7
 10
3.03732323539954
 20
-2.50248103333672
 30
0.0
  0
VERTEX
  5
24D
  8
0
  6
CONTINUOUS
 62
     7
 10
3.03730401991439
 20
-2.50057955657578
 30
0.0
  0
VERTEX
  5
24E
  8
0
  6
CONTINUOUS
 62
     7
 10
3.03728489874063
 20
-2.49867807886096
 30
0.0
  0
VERTEX
  5
24F
  8
0
  6
CONTINUOUS
 62
     7
 10
3.03726586996788
 20
-2.49677660021196
 30
0.0
  0
VERTEX
  5
250
  8
0
  6
CONTINUOUS
 62
     7
 10
3.0372469316858
 20
-2.49487512064851
 30
0.0
  0
VERTEX
  5
251
  8
0
  6
CONTINUOUS
 62
     7
 10
3.03722808198401
 20
-2.49297364019031
 30
0.0
  0
VERTEX
  5
252
  8
0
  6
CONTINUOUS
 62
     7
 10
3.0372093189527
 20
-2.49107215885708
 30
0.0
  0
VERTEX
  5
253
  8
0
  6
CONTINUOUS
 62
     7
 10
3.03719064145234
 20
-2.48917067666248
 30
0.0
  0
VERTEX
  5
254
  8
0
  6
CONTINUOUS
 62
     7
 10
3.03717205064961
 20
-2.48726919360215
 30
0.0
  0
VERTEX
  5
255
  8
0
  6
CONTINUOUS
 62
     7
 10
3.03715354814091
 20
-2.48536770966834
 30
0.0
  0
VERTEX
  5
256
  8
0
  6
CONTINUOUS
 62
     7
 10
3.03713513552268
 20
-2.4834662248533
 30
0.0
  0
VERTEX
  5
257
  8
0
  6
CONTINUOUS
 62
     7
 10
3.03711681439131
 20
-2.48156473914928
 30
0.0
  0
VERTEX
  5
258
  8
0
  6
CONTINUOUS
 62
     7
 10
3.03709858634324
 20
-2.47966325254855
 30
0.0
  0
VERTEX
  5
259
  8
0
  6
CONTINUOUS
 62
     7
 10
3.03708045297487
 20
-2.47776176504335
 30
0.0
  0
VERTEX
  5
25A
  8
0
  6
CONTINUOUS
 62
     7
 10
3.03706241588263
 20
-2.47586027662595
 30
0.0
  0
VERTEX
  5
25B
  8
0
  6
CONTINUOUS
 62
     7
 10
3.03704447666294
 20
-2.47395878728859
 30
0.0
  0
VERTEX
  5
25C
  8
0
  6
CONTINUOUS
 62
     7
 10
3.0370266369122
 20
-2.47205729702353
 30
0.0
  0
VERTEX
  5
25D
  8
0
  6
CONTINUOUS
 62
     7
 10
3.03700889822684
 20
-2.47015580582303
 30
0.0
  0
VERTEX
  5
25E
  8
0
  6
CONTINUOUS
 62
     7
 10
3.03699126220327
 20
-2.46825431367934
 30
0.0
  0
VERTEX
  5
25F
  8
0
  6
CONTINUOUS
 62
     7
 10
3.03697373043792
 20
-2.46635282058472
 30
0.0
  0
VERTEX
  5
260
  8
0
  6
CONTINUOUS
 62
     7
 10
3.0369563045272
 20
-2.46445132653141
 30
0.0
  0
VERTEX
  5
261
  8
0
  6
CONTINUOUS
 62
     7
 10
3.03693898606752
 20
-2.46254983151169
 30
0.0
  0
VERTEX
  5
262
  8
0
  6
CONTINUOUS
 62
     7
 10
3.0369217766553
 20
-2.46064833551779
 30
0.0
  0
VERTEX
  5
263
  8
0
  6
CONTINUOUS
 62
     7
 10
3.03690467788697
 20
-2.45874683854198
 30
0.0
  0
VERTEX
  5
264
  8
0
  6
CONTINUOUS
 62
     7
 10
3.03688769135165
 20
-2.45684534057657
 30
0.0
  0
VERTEX
  5
265
  8
0
  6
CONTINUOUS
 62
     7
 10
3.03687081653443
 20
-2.45494384163065
 30
0.0
  0
VERTEX
  5
266
  8
0
  6
CONTINUOUS
 62
     7
 10
3.03685404791622
 20
-2.4530423417532
 30
0.0
  0
VERTEX
  5
267
  8
0
  6
CONTINUOUS
 62
     7
 10
3.03683737925
 20
-2.45114084099903
 30
0.0
  0
VERTEX
  5
268
  8
0
  6
CONTINUOUS
 62
     7
 10
3.03682080428878
 20
-2.44923933942294
 30
0.0
  0
VERTEX
  5
269
  8
0
  6
CONTINUOUS
 62
     7
 10
3.03680431678556
 20
-2.44733783707971
 30
0.0
  0
VERTEX
  5
26A
  8
0
  6
CONTINUOUS
 62
     7
 10
3.03678791049333
 20
-2.44543633402414
 30
0.0
  0
VERTEX
  5
26B
  8
0
  6
CONTINUOUS
 62
     7
 10
3.0367715791651
 20
-2.44353483031102
 30
0.0
  0
VERTEX
  5
26C
  8
0
  6
CONTINUOUS
 62
     7
 10
3.03675531655387
 20
-2.44163332599516
 30
0.0
  0
VERTEX
  5
26D
  8
0
  6
CONTINUOUS
 62
     7
 10
3.03673911641264
 20
-2.43973182113135
 30
0.0
  0
VERTEX
  5
26E
  8
0
  6
CONTINUOUS
 62
     7
 10
3.0367229724944
 20
-2.43783031577437
 30
0.0
  0
VERTEX
  5
26F
  8
0
  6
CONTINUOUS
 62
     7
 10
3.03670687855217
 20
-2.43592880997904
 30
0.0
  0
VERTEX
  5
270
  8
0
  6
CONTINUOUS
 62
     7
 10
3.03669082833893
 20
-2.43402730380014
 30
0.0
  0
VERTEX
  5
271
  8
0
  6
CONTINUOUS
 62
     7
 10
3.03667481560769
 20
-2.43212579729246
 30
0.0
  0
VERTEX
  5
272
  8
0
  6
CONTINUOUS
 62
     7
 10
3.03665883411145
 20
-2.43022429051081
 30
0.0
  0
VERTEX
  5
273
  8
0
  6
CONTINUOUS
 62
     7
 10
3.03664287760321
 20
-2.42832278350998
 30
0.0
  0
VERTEX
  5
274
  8
0
  6
CONTINUOUS
 62
     7
 10
3.03662693983597
 20
-2.42642127634476
 30
0.0
  0
VERTEX
  5
275
  8
0
  6
CONTINUOUS
 62
     7
 10
3.03661101456273
 20
-2.42451976906996
 30
0.0
  0
VERTEX
  5
276
  8
0
  6
CONTINUOUS
 62
     7
 10
3.03659509553648
 20
-2.42261826174035
 30
0.0
  0
SEQEND
  5
277
  8
0
  6
CONTINUOUS
 62
     7
  0
POLYLINE
  5
141
  8
0
  6
CONTINUOUS
 62
     7
 66
     1
 10
0.0
 20
0.0
 30
0.0
  0
VERTEX
  5
278
  8
0
  6
CONTINUOUS
 62
     7
 10
48.94758524319585
 20
-2.99999999999977
 30
0.0
  0
VERTEX
  5
279
  8
0
  6
CONTINUOUS
 62
     7
 10
48.94868096658411
 20
-2.99830249996218
 30
0.0
  0
VERTEX
  5
27A
  8
0
  6
CONTINUOUS
 62
     7
 10
48.94906686378609
 20
-2.99622495490401
 30
0.0
  0
VERTEX
  5
27B
  8
0
  6
CONTINUOUS
 62
     7
 10
48.94943830925385
 20
-2.99419740233457
 30
0.0
  0
VERTEX
  5
27C
  8
0
  6
CONTINUOUS
 62
     7
 10
48.9497757687831
 20
-2.99217996753601
 30
0.0
  0
VERTEX
  5
27D
  8
0
  6
CONTINUOUS
 62
     7
 10
48.95004755644938
 20
-2.99013575017523
 30
0.0
  0
VERTEX
  5
27E
  8
0
  6
CONTINUOUS
 62
     7
 10
48.95027686288648
 20
-2.98807691636197
 30
0.0
  0
VERTEX
  5
27F
  8
0
  6
CONTINUOUS
 62
     7
 10
48.95048882354045
 20
-2.98601774095667
 30
0.0
  0
VERTEX
  5
280
  8
0
  6
CONTINUOUS
 62
     7
 10
48.95069261812282
 20
-2.9839624607474
 30
0.0
  0
VERTEX
  5
281
  8
0
  6
CONTINUOUS
 62
     7
 10
48.95088725838593
 20
-2.98190891565535
 30
0.0
  0
VERTEX
  5
282
  8
0
  6
CONTINUOUS
 62
     7
 10
48.95107159315059
 20
-2.97985484351629
 30
0.0
  0
VERTEX
  5
283
  8
0
  6
CONTINUOUS
 62
     7
 10
48.95124511068995
 20
-2.97779866303059
 30
0.0
  0
VERTEX
  5
284
  8
0
  6
CONTINUOUS
 62
     7
 10
48.9514090455698
 20
-2.97574065228476
 30
0.0
  0
VERTEX
  5
285
  8
0
  6
CONTINUOUS
 62
     7
 10
48.95156492772562
 20
-2.97368140386374
 30
0.0
  0
VERTEX
  5
286
  8
0
  6
CONTINUOUS
 62
     7
 10
48.9517142870929
 20
-2.97162151035249
 30
0.0
  0
VERTEX
  5
287
  8
0
  6
CONTINUOUS
 62
     7
 10
48.95185854277409
 20
-2.96956150759385
 30
0.0
  0
VERTEX
  5
288
  8
0
  6
CONTINUOUS
 62
     7
 10
48.95199829408597
 20
-2.96750151173305
 30
0.0
  0
VERTEX
  5
289
  8
0
  6
CONTINUOUS
 62
     7
 10
48.95213377265637
 20
-2.96544145067317
 30
0.0
  0
VERTEX
  5
28A
  8
0
  6
CONTINUOUS
 62
     7
 10
48.95226520837319
 20
-2.96338125142655
 30
0.0
  0
VERTEX
  5
28B
  8
0
  6
CONTINUOUS
 62
     7
 10
48.95239283112435
 20
-2.96132084100553
 30
0.0
  0
VERTEX
  5
28C
  8
0
  6
CONTINUOUS
 62
     7
 10
48.95251686993856
 20
-2.95926015236945
 30
0.0
  0
VERTEX
  5
28D
  8
0
  6
CONTINUOUS
 62
     7
 10
48.95263754458352
 20
-2.95719918257989
 30
0.0
  0
VERTEX
  5
28E
  8
0
  6
CONTINUOUS
 62
     7
 10
48.95275506918011
 20
-2.95513796778431
 30
0.0
  0
VERTEX
  5
28F
  8
0
  6
CONTINUOUS
 62
     7
 10
48.95286965776879
 20
-2.95307654468682
 30
0.0
  0
VERTEX
  5
290
  8
0
  6
CONTINUOUS
 62
     7
 10
48.95298152439
 20
-2.95101494999152
 30
0.0
  0
VERTEX
  5
291
  8
0
  6
CONTINUOUS
 62
     7
 10
48.95309088308419
 20
-2.94895322040249
 30
0.0
  0
VERTEX
  5
292
  8
0
  6
CONTINUOUS
 62
     7
 10
48.95319793755684
 20
-2.94689138964553
 30
0.0
  0
VERTEX
  5
293
  8
0
  6
CONTINUOUS
 62
     7
 10
48.95330281454269
 20
-2.94482946926517
 30
0.0
  0
VERTEX
  5
294
  8
0
  6
CONTINUOUS
 62
     7
 10
48.95340560604624
 20
-2.94276746079743
 30
0.0
  0
VERTEX
  5
295
  8
0
  6
CONTINUOUS
 62
     7
 10
48.95350640390316
 20
-2.94070536572968
 30
0.0
  0
VERTEX
  5
296
  8
0
  6
CONTINUOUS
 62
     7
 10
48.95360529994908
 20
-2.93864318554929
 30
0.0
  0
VERTEX
  5
297
  8
0
  6
CONTINUOUS
 62
     7
 10
48.95370238601966
 20
-2.93658092174363
 30
0.0
  0
VERTEX
  5
298
  8
0
  6
CONTINUOUS
 62
     7
 10
48.95379775393567
 20
-2.93451857580145
 30
0.0
  0
VERTEX
  5
299
  8
0
  6
CONTINUOUS
 62
     7
 10
48.9538914873953
 20
-2.93245614996296
 30
0.0
  0
VERTEX
  5
29A
  8
0
  6
CONTINUOUS
 62
     7
 10
48.95398364854518
 20
-2.9303936484622
 30
0.0
  0
VERTEX
  5
29B
  8
0
  6
CONTINUOUS
 62
     7
 10
48.95407429599765
 20
-2.92833107586019
 30
0.0
  0
VERTEX
  5
29C
  8
0
  6
CONTINUOUS
 62
     7
 10
48.95416348836505
 20
-2.92626843671795
 30
0.0
  0
VERTEX
  5
29D
  8
0
  6
CONTINUOUS
 62
     7
 10
48.95425128425973
 20
-2.9242057355965
 30
0.0
  0
VERTEX
  5
29E
  8
0
  6
CONTINUOUS
 62
     7
 10
48.95433774229404
 20
-2.92214297705686
 30
0.0
  0
VERTEX
  5
29F
  8
0
  6
CONTINUOUS
 62
     7
 10
48.95442292108032
 20
-2.92008016566004
 30
0.0
  0
VERTEX
  5
2A0
  8
0
  6
CONTINUOUS
 62
     7
 10
48.95450687765576
 20
-2.91801730577388
 30
0.0
  0
VERTEX
  5
2A1
  8
0
  6
CONTINUOUS
 62
     7
 10
48.9545896544985
 20
-2.9159543999805
 30
0.0
  0
VERTEX
  5
2A2
  8
0
  6
CONTINUOUS
 62
     7
 10
48.95467128621446
 20
-2.91389144989652
 30
0.0
  0
VERTEX
  5
2A3
  8
0
  6
CONTINUOUS
 62
     7
 10
48.95475180733246
 20
-2.91182845712906
 30
0.0
  0
VERTEX
  5
2A4
  8
0
  6
CONTINUOUS
 62
     7
 10
48.95483125238124
 20
-2.90976542328527
 30
0.0
  0
VERTEX
  5
2A5
  8
0
  6
CONTINUOUS
 62
     7
 10
48.95490965588961
 20
-2.9077023499723
 30
0.0
  0
VERTEX
  5
2A6
  8
0
  6
CONTINUOUS
 62
     7
 10
48.95498705238633
 20
-2.90563923879726
 30
0.0
  0
VERTEX
  5
2A7
  8
0
  6
CONTINUOUS
 62
     7
 10
48.95506347640019
 20
-2.90357609136731
 30
0.0
  0
VERTEX
  5
2A8
  8
0
  6
CONTINUOUS
 62
     7
 10
48.9551389620521
 20
-2.9015129092745
 30
0.0
  0
VERTEX
  5
2A9
  8
0
  6
CONTINUOUS
 62
     7
 10
48.9552135370492
 20
-2.89944969387355
 30
0.0
  0
VERTEX
  5
2AA
  8
0
  6
CONTINUOUS
 62
     7
 10
48.95528722399709
 20
-2.89738644633044
 30
0.0
  0
VERTEX
  5
2AB
  8
0
  6
CONTINUOUS
 62
     7
 10
48.95536004536034
 20
-2.89532316780592
 30
0.0
  0
VERTEX
  5
2AC
  8
0
  6
CONTINUOUS
 62
     7
 10
48.95543202360352
 20
-2.89325985946074
 30
0.0
  0
VERTEX
  5
2AD
  8
0
  6
CONTINUOUS
 62
     7
 10
48.95550318119118
 20
-2.89119652245567
 30
0.0
  0
VERTEX
  5
2AE
  8
0
  6
CONTINUOUS
 62
     7
 10
48.95557354058789
 20
-2.88913315795146
 30
0.0
  0
VERTEX
  5
2AF
  8
0
  6
CONTINUOUS
 62
     7
 10
48.9556431242582
 20
-2.88706976710885
 30
0.0
  0
VERTEX
  5
2B0
  8
0
  6
CONTINUOUS
 62
     7
 10
48.95571195466669
 20
-2.8850063510886
 30
0.0
  0
VERTEX
  5
2B1
  8
0
  6
CONTINUOUS
 62
     7
 10
48.95578005381066
 20
-2.88294291102049
 30
0.0
  0
VERTEX
  5
2B2
  8
0
  6
CONTINUOUS
 62
     7
 10
48.95584743912308
 20
-2.88087944773159
 30
0.0
  0
VERTEX
  5
2B3
  8
0
  6
CONTINUOUS
 62
     7
 10
48.95591412545776
 20
-2.87881596187795
 30
0.0
  0
VERTEX
  5
2B4
  8
0
  6
CONTINUOUS
 62
     7
 10
48.95598012763927
 20
-2.87675245411369
 30
0.0
  0
VERTEX
  5
2B5
  8
0
  6
CONTINUOUS
 62
     7
 10
48.95604546049223
 20
-2.87468892509292
 30
0.0
  0
VERTEX
  5
2B6
  8
0
  6
CONTINUOUS
 62
     7
 10
48.95611013884123
 20
-2.87262537546973
 30
0.0
  0
VERTEX
  5
2B7
  8
0
  6
CONTINUOUS
 62
     7
 10
48.95617417751087
 20
-2.87056180589826
 30
0.0
  0
VERTEX
  5
2B8
  8
0
  6
CONTINUOUS
 62
     7
 10
48.95623759132574
 20
-2.8684982170326
 30
0.0
  0
VERTEX
  5
2B9
  8
0
  6
CONTINUOUS
 62
     7
 10
48.95630039511044
 20
-2.86643460952687
 30
0.0
  0
VERTEX
  5
2BA
  8
0
  6
CONTINUOUS
 62
     7
 10
48.95636260368804
 20
-2.86437098403511
 30
0.0
  0
VERTEX
  5
2BB
  8
0
  6
CONTINUOUS
 62
     7
 10
48.95642423083756
 20
-2.86230734115934
 30
0.0
  0
VERTEX
  5
2BC
  8
0
  6
CONTINUOUS
 62
     7
 10
48.95648528747748
 20
-2.86024368135917
 30
0.0
  0
VERTEX
  5
2BD
  8
0
  6
CONTINUOUS
 62
     7
 10
48.95654578404076
 20
-2.85818000506998
 30
0.0
  0
VERTEX
  5
2BE
  8
0
  6
CONTINUOUS
 62
     7
 10
48.95660573096033
 20
-2.85611631272718
 30
0.0
  0
VERTEX
  5
2BF
  8
0
  6
CONTINUOUS
 62
     7
 10
48.95666513866916
 20
-2.85405260476619
 30
0.0
  0
VERTEX
  5
2C0
  8
0
  6
CONTINUOUS
 62
     7
 10
48.95672401760019
 20
-2.85198888162239
 30
0.0
  0
VERTEX
  5
2C1
  8
0
  6
CONTINUOUS
 62
     7
 10
48.9567823781864
 20
-2.84992514373119
 30
0.0
  0
VERTEX
  5
2C2
  8
0
  6
CONTINUOUS
 62
     7
 10
48.95684023086072
 20
-2.847861391528
 30
0.0
  0
VERTEX
  5
2C3
  8
0
  6
CONTINUOUS
 62
     7
 10
48.95689758605611
 20
-2.84579762544822
 30
0.0
  0
VERTEX
  5
2C4
  8
0
  6
CONTINUOUS
 62
     7
 10
48.95695445420552
 20
-2.84373384592725
 30
0.0
  0
VERTEX
  5
2C5
  8
0
  6
CONTINUOUS
 62
     7
 10
48.95701084542704
 20
-2.84167005338522
 30
0.0
  0
VERTEX
  5
2C6
  8
0
  6
CONTINUOUS
 62
     7
 10
48.95706676775039
 20
-2.83960624814094
 30
0.0
  0
VERTEX
  5
2C7
  8
0
  6
CONTINUOUS
 62
     7
 10
48.95712222835522
 20
-2.83754243047197
 30
0.0
  0
VERTEX
  5
2C8
  8
0
  6
CONTINUOUS
 62
     7
 10
48.9571772344187
 20
-2.83547860065576
 30
0.0
  0
VERTEX
  5
2C9
  8
0
  6
CONTINUOUS
 62
     7
 10
48.957231793118
 20
-2.83341475896975
 30
0.0
  0
VERTEX
  5
2CA
  8
0
  6
CONTINUOUS
 62
     7
 10
48.9572859116303
 20
-2.8313509056914
 30
0.0
  0
VERTEX
  5
2CB
  8
0
  6
CONTINUOUS
 62
     7
 10
48.95733959713275
 20
-2.82928704109814
 30
0.0
  0
VERTEX
  5
2CC
  8
0
  6
CONTINUOUS
 62
     7
 10
48.95739285680254
 20
-2.82722316546742
 30
0.0
  0
VERTEX
  5
2CD
  8
0
  6
CONTINUOUS
 62
     7
 10
48.95744569781683
 20
-2.82515927907669
 30
0.0
  0
VERTEX
  5
2CE
  8
0
  6
CONTINUOUS
 62
     7
 10
48.95749812735278
 20
-2.82309538220338
 30
0.0
  0
VERTEX
  5
2CF
  8
0
  6
CONTINUOUS
 62
     7
 10
48.9575501525869
 20
-2.82103147512493
 30
0.0
  0
VERTEX
  5
2D0
  8
0
  6
CONTINUOUS
 62
     7
 10
48.95760178023117
 20
-2.81896755809825
 30
0.0
  0
VERTEX
  5
2D1
  8
0
  6
CONTINUOUS
 62
     7
 10
48.9576530157245
 20
-2.81690363132417
 30
0.0
  0
VERTEX
  5
2D2
  8
0
  6
CONTINUOUS
 62
     7
 10
48.95770386428968
 20
-2.81483969499396
 30
0.0
  0
VERTEX
  5
2D3
  8
0
  6
CONTINUOUS
 62
     7
 10
48.95775433114944
 20
-2.81277574929889
 30
0.0
  0
VERTEX
  5
2D4
  8
0
  6
CONTINUOUS
 62
     7
 10
48.95780442152657
 20
-2.81071179443025
 30
0.0
  0
VERTEX
  5
2D5
  8
0
  6
CONTINUOUS
 62
     7
 10
48.95785414064383
 20
-2.80864783057932
 30
0.0
  0
VERTEX
  5
2D6
  8
0
  6
CONTINUOUS
 62
     7
 10
48.95790349372398
 20
-2.80658385793737
 30
0.0
  0
VERTEX
  5
2D7
  8
0
  6
CONTINUOUS
 62
     7
 10
48.95795248598979
 20
-2.80451987669568
 30
0.0
  0
VERTEX
  5
2D8
  8
0
  6
CONTINUOUS
 62
     7
 10
48.95800112266401
 20
-2.80245588704553
 30
0.0
  0
VERTEX
  5
2D9
  8
0
  6
CONTINUOUS
 62
     7
 10
48.95804940896942
 20
-2.8003918891782
 30
0.0
  0
VERTEX
  5
2DA
  8
0
  6
CONTINUOUS
 62
     7
 10
48.95809735012801
 20
-2.79832788328493
 30
0.0
  0
VERTEX
  5
2DB
  8
0
  6
CONTINUOUS
 62
     7
 10
48.95814495105994
 20
-2.79626386954341
 30
0.0
  0
VERTEX
  5
2DC
  8
0
  6
CONTINUOUS
 62
     7
 10
48.95819221592964
 20
-2.79419984809739
 30
0.0
  0
VERTEX
  5
2DD
  8
0
  6
CONTINUOUS
 62
     7
 10
48.95823914878511
 20
-2.79213581908539
 30
0.0
  0
VERTEX
  5
2DE
  8
0
  6
CONTINUOUS
 62
     7
 10
48.95828575367435
 20
-2.79007178264594
 30
0.0
  0
VERTEX
  5
2DF
  8
0
  6
CONTINUOUS
 62
     7
 10
48.95833203464535
 20
-2.78800773891756
 30
0.0
  0
VERTEX
  5
2E0
  8
0
  6
CONTINUOUS
 62
     7
 10
48.95837799574613
 20
-2.78594368803877
 30
0.0
  0
VERTEX
  5
2E1
  8
0
  6
CONTINUOUS
 62
     7
 10
48.95842364102468
 20
-2.78387963014808
 30
0.0
  0
VERTEX
  5
2E2
  8
0
  6
CONTINUOUS
 62
     7
 10
48.958468974529
 20
-2.78181556538403
 30
0.0
  0
VERTEX
  5
2E3
  8
0
  6
CONTINUOUS
 62
     7
 10
48.95851400030711
 20
-2.77975149388513
 30
0.0
  0
VERTEX
  5
2E4
  8
0
  6
CONTINUOUS
 62
     7
 10
48.958558722407
 20
-2.77768741578991
 30
0.0
  0
VERTEX
  5
2E5
  8
0
  6
CONTINUOUS
 62
     7
 10
48.95860314487667
 20
-2.77562333123688
 30
0.0
  0
VERTEX
  5
2E6
  8
0
  6
CONTINUOUS
 62
     7
 10
48.95864727161689
 20
-2.77355924035857
 30
0.0
  0
VERTEX
  5
2E7
  8
0
  6
CONTINUOUS
 62
     7
 10
48.95869110593495
 20
-2.77149514326327
 30
0.0
  0
VERTEX
  5
2E8
  8
0
  6
CONTINUOUS
 62
     7
 10
48.95873465098863
 20
-2.76943104005318
 30
0.0
  0
VERTEX
  5
2E9
  8
0
  6
CONTINUOUS
 62
     7
 10
48.95877790993572
 20
-2.7673669308305
 30
0.0
  0
VERTEX
  5
2EA
  8
0
  6
CONTINUOUS
 62
     7
 10
48.95882088593398
 20
-2.76530281569744
 30
0.0
  0
VERTEX
  5
2EB
  8
0
  6
CONTINUOUS
 62
     7
 10
48.95886358214121
 20
-2.76323869475619
 30
0.0
  0
VERTEX
  5
2EC
  8
0
  6
CONTINUOUS
 62
     7
 10
48.95890600171519
 20
-2.76117456810895
 30
0.0
  0
VERTEX
  5
2ED
  8
0
  6
CONTINUOUS
 62
     7
 10
48.9589481478137
 20
-2.75911043585793
 30
0.0
  0
VERTEX
  5
2EE
  8
0
  6
CONTINUOUS
 62
     7
 10
48.95899002359451
 20
-2.75704629810531
 30
0.0
  0
VERTEX
  5
2EF
  8
0
  6
CONTINUOUS
 62
     7
 10
48.95903163221541
 20
-2.75498215495332
 30
0.0
  0
VERTEX
  5
2F0
  8
0
  6
CONTINUOUS
 62
     7
 10
48.95907297683418
 20
-2.75291800650413
 30
0.0
  0
VERTEX
  5
2F1
  8
0
  6
CONTINUOUS
 62
     7
 10
48.95911406057017
 20
-2.75085385285847
 30
0.0
  0
VERTEX
  5
2F2
  8
0
  6
CONTINUOUS
 62
     7
 10
48.95915488616208
 20
-2.74878969410225
 30
0.0
  0
VERTEX
  5
2F3
  8
0
  6
CONTINUOUS
 62
     7
 10
48.95919545613113
 20
-2.74672553031296
 30
0.0
  0
VERTEX
  5
2F4
  8
0
  6
CONTINUOUS
 62
     7
 10
48.95923577299603
 20
-2.74466136156798
 30
0.0
  0
VERTEX
  5
2F5
  8
0
  6
CONTINUOUS
 62
     7
 10
48.95927583927547
 20
-2.74259718794468
 30
0.0
  0
VERTEX
  5
2F6
  8
0
  6
CONTINUOUS
 62
     7
 10
48.95931565748814
 20
-2.74053300952046
 30
0.0
  0
VERTEX
  5
2F7
  8
0
  6
CONTINUOUS
 62
     7
 10
48.95935523015275
 20
-2.7384688263727
 30
0.0
  0
VERTEX
  5
2F8
  8
0
  6
CONTINUOUS
 62
     7
 10
48.95939455978798
 20
-2.73640463857877
 30
0.0
  0
VERTEX
  5
2F9
  8
0
  6
CONTINUOUS
 62
     7
 10
48.95943364891252
 20
-2.73434044621606
 30
0.0
  0
VERTEX
  5
2FA
  8
0
  6
CONTINUOUS
 62
     7
 10
48.95947250004509
 20
-2.73227624936195
 30
0.0
  0
VERTEX
  5
2FB
  8
0
  6
CONTINUOUS
 62
     7
 10
48.95951111570437
 20
-2.73021204809381
 30
0.0
  0
VERTEX
  5
2FC
  8
0
  6
CONTINUOUS
 62
     7
 10
48.95954949840491
 20
-2.7281478424889
 30
0.0
  0
VERTEX
  5
2FD
  8
0
  6
CONTINUOUS
 62
     7
 10
48.95958765047038
 20
-2.72608363261745
 30
0.0
  0
VERTEX
  5
2FE
  8
0
  6
CONTINUOUS
 62
     7
 10
48.95962557395721
 20
-2.72401941853998
 30
0.0
  0
VERTEX
  5
2FF
  8
0
  6
CONTINUOUS
 62
     7
 10
48.95966327090199
 20
-2.72195520031628
 30
0.0
  0
VERTEX
  5
300
  8
0
  6
CONTINUOUS
 62
     7
 10
48.95970074334126
 20
-2.71989097800611
 30
0.0
  0
VERTEX
  5
301
  8
0
  6
CONTINUOUS
 62
     7
 10
48.95973799331157
 20
-2.71782675166927
 30
0.0
  0
VERTEX
  5
302
  8
0
  6
CONTINUOUS
 62
     7
 10
48.95977502284948
 20
-2.71576252136552
 30
0.0
  0
VERTEX
  5
303
  8
0
  6
CONTINUOUS
 62
     7
 10
48.95981183399152
 20
-2.71369828715466
 30
0.0
  0
VERTEX
  5
304
  8
0
  6
CONTINUOUS
 62
     7
 10
48.95984842877426
 20
-2.71163404909645
 30
0.0
  0
VERTEX
  5
305
  8
0
  6
CONTINUOUS
 62
     7
 10
48.95988480923424
 20
-2.70956980725068
 30
0.0
  0
VERTEX
  5
306
  8
0
  6
CONTINUOUS
 62
     7
 10
48.95992097740802
 20
-2.70750556167714
 30
0.0
  0
VERTEX
  5
307
  8
0
  6
CONTINUOUS
 62
     7
 10
48.95995693533214
 20
-2.70544131243559
 30
0.0
  0
VERTEX
  5
308
  8
0
  6
CONTINUOUS
 62
     7
 10
48.95999268497302
 20
-2.70337705958339
 30
0.0
  0
VERTEX
  5
309
  8
0
  6
CONTINUOUS
 62
     7
 10
48.96002822805287
 20
-2.70131280316948
 30
0.0
  0
VERTEX
  5
30A
  8
0
  6
CONTINUOUS
 62
     7
 10
48.96006356624083
 20
-2.69924854324094
 30
0.0
  0
VERTEX
  5
30B
  8
0
  6
CONTINUOUS
 62
     7
 10
48.96009870120598
 20
-2.69718427984486
 30
0.0
  0
VERTEX
  5
30C
  8
0
  6
CONTINUOUS
 62
     7
 10
48.96013363461746
 20
-2.69512001302833
 30
0.0
  0
VERTEX
  5
30D
  8
0
  6
CONTINUOUS
 62
     7
 10
48.96016836814439
 20
-2.69305574283843
 30
0.0
  0
VERTEX
  5
30E
  8
0
  6
CONTINUOUS
 62
     7
 10
48.96020290345589
 20
-2.69099146932227
 30
0.0
  0
VERTEX
  5
30F
  8
0
  6
CONTINUOUS
 62
     7
 10
48.96023724222106
 20
-2.68892719252692
 30
0.0
  0
VERTEX
  5
310
  8
0
  6
CONTINUOUS
 62
     7
 10
48.96027138610902
 20
-2.68686291249948
 30
0.0
  0
VERTEX
  5
311
  8
0
  6
CONTINUOUS
 62
     7
 10
48.96030533678891
 20
-2.68479862928704
 30
0.0
  0
VERTEX
  5
312
  8
0
  6
CONTINUOUS
 62
     7
 10
48.96033909592981
 20
-2.68273434293669
 30
0.0
  0
VERTEX
  5
313
  8
0
  6
CONTINUOUS
 62
     7
 10
48.96037266517597
 20
-2.68067005349471
 30
0.0
  0
VERTEX
  5
314
  8
0
  6
CONTINUOUS
 62
     7
 10
48.96040604599051
 20
-2.67860576100145
 30
0.0
  0
VERTEX
  5
315
  8
0
  6
CONTINUOUS
 62
     7
 10
48.96043923975649
 20
-2.67654146549469
 30
0.0
  0
VERTEX
  5
316
  8
0
  6
CONTINUOUS
 62
     7
 10
48.96047224785662
 20
-2.67447716701217
 30
0.0
  0
VERTEX
  5
317
  8
0
  6
CONTINUOUS
 62
     7
 10
48.96050507167362
 20
-2.67241286559164
 30
0.0
  0
VERTEX
  5
318
  8
0
  6
CONTINUOUS
 62
     7
 10
48.96053771259017
 20
-2.67034856127083
 30
0.0
  0
VERTEX
  5
319
  8
0
  6
CONTINUOUS
 62
     7
 10
48.96057017198899
 20
-2.6682842540875
 30
0.0
  0
VERTEX
  5
31A
  8
0
  6
CONTINUOUS
 62
     7
 10
48.96060245125279
 20
-2.66621994407938
 30
0.0
  0
VERTEX
  5
31B
  8
0
  6
CONTINUOUS
 62
     7
 10
48.96063455176427
 20
-2.66415563128424
 30
0.0
  0
VERTEX
  5
31C
  8
0
  6
CONTINUOUS
 62
     7
 10
48.96066647490614
 20
-2.66209131573981
 30
0.0
  0
VERTEX
  5
31D
  8
0
  6
CONTINUOUS
 62
     7
 10
48.96069822206111
 20
-2.66002699748383
 30
0.0
  0
VERTEX
  5
31E
  8
0
  6
CONTINUOUS
 62
     7
 10
48.96072979459796
 20
-2.65796267655364
 30
0.0
  0
VERTEX
  5
31F
  8
0
  6
CONTINUOUS
 62
     7
 10
48.96076119374982
 20
-2.65589835298235
 30
0.0
  0
VERTEX
  5
320
  8
0
  6
CONTINUOUS
 62
     7
 10
48.96079242067331
 20
-2.65383402680076
 30
0.0
  0
VERTEX
  5
321
  8
0
  6
CONTINUOUS
 62
     7
 10
48.96082347652416
 20
-2.6517696980396
 30
0.0
  0
VERTEX
  5
322
  8
0
  6
CONTINUOUS
 62
     7
 10
48.96085436245814
 20
-2.64970536672965
 30
0.0
  0
VERTEX
  5
323
  8
0
  6
CONTINUOUS
 62
     7
 10
48.96088507963099
 20
-2.64764103290165
 30
0.0
  0
VERTEX
  5
324
  8
0
  6
CONTINUOUS
 62
     7
 10
48.96091562919846
 20
-2.64557669658635
 30
0.0
  0
VERTEX
  5
325
  8
0
  6
CONTINUOUS
 62
     7
 10
48.9609460123163
 20
-2.6435123578145
 30
0.0
  0
VERTEX
  5
326
  8
0
  6
CONTINUOUS
 62
     7
 10
48.96097623014025
 20
-2.64144801661686
 30
0.0
  0
VERTEX
  5
327
  8
0
  6
CONTINUOUS
 62
     7
 10
48.96100628382607
 20
-2.63938367302419
 30
0.0
  0
VERTEX
  5
328
  8
0
  6
CONTINUOUS
 62
     7
 10
48.9610361745295
 20
-2.63731932706723
 30
0.0
  0
VERTEX
  5
329
  8
0
  6
CONTINUOUS
 62
     7
 10
48.96106590338754
 20
-2.63525497877618
 30
0.0
  0
VERTEX
  5
32A
  8
0
  6
CONTINUOUS
 62
     7
 10
48.96109547141904
 20
-2.63319062817784
 30
0.0
  0
VERTEX
  5
32B
  8
0
  6
CONTINUOUS
 62
     7
 10
48.961124879597
 20
-2.63112627529764
 30
0.0
  0
VERTEX
  5
32C
  8
0
  6
CONTINUOUS
 62
     7
 10
48.96115412889435
 20
-2.62906192016102
 30
0.0
  0
VERTEX
  5
32D
  8
0
  6
CONTINUOUS
 62
     7
 10
48.961183220284
 20
-2.62699756279343
 30
0.0
  0
VERTEX
  5
32E
  8
0
  6
CONTINUOUS
 62
     7
 10
48.96121215473886
 20
-2.6249332032203
 30
0.0
  0
VERTEX
  5
32F
  8
0
  6
CONTINUOUS
 62
     7
 10
48.96124093323185
 20
-2.62286884146709
 30
0.0
  0
VERTEX
  5
330
  8
0
  6
CONTINUOUS
 62
     7
 10
48.96126955673589
 20
-2.62080447755922
 30
0.0
  0
VERTEX
  5
331
  8
0
  6
CONTINUOUS
 62
     7
 10
48.96129802622387
 20
-2.61874011152215
 30
0.0
  0
VERTEX
  5
332
  8
0
  6
CONTINUOUS
 62
     7
 10
48.96132634266873
 20
-2.61667574338131
 30
0.0
  0
VERTEX
  5
333
  8
0
  6
CONTINUOUS
 62
     7
 10
48.96135450704286
 20
-2.61461137316214
 30
0.0
  0
VERTEX
  5
334
  8
0
  6
CONTINUOUS
 62
     7
 10
48.96138252026926
 20
-2.61254700088869
 30
0.0
  0
VERTEX
  5
335
  8
0
  6
CONTINUOUS
 62
     7
 10
48.96141038318193
 20
-2.61048262658261
 30
0.0
  0
VERTEX
  5
336
  8
0
  6
CONTINUOUS
 62
     7
 10
48.96143809660542
 20
-2.60841825026525
 30
0.0
  0
VERTEX
  5
337
  8
0
  6
CONTINUOUS
 62
     7
 10
48.96146566136434
 20
-2.60635387195799
 30
0.0
  0
VERTEX
  5
338
  8
0
  6
CONTINUOUS
 62
     7
 10
48.9614930782833
 20
-2.6042894916822
 30
0.0
  0
VERTEX
  5
339
  8
0
  6
CONTINUOUS
 62
     7
 10
48.96152034818687
 20
-2.60222510945924
 30
0.0
  0
VERTEX
  5
33A
  8
0
  6
CONTINUOUS
 62
     7
 10
48.96154747189966
 20
-2.60016072531049
 30
0.0
  0
VERTEX
  5
33B
  8
0
  6
CONTINUOUS
 62
     7
 10
48.96157445024627
 20
-2.59809633925731
 30
0.0
  0
VERTEX
  5
33C
  8
0
  6
CONTINUOUS
 62
     7
 10
48.96160128405127
 20
-2.59603195132107
 30
0.0
  0
VERTEX
  5
33D
  8
0
  6
CONTINUOUS
 62
     7
 10
48.96162797413928
 20
-2.59396756152314
 30
0.0
  0
VERTEX
  5
33E
  8
0
  6
CONTINUOUS
 62
     7
 10
48.96165452131066
 20
-2.59190316988426
 30
0.0
  0
VERTEX
  5
33F
  8
0
  6
CONTINUOUS
 62
     7
 10
48.96168092628579
 20
-2.5898387764231
 30
0.0
  0
VERTEX
  5
340
  8
0
  6
CONTINUOUS
 62
     7
 10
48.96170718976852
 20
-2.5877743811579
 30
0.0
  0
VERTEX
  5
341
  8
0
  6
CONTINUOUS
 62
     7
 10
48.96173331246271
 20
-2.58570998410688
 30
0.0
  0
VERTEX
  5
342
  8
0
  6
CONTINUOUS
 62
     7
 10
48.96175929507221
 20
-2.58364558528828
 30
0.0
  0
VERTEX
  5
343
  8
0
  6
CONTINUOUS
 62
     7
 10
48.96178513830088
 20
-2.58158118472035
 30
0.0
  0
VERTEX
  5
344
  8
0
  6
CONTINUOUS
 62
     7
 10
48.96181084285257
 20
-2.57951678242131
 30
0.0
  0
VERTEX
  5
345
  8
0
  6
CONTINUOUS
 62
     7
 10
48.96183640943113
 20
-2.57745237840941
 30
0.0
  0
VERTEX
  5
346
  8
0
  6
CONTINUOUS
 62
     7
 10
48.96186183874043
 20
-2.57538797270287
 30
0.0
  0
VERTEX
  5
347
  8
0
  6
CONTINUOUS
 62
     7
 10
48.96188713148398
 20
-2.57332356531993
 30
0.0
  0
VERTEX
  5
348
  8
0
  6
CONTINUOUS
 62
     7
 10
48.96191228833622
 20
-2.57125915627804
 30
0.0
  0
VERTEX
  5
349
  8
0
  6
CONTINUOUS
 62
     7
 10
48.96193730991963
 20
-2.56919474559324
 30
0.0
  0
VERTEX
  5
34A
  8
0
  6
CONTINUOUS
 62
     7
 10
48.96196219685129
 20
-2.56713033328145
 30
0.0
  0
VERTEX
  5
34B
  8
0
  6
CONTINUOUS
 62
     7
 10
48.96198694974835
 20
-2.56506591935857
 30
0.0
  0
VERTEX
  5
34C
  8
0
  6
CONTINUOUS
 62
     7
 10
48.9620115692279
 20
-2.56300150384051
 30
0.0
  0
VERTEX
  5
34D
  8
0
  6
CONTINUOUS
 62
     7
 10
48.96203605590704
 20
-2.56093708674318
 30
0.0
  0
VERTEX
  5
34E
  8
0
  6
CONTINUOUS
 62
     7
 10
48.96206041040291
 20
-2.55887266808249
 30
0.0
  0
VERTEX
  5
34F
  8
0
  6
CONTINUOUS
 62
     7
 10
48.96208463333259
 20
-2.55680824787434
 30
0.0
  0
VERTEX
  5
350
  8
0
  6
CONTINUOUS
 62
     7
 10
48.96210872531319
 20
-2.55474382613466
 30
0.0
  0
VERTEX
  5
351
  8
0
  6
CONTINUOUS
 62
     7
 10
48.96213268695084
 20
-2.55267940287906
 30
0.0
  0
VERTEX
  5
352
  8
0
  6
CONTINUOUS
 62
     7
 10
48.96215651880734
 20
-2.55061497812208
 30
0.0
  0
VERTEX
  5
353
  8
0
  6
CONTINUOUS
 62
     7
 10
48.9621802214334
 20
-2.54855055187796
 30
0.0
  0
VERTEX
  5
354
  8
0
  6
CONTINUOUS
 62
     7
 10
48.96220379537971
 20
-2.54648612416095
 30
0.0
  0
VERTEX
  5
355
  8
0
  6
CONTINUOUS
 62
     7
 10
48.96222724119696
 20
-2.54442169498531
 30
0.0
  0
VERTEX
  5
356
  8
0
  6
CONTINUOUS
 62
     7
 10
48.96225055943584
 20
-2.54235726436528
 30
0.0
  0
VERTEX
  5
357
  8
0
  6
CONTINUOUS
 62
     7
 10
48.96227375064705
 20
-2.5402928323151
 30
0.0
  0
VERTEX
  5
358
  8
0
  6
CONTINUOUS
 62
     7
 10
48.96229681538128
 20
-2.53822839884903
 30
0.0
  0
VERTEX
  5
359
  8
0
  6
CONTINUOUS
 62
     7
 10
48.96231975418956
 20
-2.53616396398132
 30
0.0
  0
VERTEX
  5
35A
  8
0
  6
CONTINUOUS
 62
     7
 10
48.96234256765331
 20
-2.53409952772611
 30
0.0
  0
VERTEX
  5
35B
  8
0
  6
CONTINUOUS
 62
     7
 10
48.96236525640769
 20
-2.5320350900974
 30
0.0
  0
VERTEX
  5
35C
  8
0
  6
CONTINUOUS
 62
     7
 10
48.96238782109336
 20
-2.52997065110914
 30
0.0
  0
VERTEX
  5
35D
  8
0
  6
CONTINUOUS
 62
     7
 10
48.96241026235101
 20
-2.52790621077532
 30
0.0
  0
VERTEX
  5
35E
  8
0
  6
CONTINUOUS
 62
     7
 10
48.96243258082131
 20
-2.52584176910989
 30
0.0
  0
VERTEX
  5
35F
  8
0
  6
CONTINUOUS
 62
     7
 10
48.96245477714494
 20
-2.52377732612683
 30
0.0
  0
VERTEX
  5
360
  8
0
  6
CONTINUOUS
 62
     7
 10
48.96247685196258
 20
-2.5217128818401
 30
0.0
  0
VERTEX
  5
361
  8
0
  6
CONTINUOUS
 62
     7
 10
48.96249880591477
 20
-2.51964843626368
 30
0.0
  0
VERTEX
  5
362
  8
0
  6
CONTINUOUS
 62
     7
 10
48.96252063961822
 20
-2.51758398941148
 30
0.0
  0
VERTEX
  5
363
  8
0
  6
CONTINUOUS
 62
     7
 10
48.9625423536376
 20
-2.51551954129735
 30
0.0
  0
VERTEX
  5
364
  8
0
  6
CONTINUOUS
 62
     7
 10
48.96256394853072
 20
-2.51345509193509
 30
0.0
  0
VERTEX
  5
365
  8
0
  6
CONTINUOUS
 62
     7
 10
48.96258542485539
 20
-2.51139064133855
 30
0.0
  0
VERTEX
  5
366
  8
0
  6
CONTINUOUS
 62
     7
 10
48.96260678316943
 20
-2.50932618952153
 30
0.0
  0
VERTEX
  5
367
  8
0
  6
CONTINUOUS
 62
     7
 10
48.96262802403063
 20
-2.50726173649785
 30
0.0
  0
VERTEX
  5
368
  8
0
  6
CONTINUOUS
 62
     7
 10
48.96264914799681
 20
-2.50519728228135
 30
0.0
  0
VERTEX
  5
369
  8
0
  6
CONTINUOUS
 62
     7
 10
48.96267015581179
 20
-2.50313282688696
 30
0.0
  0
VERTEX
  5
36A
  8
0
  6
CONTINUOUS
 62
     7
 10
48.96269104943275
 20
-2.50106837033696
 30
0.0
  0
VERTEX
  5
36B
  8
0
  6
CONTINUOUS
 62
     7
 10
48.96271183130325
 20
-2.49900391265658
 30
0.0
  0
VERTEX
  5
36C
  8
0
  6
CONTINUOUS
 62
     7
 10
48.96273250386819
 20
-2.49693945387104
 30
0.0
  0
VERTEX
  5
36D
  8
0
  6
CONTINUOUS
 62
     7
 10
48.96275306957247
 20
-2.49487499400558
 30
0.0
  0
VERTEX
  5
36E
  8
0
  6
CONTINUOUS
 62
     7
 10
48.96277353086098
 20
-2.49281053308542
 30
0.0
  0
VERTEX
  5
36F
  8
0
  6
CONTINUOUS
 62
     7
 10
48.96279389016725
 20
-2.4907460711357
 30
0.0
  0
VERTEX
  5
370
  8
0
  6
CONTINUOUS
 62
     7
 10
48.96281414851745
 20
-2.48868160817055
 30
0.0
  0
VERTEX
  5
371
  8
0
  6
CONTINUOUS
 62
     7
 10
48.96283430418696
 20
-2.48661714418254
 30
0.0
  0
VERTEX
  5
372
  8
0
  6
CONTINUOUS
 62
     7
 10
48.96285435513268
 20
-2.48455267916176
 30
0.0
  0
VERTEX
  5
373
  8
0
  6
CONTINUOUS
 62
     7
 10
48.9628742993115
 20
-2.4824882130983
 30
0.0
  0
VERTEX
  5
374
  8
0
  6
CONTINUOUS
 62
     7
 10
48.96289413468033
 20
-2.48042374598225
 30
0.0
  0
VERTEX
  5
375
  8
0
  6
CONTINUOUS
 62
     7
 10
48.96291385919605
 20
-2.47835927780369
 30
0.0
  0
VERTEX
  5
376
  8
0
  6
CONTINUOUS
 62
     7
 10
48.96293347081556
 20
-2.47629480855272
 30
0.0
  0
VERTEX
  5
377
  8
0
  6
CONTINUOUS
 62
     7
 10
48.96295296749575
 20
-2.47423033821942
 30
0.0
  0
VERTEX
  5
378
  8
0
  6
CONTINUOUS
 62
     7
 10
48.96297234719351
 20
-2.47216586679388
 30
0.0
  0
VERTEX
  5
379
  8
0
  6
CONTINUOUS
 62
     7
 10
48.96299160786576
 20
-2.47010139426619
 30
0.0
  0
VERTEX
  5
37A
  8
0
  6
CONTINUOUS
 62
     7
 10
48.96301074746937
 20
-2.46803692062643
 30
0.0
  0
VERTEX
  5
37B
  8
0
  6
CONTINUOUS
 62
     7
 10
48.96302976396123
 20
-2.46597244586469
 30
0.0
  0
VERTEX
  5
37C
  8
0
  6
CONTINUOUS
 62
     7
 10
48.96304865529826
 20
-2.46390796997107
 30
0.0
  0
VERTEX
  5
37D
  8
0
  6
CONTINUOUS
 62
     7
 10
48.96306741943734
 20
-2.46184349293564
 30
0.0
  0
VERTEX
  5
37E
  8
0
  6
CONTINUOUS
 62
     7
 10
48.96308605433536
 20
-2.4597790147485
 30
0.0
  0
VERTEX
  5
37F
  8
0
  6
CONTINUOUS
 62
     7
 10
48.96310455794922
 20
-2.45771453539973
 30
0.0
  0
VERTEX
  5
380
  8
0
  6
CONTINUOUS
 62
     7
 10
48.96312292892007
 20
-2.45565005488488
 30
0.0
  0
VERTEX
  5
381
  8
0
  6
CONTINUOUS
 62
     7
 10
48.96314117200033
 20
-2.45358557324822
 30
0.0
  0
VERTEX
  5
382
  8
0
  6
CONTINUOUS
 62
     7
 10
48.9631592951563
 20
-2.45152109055964
 30
0.0
  0
VERTEX
  5
383
  8
0
  6
CONTINUOUS
 62
     7
 10
48.96317730638294
 20
-2.44945660688929
 30
0.0
  0
VERTEX
  5
384
  8
0
  6
CONTINUOUS
 62
     7
 10
48.9631952136752
 20
-2.44739212230728
 30
0.0
  0
VERTEX
  5
385
  8
0
  6
CONTINUOUS
 62
     7
 10
48.96321302502804
 20
-2.44532763688374
 30
0.0
  0
VERTEX
  5
386
  8
0
  6
CONTINUOUS
 62
     7
 10
48.96323074843639
 20
-2.4432631506888
 30
0.0
  0
VERTEX
  5
387
  8
0
  6
CONTINUOUS
 62
     7
 10
48.96324839189525
 20
-2.44119866379258
 30
0.0
  0
VERTEX
  5
388
  8
0
  6
CONTINUOUS
 62
     7
 10
48.96326596339952
 20
-2.43913417626522
 30
0.0
  0
VERTEX
  5
389
  8
0
  6
CONTINUOUS
 62
     7
 10
48.96328347094418
 20
-2.43706968817684
 30
0.0
  0
VERTEX
  5
38A
  8
0
  6
CONTINUOUS
 62
     7
 10
48.96330092252418
 20
-2.43500519959757
 30
0.0
  0
VERTEX
  5
38B
  8
0
  6
CONTINUOUS
 62
     7
 10
48.96331832613446
 20
-2.43294071059754
 30
0.0
  0
VERTEX
  5
38C
  8
0
  6
CONTINUOUS
 62
     7
 10
48.96333568976998
 20
-2.43087622124686
 30
0.0
  0
VERTEX
  5
38D
  8
0
  6
CONTINUOUS
 62
     7
 10
48.96335302142569
 20
-2.42881173161568
 30
0.0
  0
VERTEX
  5
38E
  8
0
  6
CONTINUOUS
 62
     7
 10
48.96337032909655
 20
-2.42674724177412
 30
0.0
  0
VERTEX
  5
38F
  8
0
  6
CONTINUOUS
 62
     7
 10
48.9633876207775
 20
-2.4246827517923
 30
0.0
  0
VERTEX
  5
390
  8
0
  6
CONTINUOUS
 62
     7
 10
48.9634049044635
 20
-2.42261826174035
 30
0.0
  0
SEQEND
  5
391
  8
0
  6
CONTINUOUS
 62
     7
  0
POLYLINE
  5
142
  8
0
  6
CONTINUOUS
 62
     7
 66
     1
 10
0.0
 20
0.0
 30
0.0
  0
VERTEX
  5
392
  8
0
  6
CONTINUOUS
 62
     7
 10
40.03659509553658
 20
-2.42261826174058
 30
0.0
  0
VERTEX
  5
393
  8
0
  6
CONTINUOUS
 62
     7
 10
40.03661190070925
 20
-2.42462540522506
 30
0.0
  0
VERTEX
  5
394
  8
0
  6
CONTINUOUS
 62
     7
 10
40.03662871320536
 20
-2.42663254864529
 30
0.0
  0
VERTEX
  5
395
  8
0
  6
CONTINUOUS
 62
     7
 10
40.0366455403484
 20
-2.42863969193698
 30
0.0
  0
VERTEX
  5
396
  8
0
  6
CONTINUOUS
 62
     7
 10
40.03666238946177
 20
-2.4306468350359
 30
0.0
  0
VERTEX
  5
397
  8
0
  6
CONTINUOUS
 62
     7
 10
40.03667926786896
 20
-2.43265397787777
 30
0.0
  0
VERTEX
  5
398
  8
0
  6
CONTINUOUS
 62
     7
 10
40.03669618289341
 20
-2.43466112039833
 30
0.0
  0
VERTEX
  5
399
  8
0
  6
CONTINUOUS
 62
     7
 10
40.03671314185858
 20
-2.43666826253332
 30
0.0
  0
VERTEX
  5
39A
  8
0
  6
CONTINUOUS
 62
     7
 10
40.03673015208791
 20
-2.43867540421848
 30
0.0
  0
VERTEX
  5
39B
  8
0
  6
CONTINUOUS
 62
     7
 10
40.03674722090487
 20
-2.44068254538955
 30
0.0
  0
VERTEX
  5
39C
  8
0
  6
CONTINUOUS
 62
     7
 10
40.03676435563289
 20
-2.44268968598226
 30
0.0
  0
VERTEX
  5
39D
  8
0
  6
CONTINUOUS
 62
     7
 10
40.03678156359545
 20
-2.44469682593236
 30
0.0
  0
VERTEX
  5
39E
  8
0
  6
CONTINUOUS
 62
     7
 10
40.03679885211597
 20
-2.44670396517558
 30
0.0
  0
VERTEX
  5
39F
  8
0
  6
CONTINUOUS
 62
     7
 10
40.03681622851793
 20
-2.44871110364766
 30
0.0
  0
VERTEX
  5
3A0
  8
0
  6
CONTINUOUS
 62
     7
 10
40.03683370012476
 20
-2.45071824128435
 30
0.0
  0
VERTEX
  5
3A1
  8
0
  6
CONTINUOUS
 62
     7
 10
40.03685127425994
 20
-2.45272537802137
 30
0.0
  0
VERTEX
  5
3A2
  8
0
  6
CONTINUOUS
 62
     7
 10
40.03686895824691
 20
-2.45473251379447
 30
0.0
  0
VERTEX
  5
3A3
  8
0
  6
CONTINUOUS
 62
     7
 10
40.0368867594091
 20
-2.45673964853938
 30
0.0
  0
VERTEX
  5
3A4
  8
0
  6
CONTINUOUS
 62
     7
 10
40.03690468452554
 20
-2.45874678219619
 30
0.0
  0
VERTEX
  5
3A5
  8
0
  6
CONTINUOUS
 62
     7
 10
40.0369227349027
 20
-2.46075391474863
 30
0.0
  0
VERTEX
  5
3A6
  8
0
  6
CONTINUOUS
 62
     7
 10
40.03694090868473
 20
-2.46276104620563
 30
0.0
  0
VERTEX
  5
3A7
  8
0
  6
CONTINUOUS
 62
     7
 10
40.03695920397744
 20
-2.46476817657645
 30
0.0
  0
VERTEX
  5
3A8
  8
0
  6
CONTINUOUS
 62
     7
 10
40.0369776188866
 20
-2.46677530587035
 30
0.0
  0
VERTEX
  5
3A9
  8
0
  6
CONTINUOUS
 62
     7
 10
40.03699615151798
 20
-2.46878243409657
 30
0.0
  0
VERTEX
  5
3AA
  8
0
  6
CONTINUOUS
 62
     7
 10
40.03701479997739
 20
-2.47078956126438
 30
0.0
  0
VERTEX
  5
3AB
  8
0
  6
CONTINUOUS
 62
     7
 10
40.03703356237061
 20
-2.47279668738302
 30
0.0
  0
VERTEX
  5
3AC
  8
0
  6
CONTINUOUS
 62
     7
 10
40.0370524368034
 20
-2.47480381246174
 30
0.0
  0
VERTEX
  5
3AD
  8
0
  6
CONTINUOUS
 62
     7
 10
40.03707142138158
 20
-2.4768109365098
 30
0.0
  0
VERTEX
  5
3AE
  8
0
  6
CONTINUOUS
 62
     7
 10
40.03709051421092
 20
-2.47881805953645
 30
0.0
  0
VERTEX
  5
3AF
  8
0
  6
CONTINUOUS
 62
     7
 10
40.03710971339719
 20
-2.48082518155094
 30
0.0
  0
VERTEX
  5
3B0
  8
0
  6
CONTINUOUS
 62
     7
 10
40.03712901704619
 20
-2.48283230256253
 30
0.0
  0
VERTEX
  5
3B1
  8
0
  6
CONTINUOUS
 62
     7
 10
40.0371484232637
 20
-2.48483942258047
 30
0.0
  0
VERTEX
  5
3B2
  8
0
  6
CONTINUOUS
 62
     7
 10
40.03716793015551
 20
-2.48684654161401
 30
0.0
  0
VERTEX
  5
3B3
  8
0
  6
CONTINUOUS
 62
     7
 10
40.03718753582741
 20
-2.4888536596724
 30
0.0
  0
VERTEX
  5
3B4
  8
0
  6
CONTINUOUS
 62
     7
 10
40.03720723838516
 20
-2.4908607767649
 30
0.0
  0
VERTEX
  5
3B5
  8
0
  6
CONTINUOUS
 62
     7
 10
40.03722703629157
 20
-2.49286789289796
 30
0.0
  0
VERTEX
  5
3B6
  8
0
  6
CONTINUOUS
 62
     7
 10
40.03724693062766
 20
-2.49487500805752
 30
0.0
  0
VERTEX
  5
3B7
  8
0
  6
CONTINUOUS
 62
     7
 10
40.03726692364018
 20
-2.49688212222037
 30
0.0
  0
VERTEX
  5
3B8
  8
0
  6
CONTINUOUS
 62
     7
 10
40.03728701758116
 20
-2.49888923536328
 30
0.0
  0
VERTEX
  5
3B9
  8
0
  6
CONTINUOUS
 62
     7
 10
40.03730721470268
 20
-2.50089634746299
 30
0.0
  0
VERTEX
  5
3BA
  8
0
  6
CONTINUOUS
 62
     7
 10
40.03732751725678
 20
-2.50290345849627
 30
0.0
  0
VERTEX
  5
3BB
  8
0
  6
CONTINUOUS
 62
     7
 10
40.0373479274955
 20
-2.50491056843987
 30
0.0
  0
VERTEX
  5
3BC
  8
0
  6
CONTINUOUS
 62
     7
 10
40.03736844736095
 20
-2.50691767727242
 30
0.0
  0
VERTEX
  5
3BD
  8
0
  6
CONTINUOUS
 62
     7
 10
40.03738907763567
 20
-2.50892478497961
 30
0.0
  0
VERTEX
  5
3BE
  8
0
  6
CONTINUOUS
 62
     7
 10
40.03740981883101
 20
-2.51093189154873
 30
0.0
  0
VERTEX
  5
3BF
  8
0
  6
CONTINUOUS
 62
     7
 10
40.03743067145842
 20
-2.5129389969671
 30
0.0
  0
VERTEX
  5
3C0
  8
0
  6
CONTINUOUS
 62
     7
 10
40.03745163602927
 20
-2.51494610122204
 30
0.0
  0
VERTEX
  5
3C1
  8
0
  6
CONTINUOUS
 62
     7
 10
40.037472713055
 20
-2.51695320430085
 30
0.0
  0
VERTEX
  5
3C2
  8
0
  6
CONTINUOUS
 62
     7
 10
40.03749390304698
 20
-2.51896030619085
 30
0.0
  0
VERTEX
  5
3C3
  8
0
  6
CONTINUOUS
 62
     7
 10
40.03751520651775
 20
-2.52096740687934
 30
0.0
  0
VERTEX
  5
3C4
  8
0
  6
CONTINUOUS
 62
     7
 10
40.03753662401423
 20
-2.52297450635357
 30
0.0
  0
VERTEX
  5
3C5
  8
0
  6
CONTINUOUS
 62
     7
 10
40.03755815612323
 20
-2.52498160460071
 30
0.0
  0
VERTEX
  5
3C6
  8
0
  6
CONTINUOUS
 62
     7
 10
40.03757980343379
 20
-2.52698870160791
 30
0.0
  0
VERTEX
  5
3C7
  8
0
  6
CONTINUOUS
 62
     7
 10
40.03760156653492
 20
-2.52899579736234
 30
0.0
  0
VERTEX
  5
3C8
  8
0
  6
CONTINUOUS
 62
     7
 10
40.0376234460157
 20
-2.53100289185116
 30
0.0
  0
VERTEX
  5
3C9
  8
0
  6
CONTINUOUS
 62
     7
 10
40.03764544246513
 20
-2.53300998506151
 30
0.0
  0
VERTEX
  5
3CA
  8
0
  6
CONTINUOUS
 62
     7
 10
40.03766755647226
 20
-2.53501707698058
 30
0.0
  0
VERTEX
  5
3CB
  8
0
  6
CONTINUOUS
 62
     7
 10
40.0376897886261
 20
-2.53702416759552
 30
0.0
  0
VERTEX
  5
3CC
  8
0
  6
CONTINUOUS
 62
     7
 10
40.03771213949544
 20
-2.53903125689342
 30
0.0
  0
VERTEX
  5
3CD
  8
0
  6
CONTINUOUS
 62
     7
 10
40.03773460959521
 20
-2.54103834486122
 30
0.0
  0
VERTEX
  5
3CE
  8
0
  6
CONTINUOUS
 62
     7
 10
40.03775719943142
 20
-2.54304543148582
 30
0.0
  0
VERTEX
  5
3CF
  8
0
  6
CONTINUOUS
 62
     7
 10
40.03777990951004
 20
-2.54505251675414
 30
0.0
  0
VERTEX
  5
3D0
  8
0
  6
CONTINUOUS
 62
     7
 10
40.0378027403371
 20
-2.54705960065309
 30
0.0
  0
VERTEX
  5
3D1
  8
0
  6
CONTINUOUS
 62
     7
 10
40.03782569241856
 20
-2.54906668316956
 30
0.0
  0
VERTEX
  5
3D2
  8
0
  6
CONTINUOUS
 62
     7
 10
40.03784876626045
 20
-2.55107376429046
 30
0.0
  0
VERTEX
  5
3D3
  8
0
  6
CONTINUOUS
 62
     7
 10
40.03787196236875
 20
-2.55308084400271
 30
0.0
  0
VERTEX
  5
3D4
  8
0
  6
CONTINUOUS
 62
     7
 10
40.03789528124952
 20
-2.5550879222932
 30
0.0
  0
VERTEX
  5
3D5
  8
0
  6
CONTINUOUS
 62
     7
 10
40.03791872342505
 20
-2.55709499914845
 30
0.0
  0
VERTEX
  5
3D6
  8
0
  6
CONTINUOUS
 62
     7
 10
40.03794228945671
 20
-2.55910207455396
 30
0.0
  0
VERTEX
  5
3D7
  8
0
  6
CONTINUOUS
 62
     7
 10
40.03796597991161
 20
-2.56110914849513
 30
0.0
  0
VERTEX
  5
3D8
  8
0
  6
CONTINUOUS
 62
     7
 10
40.03798979535687
 20
-2.56311622095733
 30
0.0
  0
VERTEX
  5
3D9
  8
0
  6
CONTINUOUS
 62
     7
 10
40.03801373635961
 20
-2.56512329192594
 30
0.0
  0
VERTEX
  5
3DA
  8
0
  6
CONTINUOUS
 62
     7
 10
40.03803780348694
 20
-2.56713036138635
 30
0.0
  0
VERTEX
  5
3DB
  8
0
  6
CONTINUOUS
 62
     7
 10
40.03806199730597
 20
-2.56913742932393
 30
0.0
  0
VERTEX
  5
3DC
  8
0
  6
CONTINUOUS
 62
     7
 10
40.03808631838383
 20
-2.57114449572407
 30
0.0
  0
VERTEX
  5
3DD
  8
0
  6
CONTINUOUS
 62
     7
 10
40.03811076728762
 20
-2.57315156057214
 30
0.0
  0
VERTEX
  5
3DE
  8
0
  6
CONTINUOUS
 62
     7
 10
40.03813534458771
 20
-2.57515862385344
 30
0.0
  0
VERTEX
  5
3DF
  8
0
  6
CONTINUOUS
 62
     7
 10
40.0381600508985
 20
-2.57716568555208
 30
0.0
  0
VERTEX
  5
3E0
  8
0
  6
CONTINUOUS
 62
     7
 10
40.03818488686608
 20
-2.57917274565132
 30
0.0
  0
VERTEX
  5
3E1
  8
0
  6
CONTINUOUS
 62
     7
 10
40.03820985313728
 20
-2.5811798041344
 30
0.0
  0
VERTEX
  5
3E2
  8
0
  6
CONTINUOUS
 62
     7
 10
40.0382349503589
 20
-2.58318686098457
 30
0.0
  0
VERTEX
  5
3E3
  8
0
  6
CONTINUOUS
 62
     7
 10
40.03826017917775
 20
-2.58519391618506
 30
0.0
  0
VERTEX
  5
3E4
  8
0
  6
CONTINUOUS
 62
     7
 10
40.03828554024064
 20
-2.58720096971912
 30
0.0
  0
VERTEX
  5
3E5
  8
0
  6
CONTINUOUS
 62
     7
 10
40.03831103419439
 20
-2.58920802156999
 30
0.0
  0
VERTEX
  5
3E6
  8
0
  6
CONTINUOUS
 62
     7
 10
40.0383366616858
 20
-2.59121507172091
 30
0.0
  0
VERTEX
  5
3E7
  8
0
  6
CONTINUOUS
 62
     7
 10
40.03836242336169
 20
-2.59322212015513
 30
0.0
  0
VERTEX
  5
3E8
  8
0
  6
CONTINUOUS
 62
     7
 10
40.03838831987217
 20
-2.59522916685579
 30
0.0
  0
VERTEX
  5
3E9
  8
0
  6
CONTINUOUS
 62
     7
 10
40.03841435192474
 20
-2.59723621180457
 30
0.0
  0
VERTEX
  5
3EA
  8
0
  6
CONTINUOUS
 62
     7
 10
40.03844052027566
 20
-2.59924325498187
 30
0.0
  0
VERTEX
  5
3EB
  8
0
  6
CONTINUOUS
 62
     7
 10
40.03846682568268
 20
-2.60125029636805
 30
0.0
  0
VERTEX
  5
3EC
  8
0
  6
CONTINUOUS
 62
     7
 10
40.03849326890357
 20
-2.60325733594347
 30
0.0
  0
VERTEX
  5
3ED
  8
0
  6
CONTINUOUS
 62
     7
 10
40.03851985069612
 20
-2.6052643736885
 30
0.0
  0
VERTEX
  5
3EE
  8
0
  6
CONTINUOUS
 62
     7
 10
40.03854657181809
 20
-2.6072714095835
 30
0.0
  0
VERTEX
  5
3EF
  8
0
  6
CONTINUOUS
 62
     7
 10
40.03857343302725
 20
-2.60927844360883
 30
0.0
  0
VERTEX
  5
3F0
  8
0
  6
CONTINUOUS
 62
     7
 10
40.03860043508136
 20
-2.61128547574485
 30
0.0
  0
VERTEX
  5
3F1
  8
0
  6
CONTINUOUS
 62
     7
 10
40.03862757873821
 20
-2.61329250597193
 30
0.0
  0
VERTEX
  5
3F2
  8
0
  6
CONTINUOUS
 62
     7
 10
40.03865486475558
 20
-2.61529953427044
 30
0.0
  0
VERTEX
  5
3F3
  8
0
  6
CONTINUOUS
 62
     7
 10
40.03868229391812
 20
-2.61730656061998
 30
0.0
  0
VERTEX
  5
3F4
  8
0
  6
CONTINUOUS
 62
     7
 10
40.03870986710095
 20
-2.61931358499772
 30
0.0
  0
VERTEX
  5
3F5
  8
0
  6
CONTINUOUS
 62
     7
 10
40.03873758519811
 20
-2.62132060738025
 30
0.0
  0
VERTEX
  5
3F6
  8
0
  6
CONTINUOUS
 62
     7
 10
40.0387654491037
 20
-2.62332762774422
 30
0.0
  0
VERTEX
  5
3F7
  8
0
  6
CONTINUOUS
 62
     7
 10
40.03879345971177
 20
-2.62533464606623
 30
0.0
  0
VERTEX
  5
3F8
  8
0
  6
CONTINUOUS
 62
     7
 10
40.03882161791639
 20
-2.6273416623229
 30
0.0
  0
VERTEX
  5
3F9
  8
0
  6
CONTINUOUS
 62
     7
 10
40.03884992461164
 20
-2.62934867649086
 30
0.0
  0
VERTEX
  5
3FA
  8
0
  6
CONTINUOUS
 62
     7
 10
40.03887838069159
 20
-2.63135568854673
 30
0.0
  0
VERTEX
  5
3FB
  8
0
  6
CONTINUOUS
 62
     7
 10
40.03890698705029
 20
-2.63336269846712
 30
0.0
  0
VERTEX
  5
3FC
  8
0
  6
CONTINUOUS
 62
     7
 10
40.03893574458183
 20
-2.63536970622866
 30
0.0
  0
VERTEX
  5
3FD
  8
0
  6
CONTINUOUS
 62
     7
 10
40.03896465418043
 20
-2.63737671180796
 30
0.0
  0
VERTEX
  5
3FE
  8
0
  6
CONTINUOUS
 62
     7
 10
40.03899371678592
 20
-2.63938371518031
 30
0.0
  0
VERTEX
  5
3FF
  8
0
  6
CONTINUOUS
 62
     7
 10
40.03902293344505
 20
-2.6413907163179
 30
0.0
  0
VERTEX
  5
400
  8
0
  6
CONTINUOUS
 62
     7
 10
40.03905230521993
 20
-2.64339771519247
 30
0.0
  0
VERTEX
  5
401
  8
0
  6
CONTINUOUS
 62
     7
 10
40.03908183317262
 20
-2.64540471177575
 30
0.0
  0
VERTEX
  5
402
  8
0
  6
CONTINUOUS
 62
     7
 10
40.03911151836522
 20
-2.64741170603949
 30
0.0
  0
VERTEX
  5
403
  8
0
  6
CONTINUOUS
 62
     7
 10
40.03914136185983
 20
-2.64941869795543
 30
0.0
  0
VERTEX
  5
404
  8
0
  6
CONTINUOUS
 62
     7
 10
40.03917136471851
 20
-2.65142568749529
 30
0.0
  0
VERTEX
  5
405
  8
0
  6
CONTINUOUS
 62
     7
 10
40.03920152800338
 20
-2.65343267463083
 30
0.0
  0
VERTEX
  5
406
  8
0
  6
CONTINUOUS
 62
     7
 10
40.03923185277651
 20
-2.65543965933379
 30
0.0
  0
VERTEX
  5
407
  8
0
  6
CONTINUOUS
 62
     7
 10
40.0392623401
 20
-2.65744664157589
 30
0.0
  0
VERTEX
  5
408
  8
0
  6
CONTINUOUS
 62
     7
 10
40.03929299103591
 20
-2.65945362132889
 30
0.0
  0
VERTEX
  5
409
  8
0
  6
CONTINUOUS
 62
     7
 10
40.03932380668173
 20
-2.66146059856343
 30
0.0
  0
VERTEX
  5
40A
  8
0
  6
CONTINUOUS
 62
     7
 10
40.03935478827394
 20
-2.66346757324588
 30
0.0
  0
VERTEX
  5
40B
  8
0
  6
CONTINUOUS
 62
     7
 10
40.0393859370832
 20
-2.66547454534154
 30
0.0
  0
VERTEX
  5
40C
  8
0
  6
CONTINUOUS
 62
     7
 10
40.03941725438014
 20
-2.66748151481574
 30
0.0
  0
VERTEX
  5
40D
  8
0
  6
CONTINUOUS
 62
     7
 10
40.03944874143545
 20
-2.66948848163379
 30
0.0
  0
VERTEX
  5
40E
  8
0
  6
CONTINUOUS
 62
     7
 10
40.03948039951975
 20
-2.67149544576099
 30
0.0
  0
VERTEX
  5
40F
  8
0
  6
CONTINUOUS
 62
     7
 10
40.03951222990371
 20
-2.67350240716267
 30
0.0
  0
VERTEX
  5
410
  8
0
  6
CONTINUOUS
 62
     7
 10
40.03954423385798
 20
-2.67550936580414
 30
0.0
  0
VERTEX
  5
411
  8
0
  6
CONTINUOUS
 62
     7
 10
40.03957641265322
 20
-2.6775163216507
 30
0.0
  0
VERTEX
  5
412
  8
0
  6
CONTINUOUS
 62
     7
 10
40.03960876756006
 20
-2.67952327466768
 30
0.0
  0
VERTEX
  5
413
  8
0
  6
CONTINUOUS
 62
     7
 10
40.03964129984917
 20
-2.68153022482038
 30
0.0
  0
VERTEX
  5
414
  8
0
  6
CONTINUOUS
 62
     7
 10
40.03967401080072
 20
-2.68353717207382
 30
0.0
  0
VERTEX
  5
415
  8
0
  6
CONTINUOUS
 62
     7
 10
40.03970690183673
 20
-2.68554411638835
 30
0.0
  0
VERTEX
  5
416
  8
0
  6
CONTINUOUS
 62
     7
 10
40.03973997448828
 20
-2.68755105772081
 30
0.0
  0
VERTEX
  5
417
  8
0
  6
CONTINUOUS
 62
     7
 10
40.03977323028923
 20
-2.68955799602791
 30
0.0
  0
VERTEX
  5
418
  8
0
  6
CONTINUOUS
 62
     7
 10
40.03980667077341
 20
-2.69156493126639
 30
0.0
  0
VERTEX
  5
419
  8
0
  6
CONTINUOUS
 62
     7
 10
40.03984029747469
 20
-2.69357186339296
 30
0.0
  0
VERTEX
  5
41A
  8
0
  6
CONTINUOUS
 62
     7
 10
40.03987411192692
 20
-2.69557879236436
 30
0.0
  0
VERTEX
  5
41B
  8
0
  6
CONTINUOUS
 62
     7
 10
40.03990811566394
 20
-2.6975857181373
 30
0.0
  0
VERTEX
  5
41C
  8
0
  6
CONTINUOUS
 62
     7
 10
40.03994231021963
 20
-2.69959264066853
 30
0.0
  0
VERTEX
  5
41D
  8
0
  6
CONTINUOUS
 62
     7
 10
40.03997669712782
 20
-2.70159955991475
 30
0.0
  0
VERTEX
  5
41E
  8
0
  6
CONTINUOUS
 62
     7
 10
40.04001127792237
 20
-2.7036064758327
 30
0.0
  0
VERTEX
  5
41F
  8
0
  6
CONTINUOUS
 62
     7
 10
40.04004605413714
 20
-2.70561338837911
 30
0.0
  0
VERTEX
  5
420
  8
0
  6
CONTINUOUS
 62
     7
 10
40.04008102736891
 20
-2.70762029750852
 30
0.0
  0
VERTEX
  5
421
  8
0
  6
CONTINUOUS
 62
     7
 10
40.04011619943911
 20
-2.70962720316774
 30
0.0
  0
VERTEX
  5
422
  8
0
  6
CONTINUOUS
 62
     7
 10
40.04015157221923
 20
-2.71163410530183
 30
0.0
  0
VERTEX
  5
423
  8
0
  6
CONTINUOUS
 62
     7
 10
40.0401871475808
 20
-2.71364100385585
 30
0.0
  0
VERTEX
  5
424
  8
0
  6
CONTINUOUS
 62
     7
 10
40.0402229273953
 20
-2.71564789877487
 30
0.0
  0
VERTEX
  5
425
  8
0
  6
CONTINUOUS
 62
     7
 10
40.04025891353427
 20
-2.71765479000396
 30
0.0
  0
VERTEX
  5
426
  8
0
  6
CONTINUOUS
 62
     7
 10
40.04029510786918
 20
-2.71966167748818
 30
0.0
  0
VERTEX
  5
427
  8
0
  6
CONTINUOUS
 62
     7
 10
40.04033151227157
 20
-2.7216685611726
 30
0.0
  0
VERTEX
  5
428
  8
0
  6
CONTINUOUS
 62
     7
 10
40.04036812861294
 20
-2.72367544100228
 30
0.0
  0
VERTEX
  5
429
  8
0
  6
CONTINUOUS
 62
     7
 10
40.0404049587648
 20
-2.7256823169223
 30
0.0
  0
VERTEX
  5
42A
  8
0
  6
CONTINUOUS
 62
     7
 10
40.04044200459865
 20
-2.72768918887771
 30
0.0
  0
VERTEX
  5
42B
  8
0
  6
CONTINUOUS
 62
     7
 10
40.04047926799035
 20
-2.72969605681343
 30
0.0
  0
VERTEX
  5
42C
  8
0
  6
CONTINUOUS
 62
     7
 10
40.04051675099628
 20
-2.73170292066777
 30
0.0
  0
VERTEX
  5
42D
  8
0
  6
CONTINUOUS
 62
     7
 10
40.04055445591418
 20
-2.73370978037023
 30
0.0
  0
VERTEX
  5
42E
  8
0
  6
CONTINUOUS
 62
     7
 10
40.04059238505863
 20
-2.73571663584969
 30
0.0
  0
VERTEX
  5
42F
  8
0
  6
CONTINUOUS
 62
     7
 10
40.04063054074424
 20
-2.73772348703503
 30
0.0
  0
VERTEX
  5
430
  8
0
  6
CONTINUOUS
 62
     7
 10
40.04066892528559
 20
-2.73973033385515
 30
0.0
  0
VERTEX
  5
431
  8
0
  6
CONTINUOUS
 62
     7
 10
40.04070754099727
 20
-2.74173717623891
 30
0.0
  0
VERTEX
  5
432
  8
0
  6
CONTINUOUS
 62
     7
 10
40.04074639019387
 20
-2.74374401411522
 30
0.0
  0
VERTEX
  5
433
  8
0
  6
CONTINUOUS
 62
     7
 10
40.04078547518998
 20
-2.74575084741294
 30
0.0
  0
VERTEX
  5
434
  8
0
  6
CONTINUOUS
 62
     7
 10
40.04082479830019
 20
-2.74775767606097
 30
0.0
  0
VERTEX
  5
435
  8
0
  6
CONTINUOUS
 62
     7
 10
40.0408643618391
 20
-2.74976449998819
 30
0.0
  0
VERTEX
  5
436
  8
0
  6
CONTINUOUS
 62
     7
 10
40.04090416812128
 20
-2.75177131912348
 30
0.0
  0
VERTEX
  5
437
  8
0
  6
CONTINUOUS
 62
     7
 10
40.04094421949861
 20
-2.75377813339428
 30
0.0
  0
VERTEX
  5
438
  8
0
  6
CONTINUOUS
 62
     7
 10
40.04098451867615
 20
-2.75578494271432
 30
0.0
  0
VERTEX
  5
439
  8
0
  6
CONTINUOUS
 62
     7
 10
40.04102506855371
 20
-2.75779174698979
 30
0.0
  0
VERTEX
  5
43A
  8
0
  6
CONTINUOUS
 62
     7
 10
40.04106587203313
 20
-2.7597985461268
 30
0.0
  0
VERTEX
  5
43B
  8
0
  6
CONTINUOUS
 62
     7
 10
40.04110693201624
 20
-2.76180534003143
 30
0.0
  0
VERTEX
  5
43C
  8
0
  6
CONTINUOUS
 62
     7
 10
40.04114825140491
 20
-2.7638121286098
 30
0.0
  0
VERTEX
  5
43D
  8
0
  6
CONTINUOUS
 62
     7
 10
40.04118983310097
 20
-2.76581891176801
 30
0.0
  0
VERTEX
  5
43E
  8
0
  6
CONTINUOUS
 62
     7
 10
40.04123168000626
 20
-2.76782568941215
 30
0.0
  0
VERTEX
  5
43F
  8
0
  6
CONTINUOUS
 62
     7
 10
40.04127379502263
 20
-2.76983246144834
 30
0.0
  0
VERTEX
  5
440
  8
0
  6
CONTINUOUS
 62
     7
 10
40.04131618105194
 20
-2.77183922778267
 30
0.0
  0
VERTEX
  5
441
  8
0
  6
CONTINUOUS
 62
     7
 10
40.041358840996
 20
-2.77384598832125
 30
0.0
  0
VERTEX
  5
442
  8
0
  6
CONTINUOUS
 62
     7
 10
40.0414017777569
 20
-2.77585274297016
 30
0.0
  0
VERTEX
  5
443
  8
0
  6
CONTINUOUS
 62
     7
 10
40.04144499442587
 20
-2.77785949162778
 30
0.0
  0
VERTEX
  5
444
  8
0
  6
CONTINUOUS
 62
     7
 10
40.04148849462905
 20
-2.77986623417055
 30
0.0
  0
VERTEX
  5
445
  8
0
  6
CONTINUOUS
 62
     7
 10
40.04153228208653
 20
-2.78187297047112
 30
0.0
  0
VERTEX
  5
446
  8
0
  6
CONTINUOUS
 62
     7
 10
40.04157636051838
 20
-2.7838797004021
 30
0.0
  0
VERTEX
  5
447
  8
0
  6
CONTINUOUS
 62
     7
 10
40.04162073364469
 20
-2.78588642383613
 30
0.0
  0
VERTEX
  5
448
  8
0
  6
CONTINUOUS
 62
     7
 10
40.04166540518553
 20
-2.78789314064583
 30
0.0
  0
VERTEX
  5
449
  8
0
  6
CONTINUOUS
 62
     7
 10
40.04171037886096
 20
-2.78989985070383
 30
0.0
  0
VERTEX
  5
44A
  8
0
  6
CONTINUOUS
 62
     7
 10
40.04175565839107
 20
-2.79190655388275
 30
0.0
  0
VERTEX
  5
44B
  8
0
  6
CONTINUOUS
 62
     7
 10
40.04180124749593
 20
-2.79391325005523
 30
0.0
  0
VERTEX
  5
44C
  8
0
  6
CONTINUOUS
 62
     7
 10
40.04184714989562
 20
-2.79591993909389
 30
0.0
  0
VERTEX
  5
44D
  8
0
  6
CONTINUOUS
 62
     7
 10
40.0418933693102
 20
-2.79792662087135
 30
0.0
  0
VERTEX
  5
44E
  8
0
  6
CONTINUOUS
 62
     7
 10
40.04193990950611
 20
-2.79993329525818
 30
0.0
  0
VERTEX
  5
44F
  8
0
  6
CONTINUOUS
 62
     7
 10
40.04198677485233
 20
-2.80193996209808
 30
0.0
  0
VERTEX
  5
450
  8
0
  6
CONTINUOUS
 62
     7
 10
40.04203397013924
 20
-2.80394662121593
 30
0.0
  0
VERTEX
  5
451
  8
0
  6
CONTINUOUS
 62
     7
 10
40.04208150016592
 20
-2.80595327243627
 30
0.0
  0
VERTEX
  5
452
  8
0
  6
CONTINUOUS
 62
     7
 10
40.04212936973141
 20
-2.8079599155836
 30
0.0
  0
VERTEX
  5
453
  8
0
  6
CONTINUOUS
 62
     7
 10
40.04217758363477
 20
-2.80996655048245
 30
0.0
  0
VERTEX
  5
454
  8
0
  6
CONTINUOUS
 62
     7
 10
40.04222614667504
 20
-2.81197317695732
 30
0.0
  0
VERTEX
  5
455
  8
0
  6
CONTINUOUS
 62
     7
 10
40.04227506365128
 20
-2.81397979483275
 30
0.0
  0
VERTEX
  5
456
  8
0
  6
CONTINUOUS
 62
     7
 10
40.04232433936256
 20
-2.81598640393323
 30
0.0
  0
VERTEX
  5
457
  8
0
  6
CONTINUOUS
 62
     7
 10
40.04237397860789
 20
-2.8179930040833
 30
0.0
  0
VERTEX
  5
458
  8
0
  6
CONTINUOUS
 62
     7
 10
40.04242398618636
 20
-2.81999959510747
 30
0.0
  0
VERTEX
  5
459
  8
0
  6
CONTINUOUS
 62
     7
 10
40.04247436691034
 20
-2.82200617682965
 30
0.0
  0
VERTEX
  5
45A
  8
0
  6
CONTINUOUS
 62
     7
 10
40.04252512628342
 20
-2.82401274904278
 30
0.0
  0
VERTEX
  5
45B
  8
0
  6
CONTINUOUS
 62
     7
 10
40.04257627082224
 20
-2.82601931149438
 30
0.0
  0
VERTEX
  5
45C
  8
0
  6
CONTINUOUS
 62
     7
 10
40.04262780712413
 20
-2.82802586392835
 30
0.0
  0
VERTEX
  5
45D
  8
0
  6
CONTINUOUS
 62
     7
 10
40.04267974178644
 20
-2.83003240608859
 30
0.0
  0
VERTEX
  5
45E
  8
0
  6
CONTINUOUS
 62
     7
 10
40.04273208140647
 20
-2.832038937719
 30
0.0
  0
VERTEX
  5
45F
  8
0
  6
CONTINUOUS
 62
     7
 10
40.04278483258155
 20
-2.83404545856349
 30
0.0
  0
VERTEX
  5
460
  8
0
  6
CONTINUOUS
 62
     7
 10
40.042838001909
 20
-2.83605196836594
 30
0.0
  0
VERTEX
  5
461
  8
0
  6
CONTINUOUS
 62
     7
 10
40.04289159598616
 20
-2.83805846687028
 30
0.0
  0
VERTEX
  5
462
  8
0
  6
CONTINUOUS
 62
     7
 10
40.04294562141036
 20
-2.84006495382039
 30
0.0
  0
VERTEX
  5
463
  8
0
  6
CONTINUOUS
 62
     7
 10
40.0430000847789
 20
-2.84207142896018
 30
0.0
  0
VERTEX
  5
464
  8
0
  6
CONTINUOUS
 62
     7
 10
40.04305499270905
 20
-2.84407789203262
 30
0.0
  0
VERTEX
  5
465
  8
0
  6
CONTINUOUS
 62
     7
 10
40.04311035294032
 20
-2.84608434272819
 30
0.0
  0
VERTEX
  5
466
  8
0
  6
CONTINUOUS
 62
     7
 10
40.04316617491157
 20
-2.84809078065787
 30
0.0
  0
VERTEX
  5
467
  8
0
  6
CONTINUOUS
 62
     7
 10
40.0432224682032
 20
-2.85009720542606
 30
0.0
  0
VERTEX
  5
468
  8
0
  6
CONTINUOUS
 62
     7
 10
40.04327924239561
 20
-2.85210361663711
 30
0.0
  0
VERTEX
  5
469
  8
0
  6
CONTINUOUS
 62
     7
 10
40.04333650706921
 20
-2.85411001389541
 30
0.0
  0
VERTEX
  5
46A
  8
0
  6
CONTINUOUS
 62
     7
 10
40.04339427180439
 20
-2.85611639680534
 30
0.0
  0
VERTEX
  5
46B
  8
0
  6
CONTINUOUS
 62
     7
 10
40.04345254618155
 20
-2.85812276497126
 30
0.0
  0
VERTEX
  5
46C
  8
0
  6
CONTINUOUS
 62
     7
 10
40.04351133978111
 20
-2.86012911799755
 30
0.0
  0
VERTEX
  5
46D
  8
0
  6
CONTINUOUS
 62
     7
 10
40.04357066218346
 20
-2.86213545548859
 30
0.0
  0
VERTEX
  5
46E
  8
0
  6
CONTINUOUS
 62
     7
 10
40.043630522969
 20
-2.86414177704875
 30
0.0
  0
VERTEX
  5
46F
  8
0
  6
CONTINUOUS
 62
     7
 10
40.04369093200934
 20
-2.86614808226638
 30
0.0
  0
VERTEX
  5
470
  8
0
  6
CONTINUOUS
 62
     7
 10
40.043751901675
 20
-2.86815437059234
 30
0.0
  0
VERTEX
  5
471
  8
0
  6
CONTINUOUS
 62
     7
 10
40.0438134456084
 20
-2.87016064140748
 30
0.0
  0
VERTEX
  5
472
  8
0
  6
CONTINUOUS
 62
     7
 10
40.04387557746198
 20
-2.87216689409213
 30
0.0
  0
VERTEX
  5
473
  8
0
  6
CONTINUOUS
 62
     7
 10
40.04393831088823
 20
-2.87417312802659
 30
0.0
  0
VERTEX
  5
474
  8
0
  6
CONTINUOUS
 62
     7
 10
40.0440016595396
 20
-2.87617934259119
 30
0.0
  0
VERTEX
  5
475
  8
0
  6
CONTINUOUS
 62
     7
 10
40.04406563706856
 20
-2.87818553716622
 30
0.0
  0
VERTEX
  5
476
  8
0
  6
CONTINUOUS
 62
     7
 10
40.04413025712757
 20
-2.88019171113201
 30
0.0
  0
VERTEX
  5
477
  8
0
  6
CONTINUOUS
 62
     7
 10
40.04419553336911
 20
-2.88219786386886
 30
0.0
  0
VERTEX
  5
478
  8
0
  6
CONTINUOUS
 62
     7
 10
40.04426147944562
 20
-2.88420399475709
 30
0.0
  0
VERTEX
  5
479
  8
0
  6
CONTINUOUS
 62
     7
 10
40.04432810982275
 20
-2.88621010313331
 30
0.0
  0
VERTEX
  5
47A
  8
0
  6
CONTINUOUS
 62
     7
 10
40.04439544347002
 20
-2.88821618809215
 30
0.0
  0
VERTEX
  5
47B
  8
0
  6
CONTINUOUS
 62
     7
 10
40.04446350090742
 20
-2.89022224864487
 30
0.0
  0
VERTEX
  5
47C
  8
0
  6
CONTINUOUS
 62
     7
 10
40.04453230265644
 20
-2.89222828380271
 30
0.0
  0
VERTEX
  5
47D
  8
0
  6
CONTINUOUS
 62
     7
 10
40.04460186923854
 20
-2.89423429257688
 30
0.0
  0
VERTEX
  5
47E
  8
0
  6
CONTINUOUS
 62
     7
 10
40.04467222117518
 20
-2.89624027397859
 30
0.0
  0
VERTEX
  5
47F
  8
0
  6
CONTINUOUS
 62
     7
 10
40.04474337898785
 20
-2.89824622701905
 30
0.0
  0
VERTEX
  5
480
  8
0
  6
CONTINUOUS
 62
     7
 10
40.04481536319797
 20
-2.90025215070949
 30
0.0
  0
VERTEX
  5
481
  8
0
  6
CONTINUOUS
 62
     7
 10
40.04488819432705
 20
-2.90225804406111
 30
0.0
  0
VERTEX
  5
482
  8
0
  6
CONTINUOUS
 62
     7
 10
40.04496189377903
 20
-2.90426390602354
 30
0.0
  0
VERTEX
  5
483
  8
0
  6
CONTINUOUS
 62
     7
 10
40.04503649021533
 20
-2.90626973503989
 30
0.0
  0
VERTEX
  5
484
  8
0
  6
CONTINUOUS
 62
     7
 10
40.04511201586187
 20
-2.90827552930451
 30
0.0
  0
VERTEX
  5
485
  8
0
  6
CONTINUOUS
 62
     7
 10
40.04518850296927
 20
-2.91028128701001
 30
0.0
  0
VERTEX
  5
486
  8
0
  6
CONTINUOUS
 62
     7
 10
40.04526598378814
 20
-2.91228700634901
 30
0.0
  0
VERTEX
  5
487
  8
0
  6
CONTINUOUS
 62
     7
 10
40.04534449056911
 20
-2.91429268551412
 30
0.0
  0
VERTEX
  5
488
  8
0
  6
CONTINUOUS
 62
     7
 10
40.04542405556279
 20
-2.91629832269795
 30
0.0
  0
VERTEX
  5
489
  8
0
  6
CONTINUOUS
 62
     7
 10
40.04550471101981
 20
-2.91830391609314
 30
0.0
  0
VERTEX
  5
48A
  8
0
  6
CONTINUOUS
 62
     7
 10
40.04558648938211
 20
-2.92030946388278
 30
0.0
  0
VERTEX
  5
48B
  8
0
  6
CONTINUOUS
 62
     7
 10
40.04566943099564
 20
-2.92231496385756
 30
0.0
  0
VERTEX
  5
48C
  8
0
  6
CONTINUOUS
 62
     7
 10
40.04575358675176
 20
-2.92432041328455
 30
0.0
  0
VERTEX
  5
48D
  8
0
  6
CONTINUOUS
 62
     7
 10
40.04583900827527
 20
-2.9263258093944
 30
0.0
  0
VERTEX
  5
48E
  8
0
  6
CONTINUOUS
 62
     7
 10
40.04592574719094
 20
-2.92833114941778
 30
0.0
  0
VERTEX
  5
48F
  8
0
  6
CONTINUOUS
 62
     7
 10
40.04601385512358
 20
-2.93033643058534
 30
0.0
  0
VERTEX
  5
490
  8
0
  6
CONTINUOUS
 62
     7
 10
40.04610338369796
 20
-2.93234165012775
 30
0.0
  0
VERTEX
  5
491
  8
0
  6
CONTINUOUS
 62
     7
 10
40.04619438453889
 20
-2.93434680527566
 30
0.0
  0
VERTEX
  5
492
  8
0
  6
CONTINUOUS
 62
     7
 10
40.04628691252713
 20
-2.93635189289076
 30
0.0
  0
VERTEX
  5
493
  8
0
  6
CONTINUOUS
 62
     7
 10
40.04638104894979
 20
-2.9383569068423
 30
0.0
  0
VERTEX
  5
494
  8
0
  6
CONTINUOUS
 62
     7
 10
40.04647688791243
 20
-2.94036183954693
 30
0.0
  0
VERTEX
  5
495
  8
0
  6
CONTINUOUS
 62
     7
 10
40.04657452360539
 20
-2.94236668341168
 30
0.0
  0
VERTEX
  5
496
  8
0
  6
CONTINUOUS
 62
     7
 10
40.046674050219
 20
-2.94437143084358
 30
0.0
  0
VERTEX
  5
497
  8
0
  6
CONTINUOUS
 62
     7
 10
40.04677556194363
 20
-2.94637607424967
 30
0.0
  0
VERTEX
  5
498
  8
0
  6
CONTINUOUS
 62
     7
 10
40.04687915296962
 20
-2.94838060603698
 30
0.0
  0
VERTEX
  5
499
  8
0
  6
CONTINUOUS
 62
     7
 10
40.04698492414114
 20
-2.95038501927859
 30
0.0
  0
VERTEX
  5
49A
  8
0
  6
CONTINUOUS
 62
     7
 10
40.04709300991033
 20
-2.95238931041179
 30
0.0
  0
VERTEX
  5
49B
  8
0
  6
CONTINUOUS
 62
     7
 10
40.04720355531586
 20
-2.95439347693355
 30
0.0
  0
VERTEX
  5
49C
  8
0
  6
CONTINUOUS
 62
     7
 10
40.04731670540036
 20
-2.95639751634128
 30
0.0
  0
VERTEX
  5
49D
  8
0
  6
CONTINUOUS
 62
     7
 10
40.04743261048702
 20
-2.95840142426141
 30
0.0
  0
VERTEX
  5
49E
  8
0
  6
CONTINUOUS
 62
     7
 10
40.04755150359173
 20
-2.96040516702183
 30
0.0
  0
VERTEX
  5
49F
  8
0
  6
CONTINUOUS
 62
     7
 10
40.04767368332371
 20
-2.96240868771028
 30
0.0
  0
VERTEX
  5
4A0
  8
0
  6
CONTINUOUS
 62
     7
 10
40.04779945009518
 20
-2.96441192877567
 30
0.0
  0
VERTEX
  5
4A1
  8
0
  6
CONTINUOUS
 62
     7
 10
40.04792910400429
 20
-2.96641483384188
 30
0.0
  0
VERTEX
  5
4A2
  8
0
  6
CONTINUOUS
 62
     7
 10
40.04806292843317
 20
-2.96841740906451
 30
0.0
  0
VERTEX
  5
4A3
  8
0
  6
CONTINUOUS
 62
     7
 10
40.04820118200946
 20
-2.97041975320131
 30
0.0
  0
VERTEX
  5
4A4
  8
0
  6
CONTINUOUS
 62
     7
 10
40.04834412136095
 20
-2.97242197249124
 30
0.0
  0
VERTEX
  5
4A5
  8
0
  6
CONTINUOUS
 62
     7
 10
40.04849201183407
 20
-2.97442416841056
 30
0.0
  0
VERTEX
  5
4A6
  8
0
  6
CONTINUOUS
 62
     7
 10
40.04864567599802
 20
-2.97642613804279
 30
0.0
  0
VERTEX
  5
4A7
  8
0
  6
CONTINUOUS
 62
     7
 10
40.0488068203195
 20
-2.97842719562701
 30
0.0
  0
VERTEX
  5
4A8
  8
0
  6
CONTINUOUS
 62
     7
 10
40.04897722971055
 20
-2.98042661255013
 30
0.0
  0
VERTEX
  5
4A9
  8
0
  6
CONTINUOUS
 62
     7
 10
40.04915855400824
 20
-2.98242379464641
 30
0.0
  0
VERTEX
  5
4AA
  8
0
  6
CONTINUOUS
 62
     7
 10
40.04935062815659
 20
-2.98441995421033
 30
0.0
  0
VERTEX
  5
4AB
  8
0
  6
CONTINUOUS
 62
     7
 10
40.04955198848317
 20
-2.9864175961188
 30
0.0
  0
VERTEX
  5
4AC
  8
0
  6
CONTINUOUS
 62
     7
 10
40.04976138676437
 20
-2.98841909737824
 30
0.0
  0
VERTEX
  5
4AD
  8
0
  6
CONTINUOUS
 62
     7
 10
40.04998857629683
 20
-2.99041979416335
 30
0.0
  0
VERTEX
  5
4AE
  8
0
  6
CONTINUOUS
 62
     7
 10
40.05025855614365
 20
-2.992405265554
 30
0.0
  0
VERTEX
  5
4AF
  8
0
  6
CONTINUOUS
 62
     7
 10
40.05059222148157
 20
-2.9943650169365
 30
0.0
  0
VERTEX
  5
4B0
  8
0
  6
CONTINUOUS
 62
     7
 10
40.05095319390848
 20
-2.9963394571021
 30
0.0
  0
VERTEX
  5
4B1
  8
0
  6
CONTINUOUS
 62
     7
 10
40.05133488876866
 20
-2.99835797704002
 30
0.0
  0
VERTEX
  5
4B2
  8
0
  6
CONTINUOUS
 62
     7
 10
40.05241475680411
 20
-2.99999999999977
 30
0.0
  0
SEQEND
  5
4B3
  8
0
  6
CONTINUOUS
 62
     7
  0
POLYLINE
  5
143
  8
0
  6
CONTINUOUS
 62
     7
 66
     1
 10
0.0
 20
0.0
 30
0.0
  0
VERTEX
  5
4B4
  8
0
  6
CONTINUOUS
 62
     7
 10
11.96340490446352
 20
-2.42261826174058
 30
0.0
  0
VERTEX
  5
4B5
  8
0
  6
CONTINUOUS
 62
     7
 10
11.96338898544837
 20
-2.42451976907033
 30
0.0
  0
VERTEX
  5
4B6
  8
0
  6
CONTINUOUS
 62
     7
 10
11.96337306018608
 20
-2.42642127634528
 30
0.0
  0
VERTEX
  5
4B7
  8
0
  6
CONTINUOUS
 62
     7
 10
11.96335712242951
 20
-2.42832278351065
 30
0.0
  0
VERTEX
  5
4B8
  8
0
  6
CONTINUOUS
 62
     7
 10
11.96334116593151
 20
-2.43022429051162
 30
0.0
  0
VERTEX
  5
4B9
  8
0
  6
CONTINUOUS
 62
     7
 10
11.96332518444494
 20
-2.4321257972934
 30
0.0
  0
VERTEX
  5
4BA
  8
0
  6
CONTINUOUS
 62
     7
 10
11.96330917172266
 20
-2.43402730380121
 30
0.0
  0
VERTEX
  5
4BB
  8
0
  6
CONTINUOUS
 62
     7
 10
11.96329312151753
 20
-2.43592880998023
 30
0.0
  0
VERTEX
  5
4BC
  8
0
  6
CONTINUOUS
 62
     7
 10
11.9632770275824
 20
-2.43783031577568
 30
0.0
  0
VERTEX
  5
4BD
  8
0
  6
CONTINUOUS
 62
     7
 10
11.96326088367014
 20
-2.43973182113276
 30
0.0
  0
VERTEX
  5
4BE
  8
0
  6
CONTINUOUS
 62
     7
 10
11.9632446835336
 20
-2.44163332599668
 30
0.0
  0
VERTEX
  5
4BF
  8
0
  6
CONTINUOUS
 62
     7
 10
11.96322842092564
 20
-2.44353483031262
 30
0.0
  0
VERTEX
  5
4C0
  8
0
  6
CONTINUOUS
 62
     7
 10
11.96321208959911
 20
-2.44543633402581
 30
0.0
  0
VERTEX
  5
4C1
  8
0
  6
CONTINUOUS
 62
     7
 10
11.96319568330688
 20
-2.44733783708144
 30
0.0
  0
VERTEX
  5
4C2
  8
0
  6
CONTINUOUS
 62
     7
 10
11.96317919580181
 20
-2.44923933942472
 30
0.0
  0
VERTEX
  5
4C3
  8
0
  6
CONTINUOUS
 62
     7
 10
11.96316262083674
 20
-2.45114084100085
 30
0.0
  0
VERTEX
  5
4C4
  8
0
  6
CONTINUOUS
 62
     7
 10
11.96314595216454
 20
-2.45304234175503
 30
0.0
  0
VERTEX
  5
4C5
  8
0
  6
CONTINUOUS
 62
     7
 10
11.96312918353807
 20
-2.45494384163247
 30
0.0
  0
VERTEX
  5
4C6
  8
0
  6
CONTINUOUS
 62
     7
 10
11.96311230871019
 20
-2.45684534057837
 30
0.0
  0
VERTEX
  5
4C7
  8
0
  6
CONTINUOUS
 62
     7
 10
11.96309532216305
 20
-2.45874683854375
 30
0.0
  0
VERTEX
  5
4C8
  8
0
  6
CONTINUOUS
 62
     7
 10
11.96307822338436
 20
-2.46064833551955
 30
0.0
  0
VERTEX
  5
4C9
  8
0
  6
CONTINUOUS
 62
     7
 10
11.96306101396321
 20
-2.46254983151344
 30
0.0
  0
VERTEX
  5
4CA
  8
0
  6
CONTINUOUS
 62
     7
 10
11.96304369549593
 20
-2.46445132653317
 30
0.0
  0
VERTEX
  5
4CB
  8
0
  6
CONTINUOUS
 62
     7
 10
11.96302626957882
 20
-2.46635282058649
 30
0.0
  0
VERTEX
  5
4CC
  8
0
  6
CONTINUOUS
 62
     7
 10
11.96300873780821
 20
-2.46825431368114
 30
0.0
  0
VERTEX
  5
4CD
  8
0
  6
CONTINUOUS
 62
     7
 10
11.96299110178041
 20
-2.47015580582486
 30
0.0
  0
VERTEX
  5
4CE
  8
0
  6
CONTINUOUS
 62
     7
 10
11.96297336309175
 20
-2.4720572970254
 30
0.0
  0
VERTEX
  5
4CF
  8
0
  6
CONTINUOUS
 62
     7
 10
11.96295552333853
 20
-2.47395878729051
 30
0.0
  0
VERTEX
  5
4D0
  8
0
  6
CONTINUOUS
 62
     7
 10
11.96293758411708
 20
-2.47586027662792
 30
0.0
  0
VERTEX
  5
4D1
  8
0
  6
CONTINUOUS
 62
     7
 10
11.96291954702371
 20
-2.47776176504538
 30
0.0
  0
VERTEX
  5
4D2
  8
0
  6
CONTINUOUS
 62
     7
 10
11.96290141365474
 20
-2.47966325255064
 30
0.0
  0
VERTEX
  5
4D3
  8
0
  6
CONTINUOUS
 62
     7
 10
11.9628831856065
 20
-2.48156473915144
 30
0.0
  0
VERTEX
  5
4D4
  8
0
  6
CONTINUOUS
 62
     7
 10
11.96286486447528
 20
-2.48346622485552
 30
0.0
  0
VERTEX
  5
4D5
  8
0
  6
CONTINUOUS
 62
     7
 10
11.96284645185743
 20
-2.48536770967063
 30
0.0
  0
VERTEX
  5
4D6
  8
0
  6
CONTINUOUS
 62
     7
 10
11.96282794934924
 20
-2.48726919360451
 30
0.0
  0
VERTEX
  5
4D7
  8
0
  6
CONTINUOUS
 62
     7
 10
11.96280935854704
 20
-2.48917067666491
 30
0.0
  0
VERTEX
  5
4D8
  8
0
  6
CONTINUOUS
 62
     7
 10
11.96279068104715
 20
-2.49107215885957
 30
0.0
  0
VERTEX
  5
4D9
  8
0
  6
CONTINUOUS
 62
     7
 10
11.96277191801615
 20
-2.49297364019287
 30
0.0
  0
VERTEX
  5
4DA
  8
0
  6
CONTINUOUS
 62
     7
 10
11.96275306831452
 20
-2.49487512065113
 30
0.0
  0
VERTEX
  5
4DB
  8
0
  6
CONTINUOUS
 62
     7
 10
11.96273413003247
 20
-2.49677660021465
 30
0.0
  0
VERTEX
  5
4DC
  8
0
  6
CONTINUOUS
 62
     7
 10
11.96271510125968
 20
-2.49867807886371
 30
0.0
  0
VERTEX
  5
4DD
  8
0
  6
CONTINUOUS
 62
     7
 10
11.96269598008581
 20
-2.50057955657859
 30
0.0
  0
VERTEX
  5
4DE
  8
0
  6
CONTINUOUS
 62
     7
 10
11.96267676460053
 20
-2.5024810333396
 30
0.0
  0
VERTEX
  5
4DF
  8
0
  6
CONTINUOUS
 62
     7
 10
11.96265745289351
 20
-2.504382509127
 30
0.0
  0
VERTEX
  5
4E0
  8
0
  6
CONTINUOUS
 62
     7
 10
11.96263804315637
 20
-2.50628398392172
 30
0.0
  0
VERTEX
  5
4E1
  8
0
  6
CONTINUOUS
 62
     7
 10
11.96261853448061
 20
-2.50818545771008
 30
0.0
  0
VERTEX
  5
4E2
  8
0
  6
CONTINUOUS
 62
     7
 10
11.96259892642631
 20
-2.51008693048127
 30
0.0
  0
VERTEX
  5
4E3
  8
0
  6
CONTINUOUS
 62
     7
 10
11.96257921855761
 20
-2.51198840222449
 30
0.0
  0
VERTEX
  5
4E4
  8
0
  6
CONTINUOUS
 62
     7
 10
11.96255941043866
 20
-2.51388987292893
 30
0.0
  0
VERTEX
  5
4E5
  8
0
  6
CONTINUOUS
 62
     7
 10
11.9625395016336
 20
-2.5157913425838
 30
0.0
  0
VERTEX
  5
4E6
  8
0
  6
CONTINUOUS
 62
     7
 10
11.96251949170655
 20
-2.5176928111783
 30
0.0
  0
VERTEX
  5
4E7
  8
0
  6
CONTINUOUS
 62
     7
 10
11.96249938022167
 20
-2.51959427870163
 30
0.0
  0
VERTEX
  5
4E8
  8
0
  6
CONTINUOUS
 62
     7
 10
11.96247916673861
 20
-2.52149574514298
 30
0.0
  0
VERTEX
  5
4E9
  8
0
  6
CONTINUOUS
 62
     7
 10
11.96245885077753
 20
-2.52339721049147
 30
0.0
  0
VERTEX
  5
4EA
  8
0
  6
CONTINUOUS
 62
     7
 10
11.96243843183801
 20
-2.52529867473619
 30
0.0
  0
VERTEX
  5
4EB
  8
0
  6
CONTINUOUS
 62
     7
 10
11.96241790941944
 20
-2.52720013786622
 30
0.0
  0
VERTEX
  5
4EC
  8
0
  6
CONTINUOUS
 62
     7
 10
11.96239728302122
 20
-2.52910159987065
 30
0.0
  0
VERTEX
  5
4ED
  8
0
  6
CONTINUOUS
 62
     7
 10
11.96237655214275
 20
-2.53100306073857
 30
0.0
  0
VERTEX
  5
4EE
  8
0
  6
CONTINUOUS
 62
     7
 10
11.96235571628344
 20
-2.53290452045906
 30
0.0
  0
VERTEX
  5
4EF
  8
0
  6
CONTINUOUS
 62
     7
 10
11.96233477494267
 20
-2.53480597902121
 30
0.0
  0
VERTEX
  5
4F0
  8
0
  6
CONTINUOUS
 62
     7
 10
11.96231372761985
 20
-2.5367074364141
 30
0.0
  0
VERTEX
  5
4F1
  8
0
  6
CONTINUOUS
 62
     7
 10
11.96229257382532
 20
-2.53860889262678
 30
0.0
  0
VERTEX
  5
4F2
  8
0
  6
CONTINUOUS
 62
     7
 10
11.96227131311627
 20
-2.54051034764817
 30
0.0
  0
VERTEX
  5
4F3
  8
0
  6
CONTINUOUS
 62
     7
 10
11.9622499450624
 20
-2.54241180146711
 30
0.0
  0
VERTEX
  5
4F4
  8
0
  6
CONTINUOUS
 62
     7
 10
11.96222846923341
 20
-2.5443132540725
 30
0.0
  0
VERTEX
  5
4F5
  8
0
  6
CONTINUOUS
 62
     7
 10
11.96220688519902
 20
-2.54621470545318
 30
0.0
  0
VERTEX
  5
4F6
  8
0
  6
CONTINUOUS
 62
     7
 10
11.96218519252892
 20
-2.54811615559803
 30
0.0
  0
VERTEX
  5
4F7
  8
0
  6
CONTINUOUS
 62
     7
 10
11.96216339079283
 20
-2.55001760449591
 30
0.0
  0
VERTEX
  5
4F8
  8
0
  6
CONTINUOUS
 62
     7
 10
11.96214147956045
 20
-2.55191905213569
 30
0.0
  0
VERTEX
  5
4F9
  8
0
  6
CONTINUOUS
 62
     7
 10
11.96211945840148
 20
-2.55382049850623
 30
0.0
  0
VERTEX
  5
4FA
  8
0
  6
CONTINUOUS
 62
     7
 10
11.96209732688444
 20
-2.55572194359638
 30
0.0
  0
VERTEX
  5
4FB
  8
0
  6
CONTINUOUS
 62
     7
 10
11.96207508455245
 20
-2.55762338739434
 30
0.0
  0
VERTEX
  5
4FC
  8
0
  6
CONTINUOUS
 62
     7
 10
11.96205273092428
 20
-2.5595248298877
 30
0.0
  0
VERTEX
  5
4FD
  8
0
  6
CONTINUOUS
 62
     7
 10
11.96203026551776
 20
-2.56142627106402
 30
0.0
  0
VERTEX
  5
4FE
  8
0
  6
CONTINUOUS
 62
     7
 10
11.9620076878507
 20
-2.56332771091089
 30
0.0
  0
VERTEX
  5
4FF
  8
0
  6
CONTINUOUS
 62
     7
 10
11.96198499744089
 20
-2.56522914941586
 30
0.0
  0
VERTEX
  5
500
  8
0
  6
CONTINUOUS
 62
     7
 10
11.96196219380616
 20
-2.56713058656651
 30
0.0
  0
VERTEX
  5
501
  8
0
  6
CONTINUOUS
 62
     7
 10
11.96193927646431
 20
-2.5690320223504
 30
0.0
  0
VERTEX
  5
502
  8
0
  6
CONTINUOUS
 62
     7
 10
11.96191624493316
 20
-2.57093345675512
 30
0.0
  0
VERTEX
  5
503
  8
0
  6
CONTINUOUS
 62
     7
 10
11.96189309873051
 20
-2.57283488976822
 30
0.0
  0
VERTEX
  5
504
  8
0
  6
CONTINUOUS
 62
     7
 10
11.96186983737323
 20
-2.57473632137725
 30
0.0
  0
VERTEX
  5
505
  8
0
  6
CONTINUOUS
 62
     7
 10
11.96184646034839
 20
-2.57663775156896
 30
0.0
  0
VERTEX
  5
506
  8
0
  6
CONTINUOUS
 62
     7
 10
11.96182296710804
 20
-2.57853918032914
 30
0.0
  0
VERTEX
  5
507
  8
0
  6
CONTINUOUS
 62
     7
 10
11.9617993571022
 20
-2.58044060764356
 30
0.0
  0
VERTEX
  5
508
  8
0
  6
CONTINUOUS
 62
     7
 10
11.9617756297809
 20
-2.58234203349796
 30
0.0
  0
VERTEX
  5
509
  8
0
  6
CONTINUOUS
 62
     7
 10
11.96175178459418
 20
-2.58424345787809
 30
0.0
  0
VERTEX
  5
50A
  8
0
  6
CONTINUOUS
 62
     7
 10
11.96172782099206
 20
-2.58614488076971
 30
0.0
  0
VERTEX
  5
50B
  8
0
  6
CONTINUOUS
 62
     7
 10
11.96170373842458
 20
-2.58804630215856
 30
0.0
  0
VERTEX
  5
50C
  8
0
  6
CONTINUOUS
 62
     7
 10
11.96167953634177
 20
-2.58994772203039
 30
0.0
  0
VERTEX
  5
50D
  8
0
  6
CONTINUOUS
 62
     7
 10
11.96165521419366
 20
-2.59184914037096
 30
0.0
  0
VERTEX
  5
50E
  8
0
  6
CONTINUOUS
 62
     7
 10
11.96163077143027
 20
-2.59375055716602
 30
0.0
  0
VERTEX
  5
50F
  8
0
  6
CONTINUOUS
 62
     7
 10
11.96160620749308
 20
-2.59565197240109
 30
0.0
  0
VERTEX
  5
510
  8
0
  6
CONTINUOUS
 62
     7
 10
11.96158152176354
 20
-2.59755338606016
 30
0.0
  0
VERTEX
  5
511
  8
0
  6
CONTINUOUS
 62
     7
 10
11.96155671359743
 20
-2.59945479812651
 30
0.0
  0
VERTEX
  5
512
  8
0
  6
CONTINUOUS
 62
     7
 10
11.96153178235045
 20
-2.60135620858346
 30
0.0
  0
VERTEX
  5
513
  8
0
  6
CONTINUOUS
 62
     7
 10
11.96150672737828
 20
-2.60325761741431
 30
0.0
  0
VERTEX
  5
514
  8
0
  6
CONTINUOUS
 62
     7
 10
11.96148154803661
 20
-2.60515902460236
 30
0.0
  0
VERTEX
  5
515
  8
0
  6
CONTINUOUS
 62
     7
 10
11.96145624368113
 20
-2.60706043013091
 30
0.0
  0
VERTEX
  5
516
  8
0
  6
CONTINUOUS
 62
     7
 10
11.96143081366752
 20
-2.60896183398327
 30
0.0
  0
VERTEX
  5
517
  8
0
  6
CONTINUOUS
 62
     7
 10
11.96140525735148
 20
-2.61086323614275
 30
0.0
  0
VERTEX
  5
518
  8
0
  6
CONTINUOUS
 62
     7
 10
11.96137957408868
 20
-2.61276463659263
 30
0.0
  0
VERTEX
  5
519
  8
0
  6
CONTINUOUS
 62
     7
 10
11.96135376323483
 20
-2.61466603531623
 30
0.0
  0
VERTEX
  5
51A
  8
0
  6
CONTINUOUS
 62
     7
 10
11.96132782413814
 20
-2.61656743229665
 30
0.0
  0
VERTEX
  5
51B
  8
0
  6
CONTINUOUS
 62
     7
 10
11.96130175607698
 20
-2.61846882751506
 30
0.0
  0
VERTEX
  5
51C
  8
0
  6
CONTINUOUS
 62
     7
 10
11.96127555829154
 20
-2.6203702209516
 30
0.0
  0
VERTEX
  5
51D
  8
0
  6
CONTINUOUS
 62
     7
 10
11.9612492300216
 20
-2.62227161258638
 30
0.0
  0
VERTEX
  5
51E
  8
0
  6
CONTINUOUS
 62
     7
 10
11.96122277050697
 20
-2.62417300239953
 30
0.0
  0
VERTEX
  5
51F
  8
0
  6
CONTINUOUS
 62
     7
 10
11.96119617898744
 20
-2.62607439037117
 30
0.0
  0
VERTEX
  5
520
  8
0
  6
CONTINUOUS
 62
     7
 10
11.96116945470281
 20
-2.62797577648142
 30
0.0
  0
VERTEX
  5
521
  8
0
  6
CONTINUOUS
 62
     7
 10
11.96114259689287
 20
-2.62987716071039
 30
0.0
  0
VERTEX
  5
522
  8
0
  6
CONTINUOUS
 62
     7
 10
11.96111560479742
 20
-2.63177854303822
 30
0.0
  0
VERTEX
  5
523
  8
0
  6
CONTINUOUS
 62
     7
 10
11.96108847765625
 20
-2.63367992344501
 30
0.0
  0
VERTEX
  5
524
  8
0
  6
CONTINUOUS
 62
     7
 10
11.96106121470917
 20
-2.6355813019109
 30
0.0
  0
VERTEX
  5
525
  8
0
  6
CONTINUOUS
 62
     7
 10
11.9610338151956
 20
-2.63748267841599
 30
0.0
  0
VERTEX
  5
526
  8
0
  6
CONTINUOUS
 62
     7
 10
11.96100627831016
 20
-2.63938405293908
 30
0.0
  0
VERTEX
  5
527
  8
0
  6
CONTINUOUS
 62
     7
 10
11.96097860315992
 20
-2.64128542545645
 30
0.0
  0
VERTEX
  5
528
  8
0
  6
CONTINUOUS
 62
     7
 10
11.9609507888418
 20
-2.64318679594407
 30
0.0
  0
VERTEX
  5
529
  8
0
  6
CONTINUOUS
 62
     7
 10
11.96092283445274
 20
-2.6450881643779
 30
0.0
  0
VERTEX
  5
52A
  8
0
  6
CONTINUOUS
 62
     7
 10
11.96089473908969
 20
-2.64698953073392
 30
0.0
  0
VERTEX
  5
52B
  8
0
  6
CONTINUOUS
 62
     7
 10
11.96086650184956
 20
-2.6488908949881
 30
0.0
  0
VERTEX
  5
52C
  8
0
  6
CONTINUOUS
 62
     7
 10
11.9608381218293
 20
-2.6507922571164
 30
0.0
  0
VERTEX
  5
52D
  8
0
  6
CONTINUOUS
 62
     7
 10
11.96080959812584
 20
-2.6526936170948
 30
0.0
  0
VERTEX
  5
52E
  8
0
  6
CONTINUOUS
 62
     7
 10
11.96078092983611
 20
-2.65459497489928
 30
0.0
  0
VERTEX
  5
52F
  8
0
  6
CONTINUOUS
 62
     7
 10
11.96075211605705
 20
-2.65649633050579
 30
0.0
  0
VERTEX
  5
530
  8
0
  6
CONTINUOUS
 62
     7
 10
11.9607231558856
 20
-2.65839768389031
 30
0.0
  0
VERTEX
  5
531
  8
0
  6
CONTINUOUS
 62
     7
 10
11.96069404841598
 20
-2.66029903502874
 30
0.0
  0
VERTEX
  5
532
  8
0
  6
CONTINUOUS
 62
     7
 10
11.96066479266299
 20
-2.6622003838945
 30
0.0
  0
VERTEX
  5
533
  8
0
  6
CONTINUOUS
 62
     7
 10
11.96063538755114
 20
-2.66410173045826
 30
0.0
  0
VERTEX
  5
534
  8
0
  6
CONTINUOUS
 62
     7
 10
11.96060583200001
 20
-2.66600307469052
 30
0.0
  0
VERTEX
  5
535
  8
0
  6
CONTINUOUS
 62
     7
 10
11.96057612492922
 20
-2.66790441656179
 30
0.0
  0
VERTEX
  5
536
  8
0
  6
CONTINUOUS
 62
     7
 10
11.96054626525835
 20
-2.66980575604257
 30
0.0
  0
VERTEX
  5
537
  8
0
  6
CONTINUOUS
 62
     7
 10
11.96051625190699
 20
-2.67170709310339
 30
0.0
  0
VERTEX
  5
538
  8
0
  6
CONTINUOUS
 62
     7
 10
11.96048608379476
 20
-2.67360842771473
 30
0.0
  0
VERTEX
  5
539
  8
0
  6
CONTINUOUS
 62
     7
 10
11.96045575984125
 20
-2.6755097598471
 30
0.0
  0
VERTEX
  5
53A
  8
0
  6
CONTINUOUS
 62
     7
 10
11.96042527896604
 20
-2.67741108947102
 30
0.0
  0
VERTEX
  5
53B
  8
0
  6
CONTINUOUS
 62
     7
 10
11.96039464008875
 20
-2.679312416557
 30
0.0
  0
VERTEX
  5
53C
  8
0
  6
CONTINUOUS
 62
     7
 10
11.96036384212896
 20
-2.68121374107552
 30
0.0
  0
VERTEX
  5
53D
  8
0
  6
CONTINUOUS
 62
     7
 10
11.96033288400367
 20
-2.68311506299703
 30
0.0
  0
VERTEX
  5
53E
  8
0
  6
CONTINUOUS
 62
     7
 10
11.96030176453528
 20
-2.68501638228885
 30
0.0
  0
VERTEX
  5
53F
  8
0
  6
CONTINUOUS
 62
     7
 10
11.96027048242718
 20
-2.68691769891444
 30
0.0
  0
VERTEX
  5
540
  8
0
  6
CONTINUOUS
 62
     7
 10
11.96023903637517
 20
-2.688819012837
 30
0.0
  0
VERTEX
  5
541
  8
0
  6
CONTINUOUS
 62
     7
 10
11.96020742507506
 20
-2.69072032401974
 30
0.0
  0
VERTEX
  5
542
  8
0
  6
CONTINUOUS
 62
     7
 10
11.96017564722264
 20
-2.69262163242586
 30
0.0
  0
VERTEX
  5
543
  8
0
  6
CONTINUOUS
 62
     7
 10
11.96014370151374
 20
-2.69452293801857
 30
0.0
  0
VERTEX
  5
544
  8
0
  6
CONTINUOUS
 62
     7
 10
11.96011158664415
 20
-2.69642424076107
 30
0.0
  0
VERTEX
  5
545
  8
0
  6
CONTINUOUS
 62
     7
 10
11.96007930130967
 20
-2.69832554061658
 30
0.0
  0
VERTEX
  5
546
  8
0
  6
CONTINUOUS
 62
     7
 10
11.96004684420612
 20
-2.70022683754828
 30
0.0
  0
VERTEX
  5
547
  8
0
  6
CONTINUOUS
 62
     7
 10
11.96001421402929
 20
-2.7021281315194
 30
0.0
  0
VERTEX
  5
548
  8
0
  6
CONTINUOUS
 62
     7
 10
11.95998140947499
 20
-2.70402942249313
 30
0.0
  0
VERTEX
  5
549
  8
0
  6
CONTINUOUS
 62
     7
 10
11.95994842923861
 20
-2.70593071043267
 30
0.0
  0
VERTEX
  5
54A
  8
0
  6
CONTINUOUS
 62
     7
 10
11.95991527193307
 20
-2.70783199529835
 30
0.0
  0
VERTEX
  5
54B
  8
0
  6
CONTINUOUS
 62
     7
 10
11.95988193599093
 20
-2.7097332770443
 30
0.0
  0
VERTEX
  5
54C
  8
0
  6
CONTINUOUS
 62
     7
 10
11.9598484198209
 20
-2.71163455562381
 30
0.0
  0
VERTEX
  5
54D
  8
0
  6
CONTINUOUS
 62
     7
 10
11.95981472183168
 20
-2.71353583099016
 30
0.0
  0
VERTEX
  5
54E
  8
0
  6
CONTINUOUS
 62
     7
 10
11.95978084043198
 20
-2.71543710309664
 30
0.0
  0
VERTEX
  5
54F
  8
0
  6
CONTINUOUS
 62
     7
 10
11.95974677403051
 20
-2.71733837189656
 30
0.0
  0
VERTEX
  5
550
  8
0
  6
CONTINUOUS
 62
     7
 10
11.95971252103596
 20
-2.71923963734319
 30
0.0
  0
VERTEX
  5
551
  8
0
  6
CONTINUOUS
 62
     7
 10
11.95967807985705
 20
-2.72114089938983
 30
0.0
  0
VERTEX
  5
552
  8
0
  6
CONTINUOUS
 62
     7
 10
11.95964344890248
 20
-2.72304215798977
 30
0.0
  0
VERTEX
  5
553
  8
0
  6
CONTINUOUS
 62
     7
 10
11.95960862658096
 20
-2.7249434130963
 30
0.0
  0
VERTEX
  5
554
  8
0
  6
CONTINUOUS
 62
     7
 10
11.95957361130119
 20
-2.72684466466271
 30
0.0
  0
VERTEX
  5
555
  8
0
  6
CONTINUOUS
 62
     7
 10
11.95953840147187
 20
-2.7287459126423
 30
0.0
  0
VERTEX
  5
556
  8
0
  6
CONTINUOUS
 62
     7
 10
11.95950299545426
 20
-2.73064715698662
 30
0.0
  0
VERTEX
  5
557
  8
0
  6
CONTINUOUS
 62
     7
 10
11.95946739136131
 20
-2.73254839763815
 30
0.0
  0
VERTEX
  5
558
  8
0
  6
CONTINUOUS
 62
     7
 10
11.95943158722502
 20
-2.73444963453644
 30
0.0
  0
VERTEX
  5
559
  8
0
  6
CONTINUOUS
 62
     7
 10
11.95939558107737
 20
-2.73635086762102
 30
0.0
  0
VERTEX
  5
55A
  8
0
  6
CONTINUOUS
 62
     7
 10
11.95935937095031
 20
-2.73825209683142
 30
0.0
  0
VERTEX
  5
55B
  8
0
  6
CONTINUOUS
 62
     7
 10
11.95932295487583
 20
-2.74015332210718
 30
0.0
  0
VERTEX
  5
55C
  8
0
  6
CONTINUOUS
 62
     7
 10
11.95928633088588
 20
-2.74205454338782
 30
0.0
  0
VERTEX
  5
55D
  8
0
  6
CONTINUOUS
 62
     7
 10
11.95924949701242
 20
-2.74395576061287
 30
0.0
  0
VERTEX
  5
55E
  8
0
  6
CONTINUOUS
 62
     7
 10
11.95921245128743
 20
-2.74585697372188
 30
0.0
  0
VERTEX
  5
55F
  8
0
  6
CONTINUOUS
 62
     7
 10
11.95917519174288
 20
-2.74775818265437
 30
0.0
  0
VERTEX
  5
560
  8
0
  6
CONTINUOUS
 62
     7
 10
11.95913771641073
 20
-2.74965938734988
 30
0.0
  0
VERTEX
  5
561
  8
0
  6
CONTINUOUS
 62
     7
 10
11.95910002332294
 20
-2.75156058774793
 30
0.0
  0
VERTEX
  5
562
  8
0
  6
CONTINUOUS
 62
     7
 10
11.95906211049362
 20
-2.75346178378738
 30
0.0
  0
VERTEX
  5
563
  8
0
  6
CONTINUOUS
 62
     7
 10
11.95902397566823
 20
-2.75536297539663
 30
0.0
  0
VERTEX
  5
564
  8
0
  6
CONTINUOUS
 62
     7
 10
11.95898561638477
 20
-2.75726416249605
 30
0.0
  0
VERTEX
  5
565
  8
0
  6
CONTINUOUS
 62
     7
 10
11.95894703017588
 20
-2.75916534500579
 30
0.0
  0
VERTEX
  5
566
  8
0
  6
CONTINUOUS
 62
     7
 10
11.95890821457419
 20
-2.76106652284603
 30
0.0
  0
VERTEX
  5
567
  8
0
  6
CONTINUOUS
 62
     7
 10
11.95886916711233
 20
-2.76296769593691
 30
0.0
  0
VERTEX
  5
568
  8
0
  6
CONTINUOUS
 62
     7
 10
11.95882988532294
 20
-2.76486886419859
 30
0.0
  0
VERTEX
  5
569
  8
0
  6
CONTINUOUS
 62
     7
 10
11.95879036673864
 20
-2.76677002755123
 30
0.0
  0
VERTEX
  5
56A
  8
0
  6
CONTINUOUS
 62
     7
 10
11.95875060889206
 20
-2.76867118591499
 30
0.0
  0
VERTEX
  5
56B
  8
0
  6
CONTINUOUS
 62
     7
 10
11.95871060931585
 20
-2.77057233921002
 30
0.0
  0
VERTEX
  5
56C
  8
0
  6
CONTINUOUS
 62
     7
 10
11.95867036554263
 20
-2.77247348735649
 30
0.0
  0
VERTEX
  5
56D
  8
0
  6
CONTINUOUS
 62
     7
 10
11.95862987510504
 20
-2.77437463027454
 30
0.0
  0
VERTEX
  5
56E
  8
0
  6
CONTINUOUS
 62
     7
 10
11.9585891355309
 20
-2.77627576788416
 30
0.0
  0
VERTEX
  5
56F
  8
0
  6
CONTINUOUS
 62
     7
 10
11.95854814408453
 20
-2.77817690009451
 30
0.0
  0
VERTEX
  5
570
  8
0
  6
CONTINUOUS
 62
     7
 10
11.95850689763531
 20
-2.78007802679864
 30
0.0
  0
VERTEX
  5
571
  8
0
  6
CONTINUOUS
 62
     7
 10
11.95846539302018
 20
-2.78197914788825
 30
0.0
  0
VERTEX
  5
572
  8
0
  6
CONTINUOUS
 62
     7
 10
11.95842362707608
 20
-2.78388026325507
 30
0.0
  0
VERTEX
  5
573
  8
0
  6
CONTINUOUS
 62
     7
 10
11.95838159663994
 20
-2.7857813727908
 30
0.0
  0
VERTEX
  5
574
  8
0
  6
CONTINUOUS
 62
     7
 10
11.95833929854872
 20
-2.78768247638715
 30
0.0
  0
VERTEX
  5
575
  8
0
  6
CONTINUOUS
 62
     7
 10
11.95829672963934
 20
-2.78958357393583
 30
0.0
  0
VERTEX
  5
576
  8
0
  6
CONTINUOUS
 62
     7
 10
11.95825388674875
 20
-2.79148466532856
 30
0.0
  0
VERTEX
  5
577
  8
0
  6
CONTINUOUS
 62
     7
 10
11.95821076671388
 20
-2.79338575045704
 30
0.0
  0
VERTEX
  5
578
  8
0
  6
CONTINUOUS
 62
     7
 10
11.95816736637167
 20
-2.79528682921299
 30
0.0
  0
VERTEX
  5
579
  8
0
  6
CONTINUOUS
 62
     7
 10
11.95812368255908
 20
-2.79718790148812
 30
0.0
  0
VERTEX
  5
57A
  8
0
  6
CONTINUOUS
 62
     7
 10
11.95807971211122
 20
-2.79908896717405
 30
0.0
  0
VERTEX
  5
57B
  8
0
  6
CONTINUOUS
 62
     7
 10
11.95803545158757
 20
-2.80099002615012
 30
0.0
  0
VERTEX
  5
57C
  8
0
  6
CONTINUOUS
 62
     7
 10
11.95799089697802
 20
-2.80289107827021
 30
0.0
  0
VERTEX
  5
57D
  8
0
  6
CONTINUOUS
 62
     7
 10
11.95794604420197
 20
-2.80479212338505
 30
0.0
  0
VERTEX
  5
57E
  8
0
  6
CONTINUOUS
 62
     7
 10
11.95790088917884
 20
-2.8066931613454
 30
0.0
  0
VERTEX
  5
57F
  8
0
  6
CONTINUOUS
 62
     7
 10
11.95785542782803
 20
-2.80859419200198
 30
0.0
  0
VERTEX
  5
580
  8
0
  6
CONTINUOUS
 62
     7
 10
11.95780965606897
 20
-2.81049521520556
 30
0.0
  0
VERTEX
  5
581
  8
0
  6
CONTINUOUS
 62
     7
 10
11.95776356982104
 20
-2.81239623080685
 30
0.0
  0
VERTEX
  5
582
  8
0
  6
CONTINUOUS
 62
     7
 10
11.95771716500368
 20
-2.81429723865661
 30
0.0
  0
VERTEX
  5
583
  8
0
  6
CONTINUOUS
 62
     7
 10
11.95767043753627
 20
-2.81619823860558
 30
0.0
  0
VERTEX
  5
584
  8
0
  6
CONTINUOUS
 62
     7
 10
11.95762338333825
 20
-2.8180992305045
 30
0.0
  0
VERTEX
  5
585
  8
0
  6
CONTINUOUS
 62
     7
 10
11.95757599832901
 20
-2.8200002142041
 30
0.0
  0
VERTEX
  5
586
  8
0
  6
CONTINUOUS
 62
     7
 10
11.9575282784197
 20
-2.82190118955477
 30
0.0
  0
VERTEX
  5
587
  8
0
  6
CONTINUOUS
 62
     7
 10
11.95748021897016
 20
-2.82380215638224
 30
0.0
  0
VERTEX
  5
588
  8
0
  6
CONTINUOUS
 62
     7
 10
11.95743181445169
 20
-2.82570311447254
 30
0.0
  0
VERTEX
  5
589
  8
0
  6
CONTINUOUS
 62
     7
 10
11.95738305925508
 20
-2.82760406360812
 30
0.0
  0
VERTEX
  5
58A
  8
0
  6
CONTINUOUS
 62
     7
 10
11.95733394777112
 20
-2.82950500357142
 30
0.0
  0
VERTEX
  5
58B
  8
0
  6
CONTINUOUS
 62
     7
 10
11.9572844743906
 20
-2.83140593414487
 30
0.0
  0
VERTEX
  5
58C
  8
0
  6
CONTINUOUS
 62
     7
 10
11.95723463350429
 20
-2.83330685511092
 30
0.0
  0
VERTEX
  5
58D
  8
0
  6
CONTINUOUS
 62
     7
 10
11.95718441950299
 20
-2.83520776625201
 30
0.0
  0
VERTEX
  5
58E
  8
0
  6
CONTINUOUS
 62
     7
 10
11.95713382677748
 20
-2.83710866735057
 30
0.0
  0
VERTEX
  5
58F
  8
0
  6
CONTINUOUS
 62
     7
 10
11.95708284971854
 20
-2.83900955818904
 30
0.0
  0
VERTEX
  5
590
  8
0
  6
CONTINUOUS
 62
     7
 10
11.95703148271696
 20
-2.84091043854987
 30
0.0
  0
VERTEX
  5
591
  8
0
  6
CONTINUOUS
 62
     7
 10
11.95697972016354
 20
-2.84281130821549
 30
0.0
  0
VERTEX
  5
592
  8
0
  6
CONTINUOUS
 62
     7
 10
11.95692755630716
 20
-2.84471216696166
 30
0.0
  0
VERTEX
  5
593
  8
0
  6
CONTINUOUS
 62
     7
 10
11.95687498390506
 20
-2.84661301449384
 30
0.0
  0
VERTEX
  5
594
  8
0
  6
CONTINUOUS
 62
     7
 10
11.95682199482204
 20
-2.84851385047545
 30
0.0
  0
VERTEX
  5
595
  8
0
  6
CONTINUOUS
 62
     7
 10
11.95676858091088
 20
-2.85041467456933
 30
0.0
  0
VERTEX
  5
596
  8
0
  6
CONTINUOUS
 62
     7
 10
11.95671473402437
 20
-2.85231548643832
 30
0.0
  0
VERTEX
  5
597
  8
0
  6
CONTINUOUS
 62
     7
 10
11.95666044601527
 20
-2.85421628574528
 30
0.0
  0
VERTEX
  5
598
  8
0
  6
CONTINUOUS
 62
     7
 10
11.95660570873636
 20
-2.85611707215304
 30
0.0
  0
VERTEX
  5
599
  8
0
  6
CONTINUOUS
 62
     7
 10
11.95655051404043
 20
-2.85801784532446
 30
0.0
  0
VERTEX
  5
59A
  8
0
  6
CONTINUOUS
 62
     7
 10
11.95649485378025
 20
-2.85991860492237
 30
0.0
  0
VERTEX
  5
59B
  8
0
  6
CONTINUOUS
 62
     7
 10
11.95643871980861
 20
-2.86181935060963
 30
0.0
  0
VERTEX
  5
59C
  8
0
  6
CONTINUOUS
 62
     7
 10
11.95638210397827
 20
-2.86372008204909
 30
0.0
  0
VERTEX
  5
59D
  8
0
  6
CONTINUOUS
 62
     7
 10
11.95632499806164
 20
-2.86562079889924
 30
0.0
  0
VERTEX
  5
59E
  8
0
  6
CONTINUOUS
 62
     7
 10
11.95626739213503
 20
-2.86752150072701
 30
0.0
  0
VERTEX
  5
59F
  8
0
  6
CONTINUOUS
 62
     7
 10
11.95620927465954
 20
-2.86942218701215
 30
0.0
  0
VERTEX
  5
5A0
  8
0
  6
CONTINUOUS
 62
     7
 10
11.95615063403201
 20
-2.8713228572309
 30
0.0
  0
VERTEX
  5
5A1
  8
0
  6
CONTINUOUS
 62
     7
 10
11.95609145864933
 20
-2.87322351085953
 30
0.0
  0
VERTEX
  5
5A2
  8
0
  6
CONTINUOUS
 62
     7
 10
11.95603173690836
 20
-2.87512414737428
 30
0.0
  0
VERTEX
  5
5A3
  8
0
  6
CONTINUOUS
 62
     7
 10
11.95597145720597
 20
-2.87702476625143
 30
0.0
  0
VERTEX
  5
5A4
  8
0
  6
CONTINUOUS
 62
     7
 10
11.95591060793902
 20
-2.87892536696722
 30
0.0
  0
VERTEX
  5
5A5
  8
0
  6
CONTINUOUS
 62
     7
 10
11.95584917750438
 20
-2.88082594899792
 30
0.0
  0
VERTEX
  5
5A6
  8
0
  6
CONTINUOUS
 62
     7
 10
11.95578715429892
 20
-2.88272651181979
 30
0.0
  0
VERTEX
  5
5A7
  8
0
  6
CONTINUOUS
 62
     7
 10
11.95572452671824
 20
-2.88462705490901
 30
0.0
  0
VERTEX
  5
5A8
  8
0
  6
CONTINUOUS
 62
     7
 10
11.95566128182972
 20
-2.88652757766702
 30
0.0
  0
VERTEX
  5
5A9
  8
0
  6
CONTINUOUS
 62
     7
 10
11.95559740285477
 20
-2.88842807927876
 30
0.0
  0
VERTEX
  5
5AA
  8
0
  6
CONTINUOUS
 62
     7
 10
11.95553287232275
 20
-2.89032855889026
 30
0.0
  0
VERTEX
  5
5AB
  8
0
  6
CONTINUOUS
 62
     7
 10
11.955467672763
 20
-2.8922290156475
 30
0.0
  0
VERTEX
  5
5AC
  8
0
  6
CONTINUOUS
 62
     7
 10
11.95540178670485
 20
-2.89412944869651
 30
0.0
  0
VERTEX
  5
5AD
  8
0
  6
CONTINUOUS
 62
     7
 10
11.95533519667766
 20
-2.89602985718329
 30
0.0
  0
VERTEX
  5
5AE
  8
0
  6
CONTINUOUS
 62
     7
 10
11.95526788521077
 20
-2.89793024025384
 30
0.0
  0
VERTEX
  5
5AF
  8
0
  6
CONTINUOUS
 62
     7
 10
11.95519983483352
 20
-2.89983059705417
 30
0.0
  0
VERTEX
  5
5B0
  8
0
  6
CONTINUOUS
 62
     7
 10
11.95513102807526
 20
-2.90173092673029
 30
0.0
  0
VERTEX
  5
5B1
  8
0
  6
CONTINUOUS
 62
     7
 10
11.95506144728721
 20
-2.90363122841689
 30
0.0
  0
VERTEX
  5
5B2
  8
0
  6
CONTINUOUS
 62
     7
 10
11.95499107024082
 20
-2.90553150095759
 30
0.0
  0
VERTEX
  5
5B3
  8
0
  6
CONTINUOUS
 62
     7
 10
11.954919869842
 20
-2.90743174288681
 30
0.0
  0
VERTEX
  5
5B4
  8
0
  6
CONTINUOUS
 62
     7
 10
11.95484781876137
 20
-2.90933195272402
 30
0.0
  0
VERTEX
  5
5B5
  8
0
  6
CONTINUOUS
 62
     7
 10
11.95477488966953
 20
-2.91123212898869
 30
0.0
  0
VERTEX
  5
5B6
  8
0
  6
CONTINUOUS
 62
     7
 10
11.95470105523708
 20
-2.91313227020027
 30
0.0
  0
VERTEX
  5
5B7
  8
0
  6
CONTINUOUS
 62
     7
 10
11.95462628813464
 20
-2.91503237487824
 30
0.0
  0
VERTEX
  5
5B8
  8
0
  6
CONTINUOUS
 62
     7
 10
11.95455056103281
 20
-2.91693244154205
 30
0.0
  0
VERTEX
  5
5B9
  8
0
  6
CONTINUOUS
 62
     7
 10
11.95447384660219
 20
-2.91883246871116
 30
0.0
  0
VERTEX
  5
5BA
  8
0
  6
CONTINUOUS
 62
     7
 10
11.95439611679238
 20
-2.92073245485761
 30
0.0
  0
VERTEX
  5
5BB
  8
0
  6
CONTINUOUS
 62
     7
 10
11.95431733409907
 20
-2.92263239783139
 30
0.0
  0
VERTEX
  5
5BC
  8
0
  6
CONTINUOUS
 62
     7
 10
11.95423745436765
 20
-2.92453229504494
 30
0.0
  0
VERTEX
  5
5BD
  8
0
  6
CONTINUOUS
 62
     7
 10
11.95415643330508
 20
-2.92643214390159
 30
0.0
  0
VERTEX
  5
5BE
  8
0
  6
CONTINUOUS
 62
     7
 10
11.95407422661834
 20
-2.92833194180466
 30
0.0
  0
VERTEX
  5
5BF
  8
0
  6
CONTINUOUS
 62
     7
 10
11.95399079001438
 20
-2.9302316861575
 30
0.0
  0
VERTEX
  5
5C0
  8
0
  6
CONTINUOUS
 62
     7
 10
11.95390607920016
 20
-2.93213137436342
 30
0.0
  0
VERTEX
  5
5C1
  8
0
  6
CONTINUOUS
 62
     7
 10
11.95382004988264
 20
-2.93403100382576
 30
0.0
  0
VERTEX
  5
5C2
  8
0
  6
CONTINUOUS
 62
     7
 10
11.95373265658879
 20
-2.93593057185082
 30
0.0
  0
VERTEX
  5
5C3
  8
0
  6
CONTINUOUS
 62
     7
 10
11.95364383564798
 20
-2.93783007424859
 30
0.0
  0
VERTEX
  5
5C4
  8
0
  6
CONTINUOUS
 62
     7
 10
11.95355350909876
 20
-2.93972950565399
 30
0.0
  0
VERTEX
  5
5C5
  8
0
  6
CONTINUOUS
 62
     7
 10
11.9534615985954
 20
-2.94162886067035
 30
0.0
  0
VERTEX
  5
5C6
  8
0
  6
CONTINUOUS
 62
     7
 10
11.95336802579217
 20
-2.94352813390097
 30
0.0
  0
VERTEX
  5
5C7
  8
0
  6
CONTINUOUS
 62
     7
 10
11.95327271234334
 20
-2.94542731994918
 30
0.0
  0
VERTEX
  5
5C8
  8
0
  6
CONTINUOUS
 62
     7
 10
11.95317557990318
 20
-2.94732641341831
 30
0.0
  0
VERTEX
  5
5C9
  8
0
  6
CONTINUOUS
 62
     7
 10
11.95307654966399
 20
-2.94922540887717
 30
0.0
  0
VERTEX
  5
5CA
  8
0
  6
CONTINUOUS
 62
     7
 10
11.95297552022117
 20
-2.95112429920775
 30
0.0
  0
VERTEX
  5
5CB
  8
0
  6
CONTINUOUS
 62
     7
 10
11.95287235781009
 20
-2.95302307487631
 30
0.0
  0
VERTEX
  5
5CC
  8
0
  6
CONTINUOUS
 62
     7
 10
11.95276692617222
 20
-2.95492172616296
 30
0.0
  0
VERTEX
  5
5CD
  8
0
  6
CONTINUOUS
 62
     7
 10
11.95265908904902
 20
-2.95682024334781
 30
0.0
  0
VERTEX
  5
5CE
  8
0
  6
CONTINUOUS
 62
     7
 10
11.95254871005326
 20
-2.9587186166952
 30
0.0
  0
VERTEX
  5
5CF
  8
0
  6
CONTINUOUS
 62
     7
 10
11.9524356248938
 20
-2.96061683305524
 30
0.0
  0
VERTEX
  5
5D0
  8
0
  6
CONTINUOUS
 62
     7
 10
11.95231960671582
 20
-2.96251487162282
 30
0.0
  0
VERTEX
  5
5D1
  8
0
  6
CONTINUOUS
 62
     7
 10
11.95220042015157
 20
-2.96441271055124
 30
0.0
  0
VERTEX
  5
5D2
  8
0
  6
CONTINUOUS
 62
     7
 10
11.95207782983328
 20
-2.96631032799377
 30
0.0
  0
VERTEX
  5
5D3
  8
0
  6
CONTINUOUS
 62
     7
 10
11.95195158949986
 20
-2.96820770168638
 30
0.0
  0
VERTEX
  5
5D4
  8
0
  6
CONTINUOUS
 62
     7
 10
11.95182135278857
 20
-2.9701048055301
 30
0.0
  0
VERTEX
  5
5D5
  8
0
  6
CONTINUOUS
 62
     7
 10
11.95168671946371
 20
-2.97200161136204
 30
0.0
  0
VERTEX
  5
5D6
  8
0
  6
CONTINUOUS
 62
     7
 10
11.95154728876986
 20
-2.97389809099943
 30
0.0
  0
VERTEX
  5
5D7
  8
0
  6
CONTINUOUS
 62
     7
 10
11.9514026011649
 20
-2.97579420211781
 30
0.0
  0
VERTEX
  5
5D8
  8
0
  6
CONTINUOUS
 62
     7
 10
11.95125189632993
 20
-2.97768983003811
 30
0.0
  0
VERTEX
  5
5D9
  8
0
  6
CONTINUOUS
 62
     7
 10
11.95109431800723
 20
-2.97958483700229
 30
0.0
  0
VERTEX
  5
5DA
  8
0
  6
CONTINUOUS
 62
     7
 10
11.95092899095259
 20
-2.9814790973173
 30
0.0
  0
VERTEX
  5
5DB
  8
0
  6
CONTINUOUS
 62
     7
 10
11.95075484426022
 20
-2.98337260999839
 30
0.0
  0
VERTEX
  5
5DC
  8
0
  6
CONTINUOUS
 62
     7
 10
11.95057069154471
 20
-2.98526544764908
 30
0.0
  0
VERTEX
  5
5DD
  8
0
  6
CONTINUOUS
 62
     7
 10
11.95037462211402
 20
-2.9871573401288
 30
0.0
  0
VERTEX
  5
5DE
  8
0
  6
CONTINUOUS
 62
     7
 10
11.95016205912062
 20
-2.98904674954479
 30
0.0
  0
VERTEX
  5
5DF
  8
0
  6
CONTINUOUS
 62
     7
 10
11.94992856220683
 20
-2.99093262213895
 30
0.0
  0
VERTEX
  5
5E0
  8
0
  6
CONTINUOUS
 62
     7
 10
11.94967444240756
 20
-2.9928188223023
 30
0.0
  0
VERTEX
  5
5E1
  8
0
  6
CONTINUOUS
 62
     7
 10
11.9493845792841
 20
-2.99469999294038
 30
0.0
  0
VERTEX
  5
5E2
  8
0
  6
CONTINUOUS
 62
     7
 10
11.94901874658731
 20
-2.9965576729179
 30
0.0
  0
VERTEX
  5
5E3
  8
0
  6
CONTINUOUS
 62
     7
 10
11.94863030795803
 20
-2.99845623943439
 30
0.0
  0
VERTEX
  5
5E4
  8
0
  6
CONTINUOUS
 62
     7
 10
11.94758524319587
 20
-2.99999999999977
 30
0.0
  0
SEQEND
  5
5E5
  8
0
  6
CONTINUOUS
 62
     7
  0
ENDSEC
  0
EOF
