  0
SECTION
  2
HEADER
  9
$ACADVER
  1
AC1009
  9
$INSBASE
 10
0
 20
0
  9
$EXTMIN
 10
0
 20
-41.6781727974184
  9
$EXTMAX
 10
105.000063886813
 20
0
  9
$LIMMIN
 10
0
 20
-41.6781727974184
  9
$LIMMAX
 10
105.000063886813
 20
0
  9
$VIEWCTR
 10
10
 20
10
  9
$VIEWSIZE
 40
10
  9
$SNAPMODE
 70
0
  9
$SNAPUNIT
 10
1
 20
1
  9
$SNAPBASE
 10
0
 20
0
  9
$SNAPANG
 50
0
  9
$SNAPSTYLE
 70
0
  9
$SNAPISOPAIR
 70
0
  9
$GRIDMODE
 70
0
  9
$GRIDUNIT
 10
0
 20
0
  9
$ORTHOMODE
 70
0
  9
$REGENMODE
 70
1
  9
$FILLMODE
 70
1
  9
$QTEXTMODE
 70
0
  9
$DRAGMODE
 70
2
  9
$LTSCALE
 40
1
  9
$OSMODE
 70
0
  9
$ATTMODE
 70
1
  9
$TEXTSIZE
 40
3.5
  9
$TRACEWID
 40
0.5
  9
$TEXTSTYLE
  7
STANDARD
  9
$CLAYER
  8
0
  9
$CELTYPE
  6
BYLAYER
  9
$CECOLOR
 62
256
  9
$DIMSCALE
 40
1
  9
$DIMASZ
 40
0.18
  9
$DIMEXO
 40
0.0625
  9
$DIMDLI
 40
0.38
  9
$DIMRND
 40
0
  9
$DIMDLE
 40
0
  9
$DIMEXE
 40
0.18
  9
$DIMTP
 40
0
  9
$DIMTM
 40
0
  9
$DIMTXT
 40
0.18
  9
$DIMCEN
 40
0.09
  9
$DIMTSZ
 40
0
  9
$DIMTOL
 70
0
  9
$DIMLIM
 70
0
  9
$DIMTIH
 70
1
  9
$DIMTOH
 70
1
  9
$DIMSE1
 70
0
  9
$DIMSE2
 70
0
  9
$DIMTAD
 70
0
  9
$DIMZIN
 70
0
  9
$DIMBLK
  1

  9
$DIMASO
 70
1
  9
$DIMSHO
 70
1
  9
$DIMPOST
  1

  9
$DIMAPOST
  1

  9
$DIMALT
 70
0
  9
$DIMALTD
 70
2
  9
$DIMALTF
 40
25.4
  9
$DIMLFAC
 40
1
  9
$DIMTOFL
 70
0
  9
$DIMTVP
 40
0
  9
$DIMTIX
 70
0
  9
$DIMSOXD
 70
0
  9
$DIMSAH
 70
0
  9
$DIMBLK1
  1

  9
$DIMBLK2
  1

  9
$DIMSTYLE
  2
*UNNAMED
  9
$DIMCLRD
 70
0
  9
$DIMCLRE
 70
0
  9
$DIMCLRT
 70
0
  9
$DIMTFAC
 40
1
  9
$DIMGAP
 40
0.09
  9
$LUNITS
 70
2
  9
$LUPREC
 70
4
  9
$AXISMODE
 70
0
  9
$AXISUNIT
 10
0
 20
0
  9
$SKETCHINC
 40
0.1
  9
$FILLETRAD
 40
2
  9
$AUNITS
 70
0
  9
$AUPREC
 70
0
  9
$MENU
  1
ACAD
  9
$ELEVATION
 40
0
  9
$THICKNESS
 40
0
  9
$VIEWDIR
 10
0
 20
0
 30
1
  9
$LIMCHECK
 70
0
  9
$BLIPMODE
 70
1
  9
$CHAMFERA
 40
0
  9
$CHAMFERB
 40
0
  9
$FASTZOOM
 70
1
  9
$SKPOLY
 70
0
  9
$ANGBASE
 50
0
  9
$ANGDIR
 70
0
  9
$PDMODE
 70
0
  9
$PDSIZE
 40
0
  9
$PLINEWID
 40
0
  9
$COORDS
 70
2
  0
ENDSEC
  0
SECTION
  2
TABLES
  0
TABLE
  2
DIMSTYLE
 70
0
  0
ENDTAB
  0
TABLE
  2
LTYPE
 70
9
  0
LTYPE
  2
CONTINUOUS
 70
64
  3
Solid line
 72
65
 73
0
 40
0
  0
LTYPE
  2
BORDER
 70
64
  3
__ __ . __ __ .
 72
65
 73
6
 40
4.835529257945335
 49
1.381579787984381
 49
-0.6907898939921907
 49
1.381579787984381
 49
-0.6907898939921907
 49
0
 49
-0.6907898939921907
  0
LTYPE
  2
CENTER
 70
64
  3
____ _ ____ _
 72
65
 73
4
 40
5.526319151937526
 49
3.453949469960953
 49
-0.6907898939921907
 49
0.6907898939921907
 49
-0.6907898939921907
  0
LTYPE
  2
DASHDOT
 70
64
  3
__ . __ . __ .
 72
65
 73
4
 40
2.763159575968763
 49
1.381579787984381
 49
-0.6907898939921907
 49
0
 49
-0.6907898939921907
  0
LTYPE
  2
DASHED
 70
64
  3
__ __ __ __ __
 72
65
 73
2
 40
2.072369681976572
 49
1.381579787984381
 49
-0.6907898939921907
  0
LTYPE
  2
DIVIDE
 70
64
  3
__ . . __ . . 
 72
65
 73
6
 40
3.453949469960953
 49
1.381579787984381
 49
-0.6907898939921907
 49
0
 49
-0.6907898939921907
 49
0
 49
-0.6907898939921907
  0
LTYPE
  2
DOT
 70
64
  3
..............
 72
65
 73
4
 40
1.381579787984381
 49
0
 49
-0.6907898939921907
 49
0
 49
-0.6907898939921907
  0
LTYPE
  2
HIDDEN
 70
64
  3
_ _ _ _ _ _ _
 72
65
 73
2
 40
1.036184840988286
 49
0.6907898939921907
 49
-0.3453949469960954
  0
LTYPE
  2
PHANTOM
 70
64
  3
_____ _ _ _____ _ _ 
 72
65
 73
6
 40
6.907898939921907
 49
3.453949469960953
 49
-0.6907898939921907
 49
0.6907898939921907
 49
-0.6907898939921907
 49
0.6907898939921907
 49
-0.6907898939921907
  0
ENDTAB
  0
TABLE
  2
LAYER
 70
3
  0
LAYER
  2
1
 70
0
 62
7
  6
CONTINUOUS
  0
LAYER
  2
0
 70
0
 62
7
  6
CONTINUOUS
  0
ENDTAB
  0
TABLE
  2
STYLE
 70
4
  0
STYLE
  2
STANDARD
 70
0
 40
0
 41
1
 50
0
 71
0
 42
3.5
  3
txt
  4

  0
STYLE
  2
SIMPLEX
 70
0
 40
0
 41
1
 50
0
 71
0
 42
3.5
  3
simplex
  4

  0
STYLE
  2
COMPLEX
 70
0
 40
0
 41
1
 50
0
 71
0
 42
3.5
  3
complex
  4

  0
STYLE
  2
ITALIC
 70
0
 40
0
 41
1
 50
0
 71
0
 42
3.5
  3
italic
  4

  0
ENDTAB
  0
TABLE
  2
VIEW
 70
0
  0
ENDTAB
  0
ENDSEC
  0
SECTION
  2
BLOCKS
  0
ENDSEC
  0
SECTION
  2
ENTITIES
  0
LINE
  8
1
 62
7
 10
53.5
 20
-3.602605611250596
 30
0
 11
54
 21
-2.185449743464694
 31
0
  0
LINE
  8
1
 62
7
 10
52.5
 20
-1.602605611250596
 30
0
 11
53.5
 21
-3.602605611250596
 31
0
  0
LINE
  8
1
 62
7
 10
52.5
 20
-1.602605611250596
 30
0
 11
52
 21
-3
 31
0
  0
LINE
  8
1
 62
7
 10
51
 20
0
 30
0
 11
52
 21
-3
 31
0
  0
LINE
  8
1
 62
7
 10
54
 20
-16.2781727974184
 30
0
 11
51
 21
-16.2781727974184
 31
0
  0
LINE
  8
1
 62
7
 10
54
 20
-2.185449743464694
 30
0
 11
54
 21
-16.2781727974184
 31
0
  0
LINE
  8
1
 62
7
 10
51
 20
-16.2781727974184
 30
0
 11
2.5
 21
-16.2781727974184
 31
0
  0
LINE
  8
1
 62
7
 10
51
 20
0
 30
0
 11
51
 21
-16.2781727974184
 31
0
  0
LINE
  8
1
 62
7
 10
104.8
 20
-40.6781727974184
 30
0
 11
103.5
 21
-40.6781727974184
 31
0
  0
LINE
  8
1
 62
7
 10
105
 20
-35.8781727974184
 30
0
 11
105
 21
-40.4781727974184
 31
0
  0
LINE
  8
1
 62
7
 10
104.8
 20
-22.2781727974184
 30
0
 11
103.5
 21
-22.2781727974184
 31
0
  0
LINE
  8
1
 62
7
 10
105
 20
-17.4781727974184
 30
0
 11
105
 21
-22.0781727974184
 31
0
  0
LINE
  8
1
 62
7
 10
0
 20
-17.4781727974184
 30
0
 11
0
 21
-22.0781727974184
 31
0
  0
LINE
  8
1
 62
7
 10
0.2
 20
-22.2781727974184
 30
0
 11
1.5
 21
-22.2781727974184
 31
0
  0
LINE
  8
1
 62
7
 10
0.2
 20
-40.6781727974184
 30
0
 11
1.5
 21
-40.6781727974184
 31
0
  0
LINE
  8
1
 62
7
 10
0
 20
-35.8781727974184
 30
0
 11
0
 21
-40.4781727974184
 31
0
  0
LINE
  8
1
 62
7
 10
103.5
 20
-40.6781727974184
 30
0
 11
103.5
 21
-35.6781727974184
 31
0
  0
LINE
  8
1
 62
7
 10
103.5
 20
-35.6781727974184
 30
0
 11
103.5
 21
-22.2781727974184
 31
0
  0
LINE
  8
1
 62
7
 10
103.5
 20
-35.6781727974184
 30
0
 11
104.8
 21
-35.6781727974184
 31
0
  0
LINE
  8
1
 62
7
 10
103.5
 20
-22.2781727974184
 30
0
 11
103.5
 21
-17.2781727974184
 31
0
  0
LINE
  8
1
 62
7
 10
103.5
 20
-17.2781727974184
 30
0
 11
103.5
 21
-16.2781727974184
 31
0
  0
LINE
  8
1
 62
7
 10
103.5
 20
-17.2781727974184
 30
0
 11
104.8
 21
-17.2781727974184
 31
0
  0
LINE
  8
1
 62
7
 10
1.5
 20
-40.6781727974184
 30
0
 11
1.5
 21
-41.6781727974184
 31
0
  0
LINE
  8
1
 62
7
 10
1.5
 20
-35.6781727974184
 30
0
 11
1.5
 21
-40.6781727974184
 31
0
  0
LINE
  8
1
 62
7
 10
1.5
 20
-35.6781727974184
 30
0
 11
0.2
 21
-35.6781727974184
 31
0
  0
LINE
  8
1
 62
7
 10
1.5
 20
-22.2781727974184
 30
0
 11
1.5
 21
-35.6781727974184
 31
0
  0
LINE
  8
1
 62
7
 10
1.5
 20
-17.2781727974184
 30
0
 11
1.5
 21
-22.2781727974184
 31
0
  0
LINE
  8
1
 62
7
 10
1.5
 20
-17.2781727974184
 30
0
 11
0.2
 21
-17.2781727974184
 31
0
  0
LINE
  8
1
 62
7
 10
102.5
 20
-35.8781727974184
 30
0
 11
102.5
 21
-41.6781727974184
 31
0
  0
LINE
  8
1
 62
7
 10
102.5
 20
-22.0781727974184
 30
0
 11
102.5
 21
-35.8781727974184
 31
0
  0
LINE
  8
1
 62
7
 10
2.5
 20
-35.8781727974184
 30
0
 11
2.5
 21
-22.0781727974184
 31
0
  0
LINE
  8
1
 62
7
 10
2.5
 20
-22.0781727974184
 30
0
 11
2.5
 21
-16.2781727974184
 31
0
  0
LINE
  8
1
 62
7
 10
9.300000000000001
 20
-35.8781727974184
 30
0
 11
9.299999999999997
 21
-22.0781727974184
 31
0
  0
LINE
  8
1
 62
7
 10
102.5
 20
-35.8781727974184
 30
0
 11
2.5
 21
-35.8781727974184
 31
0
  0
LINE
  8
1
 62
7
 10
40.1
 20
-22.0781727974184
 30
0
 11
40.1
 21
-35.8781727974184
 31
0
  0
LINE
  8
1
 62
7
 10
2.5
 20
-22.0781727974184
 30
0
 11
102.5
 21
-22.0781727974184
 31
0
  0
LINE
  8
1
 62
7
 10
2.5
 20
-16.2781727974184
 30
0
 11
1.5
 21
-16.2781727974184
 31
0
  0
LINE
  8
1
 62
7
 10
2.5
 20
-41.6781727974184
 30
0
 11
102.5
 21
-41.6781727974184
 31
0
  0
LINE
  8
1
 62
7
 10
2.5
 20
-41.6781727974184
 30
0
 11
2.5
 21
-35.8781727974184
 31
0
  0
LINE
  8
1
 62
7
 10
102.5
 20
-16.2781727974184
 30
0
 11
54
 21
-16.2781727974184
 31
0
  0
LINE
  8
1
 62
7
 10
102.5
 20
-41.6781727974184
 30
0
 11
103.5
 21
-41.6781727974184
 31
0
  0
LINE
  8
1
 62
7
 10
102.5
 20
-16.2781727974184
 30
0
 11
102.5
 21
-22.0781727974184
 31
0
  0
LINE
  8
1
 62
7
 10
1.5
 20
-16.2781727974184
 30
0
 11
1.5
 21
-17.2781727974184
 31
0
  0
LINE
  8
1
 62
7
 10
103.5
 20
-16.2781727974184
 30
0
 11
102.5
 21
-16.2781727974184
 31
0
  0
LINE
  8
1
 62
7
 10
103.5
 20
-41.6781727974184
 30
0
 11
103.5
 21
-40.6781727974184
 31
0
  0
LINE
  8
1
 62
7
 10
1.5
 20
-41.6781727974184
 30
0
 11
2.5
 21
-41.6781727974184
 31
0
  0
ARC
  8
1
 62
7
 10
104.8049920886847
 20
-40.48316488610313
 30
0
 40
0.1950717981282234
 50
268.533581766931
 51
1.46641823307702
  0
ARC
  8
1
 62
7
 10
104.8
 20
-35.8781727974184
 30
0
 40
0.2000000000000028
 50
0
 51
90
  0
ARC
  8
1
 62
7
 10
104.8
 20
-22.07817279741841
 30
0
 40
0.1999999999999886
 50
270
 51
0
  0
ARC
  8
1
 62
7
 10
104.8
 20
-17.4781727974184
 30
0
 40
0.2000000000000028
 50
0
 51
90
  0
ARC
  8
1
 62
7
 10
0.1999999999999991
 20
-17.4781727974184
 30
0
 40
0.1999999999999993
 50
90
 51
180
  0
ARC
  8
1
 62
7
 10
0.1999999999999922
 20
-22.07817279741841
 30
0
 40
0.1999999999999922
 50
180
 51
270.0000000000022
  0
ARC
  8
1
 62
7
 10
0.2
 20
-40.4781727974184
 30
0
 40
0.2
 50
180
 51
270
  0
ARC
  8
1
 62
7
 10
0.1999999999999997
 20
-35.8781727974184
 30
0
 40
0.2000000000000028
 50
90
 51
180
  0
ENDSEC
  0
EOF
