  0
SECTION
  2
HEADER
  9
$ACADVER
  1
AC1009
  9
$INSBASE
 10
0
 20
0
  9
$EXTMIN
 10
-5.92e-12
 20
-36.9999999999956
  9
$EXTMAX
 10
30.900000000018
 20
38.9999999999919
  9
$LIMMIN
 10
-5.92e-12
 20
-36.9999999999956
  9
$LIMMAX
 10
30.900000000018
 20
38.9999999999919
  9
$VIEWCTR
 10
10
 20
10
  9
$VIEWSIZE
 40
10
  9
$SNAPMODE
 70
0
  9
$SNAPUNIT
 10
1
 20
1
  9
$SNAPBASE
 10
0
 20
0
  9
$SNAPANG
 50
0
  9
$SNAPSTYLE
 70
0
  9
$SNAPISOPAIR
 70
0
  9
$GRIDMODE
 70
0
  9
$GRIDUNIT
 10
0
 20
0
  9
$ORTHOMODE
 70
0
  9
$REGENMODE
 70
1
  9
$FILLMODE
 70
1
  9
$QTEXTMODE
 70
0
  9
$DRAGMODE
 70
2
  9
$LTSCALE
 40
1
  9
$OSMODE
 70
0
  9
$ATTMODE
 70
1
  9
$TEXTSIZE
 40
3.5
  9
$TRACEWID
 40
0.5
  9
$TEXTSTYLE
  7
STANDARD
  9
$CLAYER
  8
0
  9
$CELTYPE
  6
BYLAYER
  9
$CECOLOR
 62
256
  9
$DIMSCALE
 40
1
  9
$DIMASZ
 40
0.18
  9
$DIMEXO
 40
0.0625
  9
$DIMDLI
 40
0.38
  9
$DIMRND
 40
0
  9
$DIMDLE
 40
0
  9
$DIMEXE
 40
0.18
  9
$DIMTP
 40
0
  9
$DIMTM
 40
0
  9
$DIMTXT
 40
0.18
  9
$DIMCEN
 40
0.09
  9
$DIMTSZ
 40
0
  9
$DIMTOL
 70
0
  9
$DIMLIM
 70
0
  9
$DIMTIH
 70
1
  9
$DIMTOH
 70
1
  9
$DIMSE1
 70
0
  9
$DIMSE2
 70
0
  9
$DIMTAD
 70
0
  9
$DIMZIN
 70
0
  9
$DIMBLK
  1

  9
$DIMASO
 70
1
  9
$DIMSHO
 70
1
  9
$DIMPOST
  1

  9
$DIMAPOST
  1

  9
$DIMALT
 70
0
  9
$DIMALTD
 70
2
  9
$DIMALTF
 40
25.4
  9
$DIMLFAC
 40
1
  9
$DIMTOFL
 70
0
  9
$DIMTVP
 40
0
  9
$DIMTIX
 70
0
  9
$DIMSOXD
 70
0
  9
$DIMSAH
 70
0
  9
$DIMBLK1
  1

  9
$DIMBLK2
  1

  9
$DIMSTYLE
  2
*UNNAMED
  9
$DIMCLRD
 70
0
  9
$DIMCLRE
 70
0
  9
$DIMCLRT
 70
0
  9
$DIMTFAC
 40
1
  9
$DIMGAP
 40
0.09
  9
$LUNITS
 70
2
  9
$LUPREC
 70
4
  9
$AXISMODE
 70
0
  9
$AXISUNIT
 10
0
 20
0
  9
$SKETCHINC
 40
0.1
  9
$FILLETRAD
 40
2
  9
$AUNITS
 70
0
  9
$AUPREC
 70
0
  9
$MENU
  1
ACAD
  9
$ELEVATION
 40
0
  9
$THICKNESS
 40
0
  9
$VIEWDIR
 10
0
 20
0
 30
1
  9
$LIMCHECK
 70
0
  9
$BLIPMODE
 70
1
  9
$CHAMFERA
 40
0
  9
$CHAMFERB
 40
0
  9
$FASTZOOM
 70
1
  9
$SKPOLY
 70
0
  9
$ANGBASE
 50
0
  9
$ANGDIR
 70
0
  9
$PDMODE
 70
0
  9
$PDSIZE
 40
0
  9
$PLINEWID
 40
0
  9
$COORDS
 70
2
  0
ENDSEC
  0
SECTION
  2
TABLES
  0
TABLE
  2
DIMSTYLE
 70
0
  0
ENDTAB
  0
TABLE
  2
LTYPE
 70
9
  0
LTYPE
  2
CONTINUOUS
 70
64
  3
Solid line
 72
65
 73
0
 40
0
  0
LTYPE
  2
BORDER
 70
64
  3
__ __ . __ __ .
 72
65
 73
6
 40
3.499999999999424
 49
0.9999999999998355
 49
-0.4999999999999177
 49
0.9999999999998355
 49
-0.4999999999999177
 49
0
 49
-0.4999999999999177
  0
LTYPE
  2
CENTER
 70
64
  3
____ _ ____ _
 72
65
 73
4
 40
3.999999999999342
 49
2.499999999999589
 49
-0.4999999999999177
 49
0.4999999999999177
 49
-0.4999999999999177
  0
LTYPE
  2
DASHDOT
 70
64
  3
__ . __ . __ .
 72
65
 73
4
 40
1.999999999999671
 49
0.9999999999998355
 49
-0.4999999999999177
 49
0
 49
-0.4999999999999177
  0
LTYPE
  2
DASHED
 70
64
  3
__ __ __ __ __
 72
65
 73
2
 40
1.499999999999753
 49
0.9999999999998355
 49
-0.4999999999999177
  0
LTYPE
  2
DIVIDE
 70
64
  3
__ . . __ . . 
 72
65
 73
6
 40
2.499999999999589
 49
0.9999999999998355
 49
-0.4999999999999177
 49
0
 49
-0.4999999999999177
 49
0
 49
-0.4999999999999177
  0
LTYPE
  2
DOT
 70
64
  3
..............
 72
65
 73
4
 40
0.9999999999998355
 49
0
 49
-0.4999999999999177
 49
0
 49
-0.4999999999999177
  0
LTYPE
  2
HIDDEN
 70
64
  3
_ _ _ _ _ _ _
 72
65
 73
2
 40
0.7499999999998765
 49
0.4999999999999177
 49
-0.2499999999999589
  0
LTYPE
  2
PHANTOM
 70
64
  3
_____ _ _ _____ _ _ 
 72
65
 73
6
 40
4.999999999999178
 49
2.499999999999589
 49
-0.4999999999999177
 49
0.4999999999999177
 49
-0.4999999999999177
 49
0.4999999999999177
 49
-0.4999999999999177
  0
ENDTAB
  0
TABLE
  2
LAYER
 70
2
  0
LAYER
  2
0
 70
0
 62
7
  6
CONTINUOUS
  0
ENDTAB
  0
TABLE
  2
STYLE
 70
4
  0
STYLE
  2
STANDARD
 70
0
 40
0
 41
1
 50
0
 71
0
 42
3.5
  3
txt
  4

  0
STYLE
  2
SIMPLEX
 70
0
 40
0
 41
1
 50
0
 71
0
 42
3.5
  3
simplex
  4

  0
STYLE
  2
COMPLEX
 70
0
 40
0
 41
1
 50
0
 71
0
 42
3.5
  3
complex
  4

  0
STYLE
  2
ITALIC
 70
0
 40
0
 41
1
 50
0
 71
0
 42
3.5
  3
italic
  4

  0
ENDTAB
  0
TABLE
  2
VIEW
 70
0
  0
ENDTAB
  0
ENDSEC
  0
SECTION
  2
BLOCKS
  0
ENDSEC
  0
SECTION
  2
ENTITIES
  0
LINE
  8
0
 62
7
 10
21.9000000000102
 20
-36.9999999999956
 30
0
 11
21.9000000000102
 21
36.5000000000069
 31
0
  0
LINE
  8
0
 62
7
 10
19.90000000001008
 20
-36.9999999999956
 30
0
 11
19.9000000000112
 21
29.5000000000026
 31
0
  0
LINE
  8
0
 62
7
 10
19.9000000000103
 20
-22.7999999999974
 30
0
 11
8.20000000002354
 21
-22.8000000000013
 31
0
  0
LINE
  8
0
 62
7
 10
19.9000000000112
 20
29.5000000000026
 30
0
 11
19.9000000000102
 21
36.5000000000155
 31
0
  0
LINE
  8
0
 62
7
 10
-2.71e-12
 20
12.4276856893058
 30
0
 11
-3.8e-12
 21
12.4276856893039
 31
0
  0
LINE
  8
0
 62
7
 10
5.70000000000549
 20
-16.2441692371955
 30
0
 11
5.70000000000531
 21
-16.0999999999657
 31
0
  0
LINE
  8
0
 62
7
 10
5.70000000000345
 20
-8.04416923719446
 30
0
 11
5.70000000000327
 21
-7.89999999996461
 31
0
  0
LINE
  8
0
 62
7
 10
1.61658075371192
 20
-7.02768568927566
 30
0
 11
2.20510388304924
 21
-8.04703765071762
 31
0
  0
LINE
  8
0
 62
7
 10
-2.14e-12
 20
-12.4276856893023
 30
0
 11
2.20510388305086
 21
-16.2470376507189
 31
0
  0
LINE
  8
0
 62
7
 10
1.61658075370191
 20
-15.2276856892568
 30
0
 11
1.61658075370427
 21
-15.7999999999731
 31
0
  0
LINE
  8
0
 62
7
 10
1.6165807536927
 20
-23.4276856892389
 30
0
 11
2.20510388305138
 21
-24.4470376507191
 31
0
  0
LINE
  8
0
 62
7
 10
2.20510388304543
 20
24.4470376507158
 30
0
 11
-2.57e-12
 21
20.6276856893046
 31
0
  0
LINE
  8
0
 62
7
 10
4.9e-13
 20
7.59999999996743
 30
0
 11
-4.94e-12
 21
15.7999999999675
 31
0
  0
LINE
  8
0
 62
7
 10
-2.57e-12
 20
20.6276856893046
 30
0
 11
-5.92e-12
 21
23.9999999999675
 31
0
  0
LINE
  8
0
 62
7
 10
-4.94e-12
 20
15.7999999999675
 30
0
 11
-2.57e-12
 21
20.6276856893046
 31
0
  0
LINE
  8
0
 62
7
 10
3.17542648054655
 20
-13.0999999999731
 30
0
 11
-1.91e-12
 21
-7.59999999996865
 31
0
  0
LINE
  8
0
 62
7
 10
1.61658075371136
 20
-7.59999999998171
 30
0
 11
3.82168463674744
 21
-11.4193519613683
 31
0
  0
LINE
  8
0
 62
7
 10
1.61658075369214
 20
-23.9999999999687
 30
0
 11
3.82168463679303
 21
-27.8193519613724
 31
0
  0
LINE
  8
0
 62
7
 10
1.61658075369214
 20
-23.9999999999687
 30
0
 11
-1.3e-13
 21
-23.9999999999683
 31
0
  0
LINE
  8
0
 62
7
 10
3.17542648054659
 20
-29.4999999999762
 30
0
 11
-1.3e-13
 21
-23.9999999999683
 31
0
  0
LINE
  8
0
 62
7
 10
-4.7e-12
 20
-30.4999999999703
 30
0
 11
-1.3e-13
 21
-23.9999999999683
 31
0
  0
LINE
  8
0
 62
7
 10
7.12e-12
 20
-20.6276856893023
 30
0
 11
-2.82e-12
 21
-15.7999999999683
 31
0
  0
LINE
  8
0
 62
7
 10
-1.3e-13
 20
-23.9999999999683
 30
0
 11
7.12e-12
 21
-20.6276856893023
 31
0
  0
LINE
  8
0
 62
7
 10
1.61658075370427
 20
-15.7999999999731
 30
0
 11
-2.82e-12
 21
-15.7999999999683
 31
0
  0
LINE
  8
0
 62
7
 10
1.61658075370427
 20
-15.7999999999731
 30
0
 11
3.82168463680191
 21
-19.6193519613709
 31
0
  0
LINE
  8
0
 62
7
 10
3.1754264805455
 20
-21.2999999999747
 30
0
 11
-2.82e-12
 21
-15.7999999999683
 31
0
  0
LINE
  8
0
 62
7
 10
1.6165807536927
 20
-23.4276856892389
 30
0
 11
1.61658075369214
 21
-23.9999999999687
 31
0
  0
LINE
  8
0
 62
7
 10
7.12e-12
 20
-20.6276856893023
 30
0
 11
1.6165807536927
 21
-23.4276856892389
 31
0
  0
LINE
  8
0
 62
7
 10
-3.27e-12
 20
4.22768568930311
 30
0
 11
4.9e-13
 21
7.59999999996743
 31
0
  0
LINE
  8
0
 62
7
 10
1.6165807537292
 20
7.59999999996702
 30
0
 11
1.61658075372839
 21
7.0276856893055
 31
0
  0
LINE
  8
0
 62
7
 10
2.20510388304728
 20
8.047037650715669
 30
0
 11
-3.27e-12
 21
4.22768568930311
 31
0
  0
LINE
  8
0
 62
7
 10
3.82168463677244
 20
11.4193519613623
 30
0
 11
1.6165807537292
 21
7.59999999996702
 31
0
  0
LINE
  8
0
 62
7
 10
-2.82e-12
 20
-15.7999999999683
 30
0
 11
-1.91e-12
 21
-7.59999999996865
 31
0
  0
LINE
  8
0
 62
7
 10
1.61658075371136
 20
-7.59999999998171
 30
0
 11
-1.91e-12
 21
-7.59999999996865
 31
0
  0
LINE
  8
0
 62
7
 10
-1.91e-12
 20
-7.59999999996865
 30
0
 11
3.27e-12
 21
-4.22768568930311
 31
0
  0
LINE
  8
0
 62
7
 10
1.61658075371192
 20
-7.02768568927566
 30
0
 11
1.61658075371136
 21
-7.59999999998171
 31
0
  0
LINE
  8
0
 62
7
 10
3.27e-12
 20
-4.22768568930311
 30
0
 11
1.61658075371192
 21
-7.02768568927566
 31
0
  0
LINE
  8
0
 62
7
 10
3.27e-12
 20
-4.22768568930311
 30
0
 11
-3.27e-12
 21
4.22768568930311
 31
0
  0
LINE
  8
0
 62
7
 10
1.61658075373878
 20
15.799999999967
 30
0
 11
1.616580753738
 21
15.2276856893238
 31
0
  0
LINE
  8
0
 62
7
 10
2.2051038830463
 20
16.2470376507156
 30
0
 11
3.8216846367769
 21
16.2470376507165
 31
0
  0
LINE
  8
0
 62
7
 10
5.69999999999451
 20
27.8521380779762
 30
0
 11
3.82168463678952
 21
27.8193519613586
 31
0
  0
LINE
  8
0
 62
7
 10
3.82168463679303
 20
-27.8193519613724
 30
0
 11
5.70000000000836
 21
-27.8521380779917
 31
0
  0
LINE
  8
0
 62
7
 10
5.70000000000752
 20
-24.4441692371955
 30
0
 11
3.82168463673355
 21
-24.4470376507203
 31
0
  0
LINE
  8
0
 62
7
 10
5.70000000000864
 20
-29.4999999999766
 30
0
 11
3.17542648054659
 21
-29.4999999999762
 31
0
  0
LINE
  8
0
 62
7
 10
5.70000000000549
 20
-16.2441692371955
 30
0
 11
3.82168463680553
 21
-16.2470376507202
 31
0
  0
LINE
  8
0
 62
7
 10
3.82168463680191
 20
-19.6193519613709
 30
0
 11
5.70000000000632
 21
-19.65213807799
 31
0
  0
LINE
  8
0
 62
7
 10
5.7000000000066
 20
-21.2999999999751
 30
0
 11
3.1754264805455
 21
-21.2999999999747
 31
0
  0
LINE
  8
0
 62
7
 10
3.82168463674744
 20
-11.4193519613683
 30
0
 11
5.70000000000429
 21
-11.4521380779882
 31
0
  0
LINE
  8
0
 62
7
 10
5.70000000000345
 20
-8.04416923719446
 30
0
 11
3.82168463675103
 21
-8.04703765071921
 31
0
  0
LINE
  8
0
 62
7
 10
3.82168463755097
 20
8.0470376507152
 30
0
 11
5.69999999999944
 21
8.044169237190699
 31
0
  0
LINE
  8
0
 62
7
 10
5.69999999999934
 20
7.8999999999608
 30
0
 11
5.69999999999944
 21
8.044169237190699
 31
0
  0
LINE
  8
0
 62
7
 10
5.6999999999986
 20
11.4521380779796
 30
0
 11
3.82168463677244
 21
11.4193519613623
 31
0
  0
LINE
  8
0
 62
7
 10
5.69999999999934
 20
7.8999999999608
 30
0
 11
3.17542648054825
 21
7.89999999996146
 31
0
  0
LINE
  8
0
 62
7
 10
3.8216846367769
 20
16.2470376507165
 30
0
 11
5.6999999999974
 21
16.2441692371908
 31
0
  0
LINE
  8
0
 62
7
 10
5.6999999999973
 20
16.0999999999609
 30
0
 11
5.6999999999974
 21
16.2441692371908
 31
0
  0
LINE
  8
0
 62
7
 10
5.69999999999656
 20
19.6521380779779
 30
0
 11
3.82168463678054
 21
19.6193519613597
 31
0
  0
LINE
  8
0
 62
7
 10
5.69999999999526
 20
24.2999999999613
 30
0
 11
3.17542648054832
 21
24.2999999999619
 31
0
  0
LINE
  8
0
 62
7
 10
3.17542648054832
 20
24.2999999999619
 30
0
 11
3.17542648053871
 21
21.2999999999643
 31
0
  0
LINE
  8
0
 62
7
 10
3.17542648053871
 20
21.2999999999643
 30
0
 11
5.69999999999601
 21
21.2999999999634
 31
0
  0
LINE
  8
0
 62
7
 10
5.6999999999974
 20
16.2441692371908
 30
0
 11
5.69999999999601
 21
21.2999999999634
 31
0
  0
LINE
  8
0
 62
7
 10
5.6999999999973
 20
16.0999999999609
 30
0
 11
3.1754264805399
 21
16.0999999999616
 31
0
  0
LINE
  8
0
 62
7
 10
3.1754264805399
 20
16.0999999999616
 30
0
 11
3.17542648054058
 21
13.0999999999658
 31
0
  0
LINE
  8
0
 62
7
 10
3.17542648054058
 20
13.0999999999658
 30
0
 11
5.69999999999805
 21
13.0999999999649
 31
0
  0
LINE
  8
0
 62
7
 10
5.69999999999944
 20
8.044169237190699
 30
0
 11
5.69999999999805
 21
13.0999999999649
 31
0
  0
LINE
  8
0
 62
7
 10
3.17542648054825
 20
7.89999999996146
 30
0
 11
3.17542648054535
 21
-7.89999999996394
 31
0
  0
LINE
  8
0
 62
7
 10
3.17542648054535
 20
-7.89999999996394
 30
0
 11
5.70000000000327
 21
-7.89999999996461
 31
0
  0
LINE
  8
0
 62
7
 10
5.70000000000456
 20
-13.0999999999702
 30
0
 11
5.70000000000345
 21
-8.04416923719446
 31
0
  0
LINE
  8
0
 62
7
 10
5.70000000000456
 20
-13.0999999999702
 30
0
 11
3.17542648054655
 21
-13.0999999999731
 31
0
  0
LINE
  8
0
 62
7
 10
3.17542648054655
 20
-13.0999999999731
 30
0
 11
3.17542648054723
 21
-16.099999999965
 31
0
  0
LINE
  8
0
 62
7
 10
3.17542648054723
 20
-16.099999999965
 30
0
 11
5.70000000000531
 21
-16.0999999999657
 31
0
  0
LINE
  8
0
 62
7
 10
5.7000000000066
 20
-21.2999999999751
 30
0
 11
5.70000000000549
 21
-16.2441692371955
 31
0
  0
LINE
  8
0
 62
7
 10
3.1754264805455
 20
-21.2999999999747
 30
0
 11
3.17542648054909
 21
-24.2999999999649
 31
0
  0
LINE
  8
0
 62
7
 10
3.17542648054909
 20
-24.2999999999649
 30
0
 11
5.70000000000735
 21
-24.2999999999657
 31
0
  0
LINE
  8
0
 62
7
 10
5.70000000000864
 20
-29.4999999999766
 30
0
 11
5.70000000000735
 21
-24.2999999999657
 31
0
  0
LINE
  8
0
 62
7
 10
3.17542648054659
 20
-29.4999999999762
 30
0
 11
3.175426480553393
 21
-35.9999999999971
 31
0
  0
LINE
  8
0
 62
7
 10
5.69999999999536
 20
24.4441692371912
 30
0
 11
5.69999999999397
 21
29.4999999999619
 31
0
  0
LINE
  8
0
 62
7
 10
3.82168463673355
 20
-24.4470376507203
 30
0
 11
2.20510388305138
 21
-24.4470376507191
 31
0
  0
LINE
  8
0
 62
7
 10
2.20510388305138
 20
-24.4470376507191
 30
0
 11
3.17542648054909
 21
-24.2999999999649
 31
0
  0
LINE
  8
0
 62
7
 10
3.82168463680553
 20
-16.2470376507202
 30
0
 11
2.20510388305086
 21
-16.2470376507189
 31
0
  0
LINE
  8
0
 62
7
 10
2.20510388305086
 20
-16.2470376507189
 30
0
 11
3.17542648054723
 21
-16.099999999965
 31
0
  0
LINE
  8
0
 62
7
 10
3.82168463675103
 20
-8.04703765071921
 30
0
 11
2.20510388304924
 21
-8.04703765071762
 31
0
  0
LINE
  8
0
 62
7
 10
3.17542648054825
 20
7.89999999996146
 30
0
 11
2.20510388304728
 21
8.047037650715669
 31
0
  0
LINE
  8
0
 62
7
 10
2.20510388304924
 20
-8.04703765071762
 30
0
 11
3.17542648054535
 21
-7.89999999996394
 31
0
  0
LINE
  8
0
 62
7
 10
2.20510388304728
 20
8.047037650715669
 30
0
 11
3.82168463755097
 21
8.0470376507152
 31
0
  0
LINE
  8
0
 62
7
 10
3.1754264805399
 20
16.0999999999616
 30
0
 11
2.2051038830463
 21
16.2470376507156
 31
0
  0
LINE
  8
0
 62
7
 10
3.82168463678952
 20
27.8193519613586
 30
0
 11
1.61658075374841
 21
23.999999999967
 31
0
  0
LINE
  8
0
 62
7
 10
3.82168463678054
 20
19.6193519613597
 30
0
 11
1.61658075373878
 21
15.799999999967
 31
0
  0
LINE
  8
0
 62
7
 10
2.2051038830463
 20
16.2470376507156
 30
0
 11
-2.71e-12
 21
12.4276856893058
 31
0
  0
LINE
  8
0
 62
7
 10
4.9e-13
 20
7.59999999996743
 30
0
 11
3.17542648054058
 21
13.0999999999658
 31
0
  0
LINE
  8
0
 62
7
 10
4.9e-13
 20
7.59999999996743
 30
0
 11
1.6165807537292
 21
7.59999999996702
 31
0
  0
LINE
  8
0
 62
7
 10
-4.94e-12
 20
15.7999999999675
 30
0
 11
3.17542648053871
 21
21.2999999999643
 31
0
  0
LINE
  8
0
 62
7
 10
-4.94e-12
 20
15.7999999999675
 30
0
 11
1.61658075373878
 21
15.799999999967
 31
0
  0
LINE
  8
0
 62
7
 10
3.175426480554118
 20
35.99999999999566
 30
0
 11
1.497e-11
 21
30.5000000002978
 31
0
  0
LINE
  8
0
 62
7
 10
-5.92e-12
 20
23.9999999999675
 30
0
 11
1.497e-11
 21
30.5000000002978
 31
0
  0
LINE
  8
0
 62
7
 10
2.20510388304543
 20
24.4470376507158
 30
0
 11
3.82168463775121
 21
24.4470376507154
 31
0
  0
LINE
  8
0
 62
7
 10
5.69999999999526
 20
24.2999999999613
 30
0
 11
5.69999999999536
 21
24.4441692371912
 31
0
  0
LINE
  8
0
 62
7
 10
3.82168463775121
 20
24.4470376507154
 30
0
 11
5.69999999999536
 21
24.4441692371912
 31
0
  0
LINE
  8
0
 62
7
 10
1.61658075374841
 20
23.999999999967
 30
0
 11
1.61658075374763
 21
23.4276856893422
 31
0
  0
LINE
  8
0
 62
7
 10
3.17542648054832
 20
24.2999999999619
 30
0
 11
2.20510388304543
 21
24.4470376507158
 31
0
  0
LINE
  8
0
 62
7
 10
3.17542648053581
 20
34.0000000000021
 30
0
 11
19.9000000000105
 21
34.0000000000018
 31
0
  0
LINE
  8
0
 62
7
 10
3.175426480535348
 20
35.99999999999566
 30
0
 11
3.17542648053685
 21
29.4999999999628
 31
0
  0
LINE
  8
0
 62
7
 10
3.17542648053685
 20
29.4999999999628
 30
0
 11
5.69999999999397
 21
29.4999999999619
 31
0
  0
LINE
  8
0
 62
7
 10
-5.92e-12
 20
23.9999999999675
 30
0
 11
3.17542648053685
 21
29.4999999999628
 31
0
  0
LINE
  8
0
 62
7
 10
-5.92e-12
 20
23.9999999999675
 30
0
 11
1.61658075374841
 21
23.999999999967
 31
0
  0
LINE
  8
0
 62
7
 10
-4.7e-12
 20
-30.4999999999703
 30
0
 11
3.175426480555116
 21
-35.9999999999971
 31
0
  0
LINE
  8
0
 62
7
 10
19.9000000000101
 20
-35.9999999999995
 30
0
 11
3.175426480555116
 21
-35.9999999999971
 31
0
  0
LINE
  8
0
 62
7
 10
8.20000000002354
 20
-22.8000000000013
 30
0
 11
8.20000000007855
 21
29.4999999999987
 31
0
  0
LINE
  8
0
 62
7
 10
8.399999999996661
 20
38.9999999999919
 30
0
 11
5.69999999999677
 21
38.9999999999911
 31
0
  0
LINE
  8
0
 62
7
 10
5.69999999999677
 20
38.9999999999911
 30
0
 11
5.69999999999705
 21
37.799999999991
 31
0
  0
LINE
  8
0
 62
7
 10
5.69999999999705
 20
37.799999999991
 30
0
 11
7.19999999999686
 21
37.7999999999917
 31
0
  0
LINE
  8
0
 62
7
 10
7.19999999999629
 20
35.9999999999968
 30
0
 11
7.19999999999686
 21
37.7999999999917
 31
0
  0
LINE
  8
0
 62
7
 10
8.399999999996661
 20
38.9999999999919
 30
0
 11
8.399999999997339
 21
35.9999999999946
 31
0
  0
LINE
  8
0
 62
7
 10
3.175426480554118
 20
35.99999999999566
 30
0
 11
19.90000000001027
 21
35.99999999999228
 31
0
  0
LINE
  8
0
 62
7
 10
19.3000000000112
 20
38.9838184495731
 30
0
 11
11.5000000000112
 21
38.9838184495732
 31
0
  0
LINE
  8
0
 62
7
 10
19.3000000000112
 20
38.9847081438664
 30
0
 11
19.3000000000112
 21
35.9999999999924
 31
0
  0
LINE
  8
0
 62
7
 10
11.5000000000112
 20
38.9847081438665
 30
0
 11
19.3000000000112
 21
38.9847081438664
 31
0
  0
LINE
  8
0
 62
7
 10
11.5000000000112
 20
38.9847081438665
 30
0
 11
11.5000000000111
 21
35.999999999994
 31
0
  0
LINE
  8
0
 62
7
 10
8.20000000007855
 20
29.4999999999987
 30
0
 11
19.9000000000112
 21
29.5000000000026
 31
0
  0
LINE
  8
0
 62
7
 10
30.800000000018
 20
30.4999999999678
 30
0
 11
28.7792740578373
 21
34.0000000000069
 31
0
  0
LINE
  8
0
 62
7
 10
28.7792740578373
 20
34.0000000000069
 30
0
 11
27.6245735194581
 21
35.9999999999972
 31
0
  0
LINE
  8
0
 62
7
 10
27.6245735194581
 20
35.9999999999972
 30
0
 11
21.9000000000102
 21
35.9999999999972
 31
0
  0
LINE
  8
0
 62
7
 10
21.9000000000102
 20
34.0000000000069
 30
0
 11
28.7792740578373
 21
34.0000000000069
 31
0
  0
LINE
  8
0
 62
7
 10
30.900000000018
 20
30.4999999999775
 30
0
 11
30.800000000018
 21
30.4999999999678
 31
0
  0
LINE
  8
0
 62
7
 10
23.6000000000149
 20
37.7999999999918
 30
0
 11
23.6000000000137
 21
35.9999999999972
 31
0
  0
LINE
  8
0
 62
7
 10
25.1000000000149
 20
37.7999999999915
 30
0
 11
23.6000000000149
 21
37.7999999999918
 31
0
  0
LINE
  8
0
 62
7
 10
25.1000000000149
 20
38.9999999999915
 30
0
 11
25.1000000000149
 21
37.7999999999915
 31
0
  0
LINE
  8
0
 62
7
 10
22.400000000015
 20
35.9999999999995
 30
0
 11
22.400000000015
 21
38.9999999999918
 31
0
  0
LINE
  8
0
 62
7
 10
22.400000000015
 20
38.9999999999918
 30
0
 11
25.1000000000149
 21
38.9999999999915
 31
0
  0
LINE
  8
0
 62
7
 10
30.900000000018
 20
30.4999999999775
 30
0
 11
30.900000000018
 21
10.499999999977
 31
0
  0
LINE
  8
0
 62
7
 10
22.719229429848
 20
19.5000000000066
 30
0
 11
29.5771110937715
 21
19.5000000000066
 31
0
  0
LINE
  8
0
 62
7
 10
22.719229429848
 20
19.5000000000066
 30
0
 11
22.719229429848
 21
-9.999999999993429
 31
0
  0
LINE
  8
0
 62
7
 10
29.5771110937715
 20
-9.999999999996129
 30
0
 11
29.5771110937715
 21
19.5000000000066
 31
0
  0
LINE
  8
0
 62
7
 10
29.5771110937715
 20
-9.999999999996129
 30
0
 11
22.719229429848
 21
-9.999999999993429
 31
0
  0
LINE
  8
0
 62
7
 10
30.800000000018
 20
-21.0000000000163
 30
0
 11
22.8999999999968
 21
-36.0000000000163
 31
0
  0
LINE
  8
0
 62
7
 10
21.9000000000102
 20
-36.0000000000163
 30
0
 11
27.700000000018
 21
-36.0000000000163
 31
0
  0
LINE
  8
0
 62
7
 10
30.800000000018
 20
-32.9000000000163
 30
0
 11
30.800000000018
 21
10.4999999999769
 31
0
  0
LINE
  8
0
 62
7
 10
30.900000000018
 20
10.499999999977
 30
0
 11
30.800000000018
 21
10.4999999999769
 31
0
  0
LINE
  8
0
 62
7
 10
21.9000000000059
 20
-36.9999999999956
 30
0
 11
19.9000000000216
 21
-36.9999999999956
 31
0
  0
LINE
  8
0
 62
7
 10
21.9000000000102
 20
36.5000000000069
 30
0
 11
19.9000000000102
 21
36.5000000000155
 31
0
  0
ARC
  8
0
 62
7
 10
27.700000000018
 20
-32.9000000000163
 30
0
 40
3.100000000000001
 50
270
 51
0
  0
CIRCLE
  8
0
 62
7
 10
27.700000000018
 20
-32.9000000000163
 30
0
 40
1.349999999999397
  0
ENDSEC
  0
EOF
