  0
SECTION
  2
HEADER
  9
$ACADVER
  1
AC1009
  9
$INSBASE
 10
0
 20
0
  9
$EXTMIN
 10
-8.19e-12
 20
-39.4999999999974
  9
$EXTMAX
 10
30.9000000000158
 20
38.9999999999931
  9
$LIMMIN
 10
-8.19e-12
 20
-39.4999999999974
  9
$LIMMAX
 10
30.9000000000158
 20
38.9999999999931
  9
$VIEWCTR
 10
10
 20
10
  9
$VIEWSIZE
 40
10
  9
$SNAPMODE
 70
0
  9
$SNAPUNIT
 10
1
 20
1
  9
$SNAPBASE
 10
0
 20
0
  9
$SNAPANG
 50
0
  9
$SNAPSTYLE
 70
0
  9
$SNAPISOPAIR
 70
0
  9
$GRIDMODE
 70
0
  9
$GRIDUNIT
 10
0
 20
0
  9
$ORTHOMODE
 70
0
  9
$REGENMODE
 70
1
  9
$FILLMODE
 70
1
  9
$QTEXTMODE
 70
0
  9
$DRAGMODE
 70
2
  9
$LTSCALE
 40
1
  9
$OSMODE
 70
0
  9
$ATTMODE
 70
1
  9
$TEXTSIZE
 40
3.5
  9
$TRACEWID
 40
0.5
  9
$TEXTSTYLE
  7
STANDARD
  9
$CLAYER
  8
0
  9
$CELTYPE
  6
BYLAYER
  9
$CECOLOR
 62
256
  9
$DIMSCALE
 40
1
  9
$DIMASZ
 40
0.18
  9
$DIMEXO
 40
0.0625
  9
$DIMDLI
 40
0.38
  9
$DIMRND
 40
0
  9
$DIMDLE
 40
0
  9
$DIMEXE
 40
0.18
  9
$DIMTP
 40
0
  9
$DIMTM
 40
0
  9
$DIMTXT
 40
0.18
  9
$DIMCEN
 40
0.09
  9
$DIMTSZ
 40
0
  9
$DIMTOL
 70
0
  9
$DIMLIM
 70
0
  9
$DIMTIH
 70
1
  9
$DIMTOH
 70
1
  9
$DIMSE1
 70
0
  9
$DIMSE2
 70
0
  9
$DIMTAD
 70
0
  9
$DIMZIN
 70
0
  9
$DIMBLK
  1

  9
$DIMASO
 70
1
  9
$DIMSHO
 70
1
  9
$DIMPOST
  1

  9
$DIMAPOST
  1

  9
$DIMALT
 70
0
  9
$DIMALTD
 70
2
  9
$DIMALTF
 40
25.4
  9
$DIMLFAC
 40
1
  9
$DIMTOFL
 70
0
  9
$DIMTVP
 40
0
  9
$DIMTIX
 70
0
  9
$DIMSOXD
 70
0
  9
$DIMSAH
 70
0
  9
$DIMBLK1
  1

  9
$DIMBLK2
  1

  9
$DIMSTYLE
  2
*UNNAMED
  9
$DIMCLRD
 70
0
  9
$DIMCLRE
 70
0
  9
$DIMCLRT
 70
0
  9
$DIMTFAC
 40
1
  9
$DIMGAP
 40
0.09
  9
$LUNITS
 70
2
  9
$LUPREC
 70
4
  9
$AXISMODE
 70
0
  9
$AXISUNIT
 10
0
 20
0
  9
$SKETCHINC
 40
0.1
  9
$FILLETRAD
 40
2
  9
$AUNITS
 70
0
  9
$AUPREC
 70
0
  9
$MENU
  1
ACAD
  9
$ELEVATION
 40
0
  9
$THICKNESS
 40
0
  9
$VIEWDIR
 10
0
 20
0
 30
1
  9
$LIMCHECK
 70
0
  9
$BLIPMODE
 70
1
  9
$CHAMFERA
 40
0
  9
$CHAMFERB
 40
0
  9
$FASTZOOM
 70
1
  9
$SKPOLY
 70
0
  9
$ANGBASE
 50
0
  9
$ANGDIR
 70
0
  9
$PDMODE
 70
0
  9
$PDSIZE
 40
0
  9
$PLINEWID
 40
0
  9
$COORDS
 70
2
  0
ENDSEC
  0
SECTION
  2
TABLES
  0
TABLE
  2
DIMSTYLE
 70
0
  0
ENDTAB
  0
TABLE
  2
LTYPE
 70
9
  0
LTYPE
  2
CONTINUOUS
 70
64
  3
Solid line
 72
65
 73
0
 40
0
  0
LTYPE
  2
BORDER
 70
64
  3
__ __ . __ __ .
 72
65
 73
6
 40
3.615131578946931
 49
1.03289473684198
 49
-0.5164473684209901
 49
1.03289473684198
 49
-0.5164473684209901
 49
0
 49
-0.5164473684209901
  0
LTYPE
  2
CENTER
 70
64
  3
____ _ ____ _
 72
65
 73
4
 40
4.131578947367921
 49
2.582236842104951
 49
-0.5164473684209901
 49
0.5164473684209901
 49
-0.5164473684209901
  0
LTYPE
  2
DASHDOT
 70
64
  3
__ . __ . __ .
 72
65
 73
4
 40
2.065789473683961
 49
1.03289473684198
 49
-0.5164473684209901
 49
0
 49
-0.5164473684209901
  0
LTYPE
  2
DASHED
 70
64
  3
__ __ __ __ __
 72
65
 73
2
 40
1.549342105262971
 49
1.03289473684198
 49
-0.5164473684209901
  0
LTYPE
  2
DIVIDE
 70
64
  3
__ . . __ . . 
 72
65
 73
6
 40
2.582236842104951
 49
1.03289473684198
 49
-0.5164473684209901
 49
0
 49
-0.5164473684209901
 49
0
 49
-0.5164473684209901
  0
LTYPE
  2
DOT
 70
64
  3
..............
 72
65
 73
4
 40
1.03289473684198
 49
0
 49
-0.5164473684209901
 49
0
 49
-0.5164473684209901
  0
LTYPE
  2
HIDDEN
 70
64
  3
_ _ _ _ _ _ _
 72
65
 73
2
 40
0.7746710526314853
 49
0.5164473684209901
 49
-0.2582236842104951
  0
LTYPE
  2
PHANTOM
 70
64
  3
_____ _ _ _____ _ _ 
 72
65
 73
6
 40
5.164473684209901
 49
2.582236842104951
 49
-0.5164473684209901
 49
0.5164473684209901
 49
-0.5164473684209901
 49
0.5164473684209901
 49
-0.5164473684209901
  0
ENDTAB
  0
TABLE
  2
LAYER
 70
2
  0
LAYER
  2
0
 70
0
 62
7
  6
CONTINUOUS
  0
ENDTAB
  0
TABLE
  2
STYLE
 70
4
  0
STYLE
  2
STANDARD
 70
0
 40
0
 41
1
 50
0
 71
0
 42
3.5
  3
txt
  4

  0
STYLE
  2
SIMPLEX
 70
0
 40
0
 41
1
 50
0
 71
0
 42
3.5
  3
simplex
  4

  0
STYLE
  2
COMPLEX
 70
0
 40
0
 41
1
 50
0
 71
0
 42
3.5
  3
complex
  4

  0
STYLE
  2
ITALIC
 70
0
 40
0
 41
1
 50
0
 71
0
 42
3.5
  3
italic
  4

  0
ENDTAB
  0
TABLE
  2
VIEW
 70
0
  0
ENDTAB
  0
ENDSEC
  0
SECTION
  2
BLOCKS
  0
ENDSEC
  0
SECTION
  2
ENTITIES
  0
LINE
  8
0
 62
7
 10
21.900000000008
 20
-36.9999999999949
 30
0
 11
21.900000000008
 21
36.5000000000069
 31
0
  0
LINE
  8
0
 62
7
 10
16.7000000000051
 20
24.4273709138636
 30
0
 11
16.7000000000049
 21
24.2999999999585
 31
0
  0
LINE
  8
0
 62
7
 10
16.700000000006
 20
28.0441437921731
 30
0
 11
16.7000000000051
 21
24.4273709138636
 31
0
  0
LINE
  8
0
 62
7
 10
16.6999999999956
 20
-11.6441437921906
 30
0
 11
16.6999999999966
 21
-8.027370913872661
 31
0
  0
LINE
  8
0
 62
7
 10
16.6999999999966
 20
-8.027370913872661
 30
0
 11
16.6999999999965
 21
-7.89999999996757
 31
0
  0
LINE
  8
0
 62
7
 10
16.7000000000017
 20
11.6441437921764
 30
0
 11
16.7000000000008
 21
8.02737091386315
 31
0
  0
LINE
  8
0
 62
7
 10
9.9e-13
 20
-4.2276856893031
 30
0
 11
-9.9e-13
 21
4.2276856893031
 31
0
  0
LINE
  8
0
 62
7
 10
30.8000000000157
 20
-21.0000000000163
 30
0
 11
30.8000000000157
 21
10.499999999977
 31
0
  0
LINE
  8
0
 62
7
 10
16.7000000000029
 20
16.2273709138633
 30
0
 11
16.7000000000039
 21
19.8441437921748
 31
0
  0
LINE
  8
0
 62
7
 10
16.7000000000039
 20
19.8441437921748
 30
0
 11
16.7000000000041
 21
21.2999999999596
 31
0
  0
LINE
  8
0
 62
7
 10
16.6999999999944
 20
-16.2273709138737
 30
0
 11
16.6999999999943
 21
-16.0999999999686
 31
0
  0
LINE
  8
0
 62
7
 10
16.6999999999923
 20
-24.4273709138737
 30
0
 11
16.6999999999913
 21
-28.0441437921939
 31
0
  0
LINE
  8
0
 62
7
 10
16.6999999999913
 20
-28.0441437921939
 30
0
 11
16.6999999999908
 21
-29.4999999999786
 31
0
  0
LINE
  8
0
 62
7
 10
16.6999999999935
 20
-19.8441437921923
 30
0
 11
16.6999999999944
 21
-16.2273709138737
 31
0
  0
LINE
  8
0
 62
7
 10
16.7000000000008
 20
8.02737091386315
 30
0
 11
16.7000000000006
 21
7.89999999995803
 31
0
  0
LINE
  8
0
 62
7
 10
5.10000000000507
 20
-37.697056274843
 30
0
 11
4.15522237766444
 21
-37.6970562748431
 31
0
  0
LINE
  8
0
 62
7
 10
19.9000000000079
 20
36.5000000000162
 30
0
 11
19.9000000000078
 21
-39.4999999999953
 31
0
  0
LINE
  8
0
 62
7
 10
21.900000000008
 20
35.99999999999908
 30
0
 11
27.6245735194617
 21
36.0000000000005
 31
0
  0
LINE
  8
0
 62
7
 10
3.17542648055415
 20
36.0000000000017
 30
0
 11
1.27e-11
 21
30.5000000002921
 31
0
  0
LINE
  8
0
 62
7
 10
1.61658075374536
 20
23.4276856893422
 30
0
 11
-6.59e-12
 21
20.6276856893046
 31
0
  0
LINE
  8
0
 62
7
 10
1.61658075373573
 20
15.2276856893238
 30
0
 11
-6.08e-12
 21
12.4276856893039
 31
0
  0
LINE
  8
0
 62
7
 10
-6.08e-12
 20
12.4276856893039
 30
0
 11
-7.21e-12
 21
15.7999999999675
 31
0
  0
LINE
  8
0
 62
7
 10
-3.85e-12
 20
-20.6276856893016
 30
0
 11
-4.97e-12
 21
-15.7999999999655
 31
0
  0
LINE
  8
0
 62
7
 10
1.61658075369044
 20
-23.4276856892389
 30
0
 11
2.20510388304907
 21
-24.4470376507178
 31
0
  0
LINE
  8
0
 62
7
 10
1.61658075370005
 20
-15.2276856892573
 30
0
 11
2.20510388304859
 21
-16.247037650719
 31
0
  0
LINE
  8
0
 62
7
 10
21.900000000008
 20
-36.0000000000163
 30
0
 11
27.7000000000157
 21
-36.0000000000163
 31
0
  0
LINE
  8
0
 62
7
 10
1.61658075372613
 20
7.0276856893055
 30
0
 11
-9.9e-13
 21
4.2276856893031
 31
0
  0
LINE
  8
0
 62
7
 10
1.61658075370966
 20
-7.02768568927563
 30
0
 11
2.20510388304698
 21
-8.04703765071762
 31
0
  0
LINE
  8
0
 62
7
 10
5.10000000000483
 20
-38.2986876700445
 30
0
 11
19.9000000000079
 21
-38.2986876700424
 31
0
  0
LINE
  8
0
 62
7
 10
8.399999999995501
 20
35.9999999999956
 30
0
 11
8.39999999999432
 21
38.9999999999931
 31
0
  0
LINE
  8
0
 62
7
 10
7.1999999999946
 20
37.7999999999927
 30
0
 11
7.19999999999473
 21
35.9999999999952
 31
0
  0
LINE
  8
0
 62
7
 10
5.69999999999522
 20
37.7999999999911
 30
0
 11
7.1999999999946
 21
37.7999999999927
 31
0
  0
LINE
  8
0
 62
7
 10
3.17542648055415
 20
36.0000000000017
 30
0
 11
19.900000000008
 21
35.99999999997468
 31
0
  0
LINE
  8
0
 62
7
 10
11.5000000000089
 20
38.9847081438665
 30
0
 11
11.5000000000089
 21
38.9838184495732
 31
0
  0
LINE
  8
0
 62
7
 10
11.5000000000089
 20
38.9838184495732
 30
0
 11
11.5000000000089
 21
35.9999999999999
 31
0
  0
LINE
  8
0
 62
7
 10
19.300000000009
 20
38.9838184495731
 30
0
 11
19.3000000000089
 21
35.9999999999998
 31
0
  0
LINE
  8
0
 62
7
 10
19.300000000009
 20
38.9838184495731
 30
0
 11
11.5000000000089
 21
38.9838184495732
 31
0
  0
LINE
  8
0
 62
7
 10
19.300000000009
 20
38.9847081438664
 30
0
 11
19.300000000009
 21
38.9838184495731
 31
0
  0
LINE
  8
0
 62
7
 10
11.5000000000089
 20
38.9847081438665
 30
0
 11
19.300000000009
 21
38.9847081438664
 31
0
  0
LINE
  8
0
 62
7
 10
16.7000000000063
 20
29.4999999999581
 30
0
 11
3.17542648054736
 21
29.4999999999849
 31
0
  0
LINE
  8
0
 62
7
 10
3.175426480527412
 20
36.0000000000017
 30
0
 11
3.17542648054736
 21
29.4999999999849
 31
0
  0
LINE
  8
0
 62
7
 10
22.4000000000128
 20
35.9999999999995
 30
0
 11
22.4000000000127
 21
38.9999999999918
 31
0
  0
LINE
  8
0
 62
7
 10
23.6000000000126
 20
37.7999999999918
 30
0
 11
23.6000000000126
 21
35.9999999999995
 31
0
  0
LINE
  8
0
 62
7
 10
22.4000000000127
 20
38.9999999999918
 30
0
 11
25.1000000000126
 21
38.9999999999916
 31
0
  0
LINE
  8
0
 62
7
 10
25.1000000000126
 20
37.7999999999916
 30
0
 11
23.6000000000126
 21
37.7999999999918
 31
0
  0
LINE
  8
0
 62
7
 10
25.1000000000126
 20
38.9999999999916
 30
0
 11
25.1000000000126
 21
37.7999999999916
 31
0
  0
LINE
  8
0
 62
7
 10
21.900000000008
 20
36.5000000000069
 30
0
 11
19.9000000000079
 21
36.5000000000162
 31
0
  0
LINE
  8
0
 62
7
 10
3.82168463678726
 20
27.8193519613586
 30
0
 11
1.61658075374614
 21
23.999999999967
 31
0
  0
LINE
  8
0
 62
7
 10
3.17542648054606
 20
24.299999999962
 30
0
 11
16.7000000000049
 21
24.2999999999585
 31
0
  0
LINE
  8
0
 62
7
 10
-8.19e-12
 20
23.9999999999675
 30
0
 11
3.17542648054736
 21
29.4999999999849
 31
0
  0
LINE
  8
0
 62
7
 10
-8.19e-12
 20
23.9999999999675
 30
0
 11
1.61658075374614
 21
23.999999999967
 31
0
  0
LINE
  8
0
 62
7
 10
16.7000000000051
 20
24.4273709138636
 30
0
 11
3.82168463678337
 21
24.4470376507169
 31
0
  0
LINE
  8
0
 62
7
 10
2.20510388304316
 20
24.4470376507158
 30
0
 11
3.82168463678337
 21
24.4470376507169
 31
0
  0
LINE
  8
0
 62
7
 10
3.17542648054606
 20
24.299999999962
 30
0
 11
2.20510388304316
 21
24.4470376507158
 31
0
  0
LINE
  8
0
 62
7
 10
16.700000000006
 20
28.0441437921731
 30
0
 11
3.82168463678726
 21
27.8193519613586
 31
0
  0
LINE
  8
0
 62
7
 10
16.7000000000063
 20
29.4999999999581
 30
0
 11
16.700000000006
 21
28.0441437921731
 31
0
  0
LINE
  8
0
 62
7
 10
-8.19e-12
 20
23.9999999999675
 30
0
 11
1.27e-11
 21
30.5000000002921
 31
0
  0
LINE
  8
0
 62
7
 10
3.82168463674518
 20
-11.4193519613682
 30
0
 11
16.6999999999956
 21
-11.6441437921906
 31
0
  0
LINE
  8
0
 62
7
 10
3.82168463681216
 20
-8.047037650719091
 30
0
 11
2.20510388304698
 21
-8.04703765071762
 31
0
  0
LINE
  8
0
 62
7
 10
16.6999999999951
 20
-13.0999999999755
 30
0
 11
3.17542648055104
 21
-13.0999999999731
 31
0
  0
LINE
  8
0
 62
7
 10
3.17542648055104
 20
-13.0999999999731
 30
0
 11
1.78e-12
 21
-7.59999999996828
 31
0
  0
LINE
  8
0
 62
7
 10
1.61658075370909
 20
-7.59999999998169
 30
0
 11
3.82168463674518
 21
-11.4193519613682
 31
0
  0
LINE
  8
0
 62
7
 10
-4.41e-12
 20
-12.4276856893023
 30
0
 11
1.78e-12
 21
-7.59999999996828
 31
0
  0
LINE
  8
0
 62
7
 10
16.6999999999966
 20
-8.027370913872661
 30
0
 11
3.82168463681216
 21
-8.047037650719091
 31
0
  0
LINE
  8
0
 62
7
 10
16.6999999999965
 20
-7.89999999996757
 30
0
 11
3.17542648054285
 21
-7.89999999996395
 31
0
  0
LINE
  8
0
 62
7
 10
1.61658075370909
 20
-7.59999999998169
 30
0
 11
1.78e-12
 21
-7.59999999996828
 31
0
  0
LINE
  8
0
 62
7
 10
1.61658075370966
 20
-7.02768568927563
 30
0
 11
1.61658075370909
 21
-7.59999999998169
 31
0
  0
LINE
  8
0
 62
7
 10
3.175426480546
 20
7.89999999996147
 30
0
 11
3.17542648054285
 21
-7.89999999996395
 31
0
  0
LINE
  8
0
 62
7
 10
-9.9e-13
 20
4.2276856893031
 30
0
 11
-6.22e-12
 21
7.59999999996745
 31
0
  0
LINE
  8
0
 62
7
 10
1.61658075372691
 20
7.59999999996702
 30
0
 11
1.61658075372613
 21
7.0276856893055
 31
0
  0
LINE
  8
0
 62
7
 10
-6.22e-12
 20
7.59999999996745
 30
0
 11
1.61658075372691
 21
7.59999999996702
 31
0
  0
LINE
  8
0
 62
7
 10
2.20510388304502
 20
8.047037650715639
 30
0
 11
1.61658075372613
 21
7.0276856893055
 31
0
  0
LINE
  8
0
 62
7
 10
3.82168463676955
 20
11.4193519613612
 30
0
 11
1.61658075372691
 21
7.59999999996702
 31
0
  0
LINE
  8
0
 62
7
 10
16.7000000000017
 20
11.6441437921764
 30
0
 11
3.82168463676955
 21
11.4193519613612
 31
0
  0
LINE
  8
0
 62
7
 10
1.78e-12
 20
-7.59999999996828
 30
0
 11
9.9e-13
 21
-4.2276856893031
 31
0
  0
LINE
  8
0
 62
7
 10
9.9e-13
 20
-4.2276856893031
 30
0
 11
1.61658075370966
 21
-7.02768568927563
 31
0
  0
LINE
  8
0
 62
7
 10
2.20510388304698
 20
-8.04703765071762
 30
0
 11
3.17542648054285
 21
-7.89999999996395
 31
0
  0
LINE
  8
0
 62
7
 10
16.6999999999951
 20
-13.0999999999755
 30
0
 11
16.6999999999956
 21
-11.6441437921906
 31
0
  0
LINE
  8
0
 62
7
 10
8.39999999999432
 20
38.9999999999931
 30
0
 11
5.6999999999945
 21
38.999999999992
 31
0
  0
LINE
  8
0
 62
7
 10
5.69999999999522
 20
37.7999999999911
 30
0
 11
5.6999999999945
 21
38.999999999992
 31
0
  0
LINE
  8
0
 62
7
 10
30.9000000000158
 20
30.4999999999775
 30
0
 11
30.8000000000159
 21
30.4999999999708
 31
0
  0
LINE
  8
0
 62
7
 10
30.9000000000158
 20
30.4999999999775
 30
0
 11
30.9000000000158
 21
10.499999999977
 31
0
  0
LINE
  8
0
 62
7
 10
29.5771110937692
 20
-9.999999999993429
 30
0
 11
22.7192294298458
 21
-9.99999999999342
 31
0
  0
LINE
  8
0
 62
7
 10
30.8000000000157
 20
-21.0000000000163
 30
0
 11
22.8999999999941
 21
-36.0000000000163
 31
0
  0
LINE
  8
0
 62
7
 10
30.8000000000157
 20
-32.9000000000163
 30
0
 11
30.8000000000157
 21
-21.0000000000163
 31
0
  0
LINE
  8
0
 62
7
 10
22.7192294298458
 20
19.5000000000066
 30
0
 11
22.7192294298458
 21
-9.99999999999342
 31
0
  0
LINE
  8
0
 62
7
 10
29.5771110937692
 20
-9.999999999993429
 30
0
 11
29.5771110937692
 21
19.5000000000066
 31
0
  0
LINE
  8
0
 62
7
 10
30.9000000000158
 20
10.499999999977
 30
0
 11
30.8000000000157
 21
10.499999999977
 31
0
  0
LINE
  8
0
 62
7
 10
3.82168463677463
 20
16.2470376507165
 30
0
 11
16.7000000000029
 21
16.2273709138633
 31
0
  0
LINE
  8
0
 62
7
 10
3.17542648053997
 20
16.0999999999612
 30
0
 11
16.7000000000028
 21
16.0999999999581
 31
0
  0
LINE
  8
0
 62
7
 10
16.7000000000028
 20
16.0999999999581
 30
0
 11
16.7000000000029
 21
16.2273709138633
 31
0
  0
LINE
  8
0
 62
7
 10
3.17542648053997
 20
16.0999999999612
 30
0
 11
2.20510388304402
 21
16.2470376507156
 31
0
  0
LINE
  8
0
 62
7
 10
-6.59e-12
 20
20.6276856893046
 30
0
 11
-8.19e-12
 21
23.9999999999675
 31
0
  0
LINE
  8
0
 62
7
 10
1.61658075374614
 20
23.999999999967
 30
0
 11
1.61658075374536
 21
23.4276856893422
 31
0
  0
LINE
  8
0
 62
7
 10
-7.21e-12
 20
15.7999999999675
 30
0
 11
3.17542648053668
 21
21.2999999999647
 31
0
  0
LINE
  8
0
 62
7
 10
3.17542648054606
 20
24.299999999962
 30
0
 11
3.17542648053668
 21
21.2999999999647
 31
0
  0
LINE
  8
0
 62
7
 10
2.20510388304316
 20
24.4470376507158
 30
0
 11
1.61658075374536
 21
23.4276856893422
 31
0
  0
LINE
  8
0
 62
7
 10
-7.21e-12
 20
15.7999999999675
 30
0
 11
-6.59e-12
 21
20.6276856893046
 31
0
  0
LINE
  8
0
 62
7
 10
-7.21e-12
 20
15.7999999999675
 30
0
 11
1.61658075373651
 21
15.799999999967
 31
0
  0
LINE
  8
0
 62
7
 10
3.82168463677829
 20
19.6193519613597
 30
0
 11
1.61658075373651
 21
15.799999999967
 31
0
  0
LINE
  8
0
 62
7
 10
16.7000000000039
 20
19.8441437921748
 30
0
 11
3.82168463677829
 21
19.6193519613597
 31
0
  0
LINE
  8
0
 62
7
 10
16.7000000000041
 20
21.2999999999596
 30
0
 11
3.17542648053668
 21
21.2999999999647
 31
0
  0
LINE
  8
0
 62
7
 10
3.17542648054434
 20
-29.4999999999762
 30
0
 11
3.175426480551129
 21
-35.9999999999995
 31
0
  0
LINE
  8
0
 62
7
 10
-6.69e-12
 20
-30.499999999921
 30
0
 11
-2.39e-12
 21
-23.9999999999683
 31
0
  0
LINE
  8
0
 62
7
 10
3.17542648054434
 20
-29.4999999999762
 30
0
 11
-2.39e-12
 21
-23.9999999999683
 31
0
  0
LINE
  8
0
 62
7
 10
3.17542648054616
 20
-21.2999999999696
 30
0
 11
-4.97e-12
 21
-15.7999999999655
 31
0
  0
LINE
  8
0
 62
7
 10
1.61658075369949
 20
-15.7999999999789
 30
0
 11
-4.97e-12
 21
-15.7999999999655
 31
0
  0
LINE
  8
0
 62
7
 10
-2.39e-12
 20
-23.9999999999683
 30
0
 11
-3.85e-12
 21
-20.6276856893016
 31
0
  0
LINE
  8
0
 62
7
 10
1.61658075368988
 20
-23.9999999999688
 30
0
 11
-2.39e-12
 21
-23.9999999999683
 31
0
  0
LINE
  8
0
 62
7
 10
-3.85e-12
 20
-20.6276856893016
 30
0
 11
1.61658075369044
 21
-23.4276856892389
 31
0
  0
LINE
  8
0
 62
7
 10
3.82168463674002
 20
-16.2470376507203
 30
0
 11
2.20510388304859
 21
-16.247037650719
 31
0
  0
LINE
  8
0
 62
7
 10
1.61658075370005
 20
-15.2276856892573
 30
0
 11
1.61658075369949
 21
-15.7999999999789
 31
0
  0
LINE
  8
0
 62
7
 10
2.20510388304859
 20
-16.247037650719
 30
0
 11
3.17542648054496
 21
-16.099999999965
 31
0
  0
LINE
  8
0
 62
7
 10
1.61658075369949
 20
-15.7999999999789
 30
0
 11
3.82168463673644
 21
-19.6193519613698
 31
0
  0
LINE
  8
0
 62
7
 10
16.6999999999944
 20
-16.2273709138737
 30
0
 11
3.82168463674002
 21
-16.2470376507203
 31
0
  0
LINE
  8
0
 62
7
 10
3.17542648054434
 20
-29.4999999999762
 30
0
 11
16.6999999999908
 21
-29.4999999999786
 31
0
  0
LINE
  8
0
 62
7
 10
1.61658075369044
 20
-23.4276856892389
 30
0
 11
1.61658075368988
 21
-23.9999999999688
 31
0
  0
LINE
  8
0
 62
7
 10
3.17542648054616
 20
-21.2999999999696
 30
0
 11
3.17542648054684
 21
-24.299999999965
 31
0
  0
LINE
  8
0
 62
7
 10
16.6999999999922
 20
-24.2999999999686
 30
0
 11
3.17542648054684
 21
-24.299999999965
 31
0
  0
LINE
  8
0
 62
7
 10
3.82168463673128
 20
-24.4470376507202
 30
0
 11
2.20510388304907
 21
-24.4470376507178
 31
0
  0
LINE
  8
0
 62
7
 10
2.20510388304907
 20
-24.4470376507178
 30
0
 11
3.17542648054684
 21
-24.299999999965
 31
0
  0
LINE
  8
0
 62
7
 10
1.61658075368988
 20
-23.9999999999688
 30
0
 11
3.82168463679078
 21
-27.8193519613724
 31
0
  0
LINE
  8
0
 62
7
 10
16.6999999999923
 20
-24.4273709138737
 30
0
 11
3.82168463673128
 21
-24.4470376507202
 31
0
  0
LINE
  8
0
 62
7
 10
3.17542648054616
 20
-21.2999999999696
 30
0
 11
16.699999999993
 21
-21.2999999999771
 31
0
  0
LINE
  8
0
 62
7
 10
16.6999999999913
 20
-28.0441437921939
 30
0
 11
3.82168463679078
 21
-27.8193519613724
 31
0
  0
LINE
  8
0
 62
7
 10
16.6999999999922
 20
-24.2999999999686
 30
0
 11
16.6999999999923
 21
-24.4273709138737
 31
0
  0
LINE
  8
0
 62
7
 10
3.82168463673644
 20
-19.6193519613698
 30
0
 11
16.6999999999935
 21
-19.8441437921923
 31
0
  0
LINE
  8
0
 62
7
 10
16.6999999999943
 20
-16.0999999999686
 30
0
 11
3.17542648054496
 21
-16.099999999965
 31
0
  0
LINE
  8
0
 62
7
 10
16.699999999993
 20
-21.2999999999771
 30
0
 11
16.6999999999935
 21
-19.8441437921923
 31
0
  0
LINE
  8
0
 62
7
 10
3.17542648055104
 20
-13.0999999999731
 30
0
 11
3.17542648054496
 21
-16.099999999965
 31
0
  0
LINE
  8
0
 62
7
 10
-4.41e-12
 20
-12.4276856893023
 30
0
 11
1.61658075370005
 21
-15.2276856892573
 31
0
  0
LINE
  8
0
 62
7
 10
-4.97e-12
 20
-15.7999999999655
 30
0
 11
-4.41e-12
 21
-12.4276856893023
 31
0
  0
LINE
  8
0
 62
7
 10
22.7192294298458
 20
19.5000000000066
 30
0
 11
29.5771110937692
 21
19.5000000000066
 31
0
  0
LINE
  8
0
 62
7
 10
30.8000000000159
 20
30.4999999999708
 30
0
 11
27.6245735194617
 21
36.0000000000005
 31
0
  0
LINE
  8
0
 62
7
 10
-6.69e-12
 20
-30.499999999921
 30
0
 11
3.17542648055345
 21
-35.9999999999995
 31
0
  0
LINE
  8
0
 62
7
 10
2.20510388304402
 20
16.2470376507156
 30
0
 11
3.82168463677463
 21
16.2470376507165
 31
0
  0
LINE
  8
0
 62
7
 10
-6.22e-12
 20
7.59999999996745
 30
0
 11
-6.08e-12
 21
12.4276856893039
 31
0
  0
LINE
  8
0
 62
7
 10
1.61658075373651
 20
15.799999999967
 30
0
 11
1.61658075373573
 21
15.2276856893238
 31
0
  0
LINE
  8
0
 62
7
 10
3.17542648053997
 20
16.0999999999612
 30
0
 11
3.17542648053899
 21
13.0999999999658
 31
0
  0
LINE
  8
0
 62
7
 10
16.700000000002
 20
13.0999999999611
 30
0
 11
16.7000000000017
 21
11.6441437921764
 31
0
  0
LINE
  8
0
 62
7
 10
3.175426480546
 20
7.89999999996147
 30
0
 11
2.20510388304502
 21
8.047037650715639
 31
0
  0
LINE
  8
0
 62
7
 10
2.20510388304502
 20
8.047037650715639
 30
0
 11
3.82168463754871
 21
8.047037650715209
 31
0
  0
LINE
  8
0
 62
7
 10
3.82168463754871
 20
8.047037650715209
 30
0
 11
16.7000000000008
 21
8.02737091386315
 31
0
  0
LINE
  8
0
 62
7
 10
3.175426480546
 20
7.89999999996147
 30
0
 11
16.7000000000006
 21
7.89999999995803
 31
0
  0
LINE
  8
0
 62
7
 10
16.700000000002
 20
13.0999999999611
 30
0
 11
3.17542648053899
 21
13.0999999999658
 31
0
  0
LINE
  8
0
 62
7
 10
-6.22e-12
 20
7.59999999996745
 30
0
 11
3.17542648053899
 21
13.0999999999658
 31
0
  0
LINE
  8
0
 62
7
 10
2.20510388304402
 20
16.2470376507156
 30
0
 11
1.61658075373573
 21
15.2276856893238
 31
0
  0
LINE
  8
0
 62
7
 10
5.10000000000507
 20
-37.697056274843
 30
0
 11
5.10000000000519
 21
-39.4999999999974
 31
0
  0
LINE
  8
0
 62
7
 10
3.17542648055345
 20
-35.9999999999995
 30
0
 11
19.9000000000079
 21
-36.0000000000072
 31
0
  0
LINE
  8
0
 62
7
 10
3.17542648055345
 20
-35.9999999999995
 30
0
 11
4.15522237766444
 21
-37.6970562748431
 31
0
  0
LINE
  8
0
 62
7
 10
19.9000000000079
 20
-37.6970562748406
 30
0
 11
5.10000000000507
 21
-37.697056274843
 31
0
  0
LINE
  8
0
 62
7
 10
21.900000000008
 20
-36.9999999999949
 30
0
 11
19.9000000000079
 21
-37.0000000000056
 31
0
  0
LINE
  8
0
 62
7
 10
5.10000000000486
 20
-38.4999999999974
 30
0
 11
19.9000000000078
 21
-38.4999999999952
 31
0
  0
LINE
  8
0
 62
7
 10
5.10000000000519
 20
-39.4999999999974
 30
0
 11
19.9000000000078
 21
-39.4999999999953
 31
0
  0
ARC
  8
0
 62
7
 10
27.7000000000152
 20
-32.9000000000185
 30
0
 40
3.099999999997799
 50
270.0000000000092
 51
4.071109992272646e-11
  0
CIRCLE
  8
0
 62
7
 10
27.7000000000152
 20
-32.9000000000185
 30
0
 40
1.349999999999998
  0
ENDSEC
  0
EOF
