  0
SECTION
  2
HEADER
  9
$ACADVER
  1
AC1009
  9
$INSBASE
 10
0
 20
0
  9
$EXTMIN
 10
0
 20
-62.00000000000006
  9
$EXTMAX
 10
126
 20
0
  9
$LIMMIN
 10
0
 20
-62.00000000000006
  9
$LIMMAX
 10
126
 20
0
  9
$VIEWCTR
 10
10
 20
10
  9
$VIEWSIZE
 40
10
  9
$SNAPMODE
 70
0
  9
$SNAPUNIT
 10
1
 20
1
  9
$SNAPBASE
 10
0
 20
0
  9
$SNAPANG
 50
0
  9
$SNAPSTYLE
 70
0
  9
$SNAPISOPAIR
 70
0
  9
$GRIDMODE
 70
0
  9
$GRIDUNIT
 10
0
 20
0
  9
$ORTHOMODE
 70
0
  9
$REGENMODE
 70
1
  9
$FILLMODE
 70
1
  9
$QTEXTMODE
 70
0
  9
$DRAGMODE
 70
2
  9
$LTSCALE
 40
1
  9
$OSMODE
 70
0
  9
$ATTMODE
 70
1
  9
$TEXTSIZE
 40
3.5
  9
$TRACEWID
 40
0.5
  9
$TEXTSTYLE
  7
STANDARD
  9
$CLAYER
  8
0
  9
$CELTYPE
  6
BYLAYER
  9
$CECOLOR
 62
256
  9
$DIMSCALE
 40
1
  9
$DIMASZ
 40
0.18
  9
$DIMEXO
 40
0.0625
  9
$DIMDLI
 40
0.38
  9
$DIMRND
 40
0
  9
$DIMDLE
 40
0
  9
$DIMEXE
 40
0.18
  9
$DIMTP
 40
0
  9
$DIMTM
 40
0
  9
$DIMTXT
 40
0.18
  9
$DIMCEN
 40
0.09
  9
$DIMTSZ
 40
0
  9
$DIMTOL
 70
0
  9
$DIMLIM
 70
0
  9
$DIMTIH
 70
1
  9
$DIMTOH
 70
1
  9
$DIMSE1
 70
0
  9
$DIMSE2
 70
0
  9
$DIMTAD
 70
0
  9
$DIMZIN
 70
0
  9
$DIMBLK
  1

  9
$DIMASO
 70
1
  9
$DIMSHO
 70
1
  9
$DIMPOST
  1

  9
$DIMAPOST
  1

  9
$DIMALT
 70
0
  9
$DIMALTD
 70
2
  9
$DIMALTF
 40
25.4
  9
$DIMLFAC
 40
1
  9
$DIMTOFL
 70
0
  9
$DIMTVP
 40
0
  9
$DIMTIX
 70
0
  9
$DIMSOXD
 70
0
  9
$DIMSAH
 70
0
  9
$DIMBLK1
  1

  9
$DIMBLK2
  1

  9
$DIMSTYLE
  2
*UNNAMED
  9
$DIMCLRD
 70
0
  9
$DIMCLRE
 70
0
  9
$DIMCLRT
 70
0
  9
$DIMTFAC
 40
1
  9
$DIMGAP
 40
0.09
  9
$LUNITS
 70
2
  9
$LUPREC
 70
4
  9
$AXISMODE
 70
0
  9
$AXISUNIT
 10
0
 20
0
  9
$SKETCHINC
 40
0.1
  9
$FILLETRAD
 40
2
  9
$AUNITS
 70
0
  9
$AUPREC
 70
0
  9
$MENU
  1
ACAD
  9
$ELEVATION
 40
0
  9
$THICKNESS
 40
0
  9
$VIEWDIR
 10
0
 20
0
 30
1
  9
$LIMCHECK
 70
0
  9
$BLIPMODE
 70
1
  9
$CHAMFERA
 40
0
  9
$CHAMFERB
 40
0
  9
$FASTZOOM
 70
1
  9
$SKPOLY
 70
0
  9
$ANGBASE
 50
0
  9
$ANGDIR
 70
0
  9
$PDMODE
 70
0
  9
$PDSIZE
 40
0
  9
$PLINEWID
 40
0
  9
$COORDS
 70
2
  0
ENDSEC
  0
SECTION
  2
TABLES
  0
TABLE
  2
DIMSTYLE
 70
0
  0
ENDTAB
  0
TABLE
  2
LTYPE
 70
9
  0
LTYPE
  2
CONTINUOUS
 70
64
  3
Solid line
 72
65
 73
0
 40
0
  0
LTYPE
  2
BORDER
 70
64
  3
__ __ . __ __ .
 72
65
 73
6
 40
5.802631578947368
 49
1.657894736842105
 49
-0.8289473684210527
 49
1.657894736842105
 49
-0.8289473684210527
 49
0
 49
-0.8289473684210527
  0
LTYPE
  2
CENTER
 70
64
  3
____ _ ____ _
 72
65
 73
4
 40
6.631578947368421
 49
4.144736842105264
 49
-0.8289473684210527
 49
0.8289473684210527
 49
-0.8289473684210527
  0
LTYPE
  2
DASHDOT
 70
64
  3
__ . __ . __ .
 72
65
 73
4
 40
3.315789473684211
 49
1.657894736842105
 49
-0.8289473684210527
 49
0
 49
-0.8289473684210527
  0
LTYPE
  2
DASHED
 70
64
  3
__ __ __ __ __
 72
65
 73
2
 40
2.486842105263158
 49
1.657894736842105
 49
-0.8289473684210527
  0
LTYPE
  2
DIVIDE
 70
64
  3
__ . . __ . . 
 72
65
 73
6
 40
4.144736842105264
 49
1.657894736842105
 49
-0.8289473684210527
 49
0
 49
-0.8289473684210527
 49
0
 49
-0.8289473684210527
  0
LTYPE
  2
DOT
 70
64
  3
..............
 72
65
 73
4
 40
1.657894736842105
 49
0
 49
-0.8289473684210527
 49
0
 49
-0.8289473684210527
  0
LTYPE
  2
HIDDEN
 70
64
  3
_ _ _ _ _ _ _
 72
65
 73
2
 40
1.243421052631579
 49
0.8289473684210527
 49
-0.4144736842105263
  0
LTYPE
  2
PHANTOM
 70
64
  3
_____ _ _ _____ _ _ 
 72
65
 73
6
 40
8.289473684210527
 49
4.144736842105264
 49
-0.8289473684210527
 49
0.8289473684210527
 49
-0.8289473684210527
 49
0.8289473684210527
 49
-0.8289473684210527
  0
ENDTAB
  0
TABLE
  2
LAYER
 70
2
  0
LAYER
  2
0
 70
0
 62
7
  6
CONTINUOUS
  0
ENDTAB
  0
TABLE
  2
STYLE
 70
4
  0
STYLE
  2
STANDARD
 70
0
 40
0
 41
1
 50
0
 71
0
 42
3.5
  3
txt
  4

  0
STYLE
  2
SIMPLEX
 70
0
 40
0
 41
1
 50
0
 71
0
 42
3.5
  3
simplex
  4

  0
STYLE
  2
COMPLEX
 70
0
 40
0
 41
1
 50
0
 71
0
 42
3.5
  3
complex
  4

  0
STYLE
  2
ITALIC
 70
0
 40
0
 41
1
 50
0
 71
0
 42
3.5
  3
italic
  4

  0
ENDTAB
  0
TABLE
  2
VIEW
 70
0
  0
ENDTAB
  0
ENDSEC
  0
SECTION
  2
BLOCKS
  0
ENDSEC
  0
SECTION
  2
ENTITIES
  0
LINE
  8
0
 62
7
 10
12.53430086408136
 20
-53.03490481287463
 30
0
 11
12.51684579915323
 21
-54.03490481287463
 31
0
  0
LINE
  8
0
 62
7
 10
50.48315420084677
 20
-54.03490481287463
 30
0
 11
50.46569913591853
 21
-53.03490481287463
 31
0
  0
LINE
  8
0
 62
7
 10
12.51684579915323
 20
-54.03490481287463
 30
0
 11
12.49999999999997
 21
-54.99999999999994
 31
0
  0
LINE
  8
0
 62
7
 10
60.99999999999986
 20
-54.03490481287463
 30
0
 11
60.99999999999986
 21
-55.00000000000006
 31
0
  0
LINE
  8
0
 62
7
 10
60.99999999999986
 20
-55.00000000000006
 30
0
 11
64.49999999999986
 21
-55.00000000000006
 31
0
  0
LINE
  8
0
 62
7
 10
64.49999999999986
 20
-54.03490481287463
 30
0
 11
64.49999999999986
 21
-55.00000000000006
 31
0
  0
LINE
  8
0
 62
7
 10
97.60473038956943
 20
-62.00000000000006
 30
0
 11
97.50000000000026
 21
-56.00000000000006
 31
0
  0
LINE
  8
0
 62
7
 10
97.60473038956943
 20
-62.00000000000006
 30
0
 11
113.3952696104305
 21
-62.00000000000006
 31
0
  0
LINE
  8
0
 62
7
 10
113.3952696104305
 20
-62.00000000000006
 30
0
 11
113.4999999999999
 21
-56.00000000000006
 31
0
  0
LINE
  8
0
 62
7
 10
97.50000000000026
 20
-56.00000000000006
 30
0
 11
113.4999999999999
 21
-56.00000000000006
 31
0
  0
LINE
  8
0
 62
7
 10
91.49999999999946
 20
-56.00000000000006
 30
0
 11
97.50000000000026
 21
-56.00000000000006
 31
0
  0
LINE
  8
0
 62
7
 10
113.5
 20
-55.00000000000006
 30
0
 11
113.4999999999999
 21
-56.00000000000006
 31
0
  0
LINE
  8
0
 62
7
 10
75.49999999999986
 20
-56.00000000000006
 30
0
 11
91.49999999999946
 21
-56.00000000000006
 31
0
  0
LINE
  8
0
 62
7
 10
75.60473038956903
 20
-62.00000000000006
 30
0
 11
91.39526961043006
 21
-62.00000000000006
 31
0
  0
LINE
  8
0
 62
7
 10
91.39526961043006
 20
-62.00000000000006
 30
0
 11
91.49999999999946
 21
-56.00000000000006
 31
0
  0
LINE
  8
0
 62
7
 10
75.60473038956903
 20
-62.00000000000006
 30
0
 11
75.49999999999986
 21
-56.00000000000006
 31
0
  0
LINE
  8
0
 62
7
 10
75.49999999999997
 20
-55.00000000000006
 30
0
 11
75.49999999999986
 21
-56.00000000000006
 31
0
  0
LINE
  8
0
 62
7
 10
68.49999999999986
 20
-54.03490481287463
 30
0
 11
68.49999999999986
 21
-53.03490481287463
 31
0
  0
LINE
  8
0
 62
7
 10
75.51684579915312
 20
-54.03490481287463
 30
0
 11
75.53430086408142
 21
-53.03490481287463
 31
0
  0
LINE
  8
0
 62
7
 10
68.49999999999986
 20
-52.32499999999999
 30
0
 11
68.49999999999986
 21
-53.03490481287463
 31
0
  0
LINE
  8
0
 62
7
 10
60.99999999999986
 20
-53.82499999999919
 30
0
 11
62.99999999999986
 21
-53.82499999999919
 31
0
  0
LINE
  8
0
 62
7
 10
64.49999999999986
 20
-52.32499999999999
 30
0
 11
68.49999999999986
 21
-52.32499999999999
 31
0
  0
LINE
  8
0
 62
7
 10
75.53430086408142
 20
-53.03490481287463
 30
0
 11
75.61962366907122
 21
-48.14676458877034
 31
0
  0
LINE
  8
0
 62
7
 10
64.49999999999986
 20
-54.03490481287463
 30
0
 11
64.49999999999986
 21
-52.32499999999999
 31
0
  0
LINE
  8
0
 62
7
 10
68.49999999999986
 20
-55.00000000000006
 30
0
 11
68.49999999999986
 21
-54.03490481287463
 31
0
  0
LINE
  8
0
 62
7
 10
64.49999999999986
 20
-55.00000000000006
 30
0
 11
64.49999999999986
 21
-56.00000000000006
 31
0
  0
LINE
  8
0
 62
7
 10
64.49999999999986
 20
-56.00000000000006
 30
0
 11
68.49999999999986
 21
-56.00000000000006
 31
0
  0
LINE
  8
0
 62
7
 10
68.49999999999986
 20
-55.00000000000006
 30
0
 11
68.49999999999986
 21
-56.00000000000006
 31
0
  0
LINE
  8
0
 62
7
 10
75.49999999999997
 20
-55.00000000000006
 30
0
 11
68.49999999999986
 21
-55.00000000000006
 31
0
  0
LINE
  8
0
 62
7
 10
75.49999999999997
 20
-55.00000000000006
 30
0
 11
75.51684579915312
 21
-54.03490481287463
 31
0
  0
LINE
  8
0
 62
7
 10
80.11345792203346
 20
-15.00000000000006
 30
0
 11
108.8865420779667
 21
-15.00000000000006
 31
0
  0
LINE
  8
0
 62
7
 10
109.7727794998454
 20
-15.00000000000006
 30
0
 11
108.8865420779667
 21
-15.00000000000006
 31
0
  0
LINE
  8
0
 62
7
 10
109.9844122035737
 20
-0.8930242591729325
 30
0
 11
109.8986754369438
 21
-5.804880329737216
 31
0
  0
LINE
  8
0
 62
7
 10
109.863886150883
 20
-7.797957193333161
 30
0
 11
109.8498864416174
 21
-8.600000000000023
 31
0
  0
LINE
  8
0
 62
7
 10
108.9982544935071
 20
-8.600000000000023
 30
0
 11
109.8498864416174
 21
-8.600000000000023
 31
0
  0
LINE
  8
0
 62
7
 10
108.8865420779667
 20
-15.00000000000006
 30
0
 11
108.9982544935071
 21
-8.600000000000023
 31
0
  0
LINE
  8
0
 62
7
 10
112
 20
-5.684341886080801e-14
 30
0
 11
110.5
 21
-5.684341886080801e-14
 31
0
  0
LINE
  8
0
 62
7
 10
111.7724748901581
 20
-13.03490481287463
 30
0
 11
112
 21
-5.684341886080801e-14
 31
0
  0
LINE
  8
0
 62
7
 10
76.99999999999997
 20
-5.684341886080801e-14
 30
0
 11
1.999695390312723
 21
-5.684341886080801e-14
 31
0
  0
LINE
  8
0
 62
7
 10
12.66844137655724
 20
-45.35000000000002
 30
0
 11
12.65445921463933
 21
-46.15103751978933
 31
0
  0
LINE
  8
0
 62
7
 10
13.50174550649277
 20
-45.35000000000002
 30
0
 11
12.66844137655724
 21
-45.35000000000002
 31
0
  0
LINE
  8
0
 62
7
 10
13.50174550649277
 20
-45.35000000000002
 30
0
 11
13.87965968177437
 21
-23.69931139839912
 31
0
  0
LINE
  8
0
 62
7
 10
1.999695390312723
 20
-5.684341886080801e-14
 30
0
 11
0
 21
0
 31
0
  0
LINE
  8
0
 62
7
 10
12.61962366907133
 20
-48.14676458877034
 30
0
 11
12.53430086408136
 21
-53.03490481287463
 31
0
  0
LINE
  8
0
 62
7
 10
12.49999999999952
 20
-56.00000000000006
 30
0
 11
28.49999999999952
 21
-56.00000000000006
 31
0
  0
LINE
  8
0
 62
7
 10
12.60473038956897
 20
-62.00000000000006
 30
0
 11
20.49999999999986
 21
-62.00000000000006
 31
0
  0
LINE
  8
0
 62
7
 10
20.49999999999986
 20
-62.00000000000006
 30
0
 11
28.39526961043012
 21
-62.00000000000006
 31
0
  0
LINE
  8
0
 62
7
 10
28.39526961043012
 20
-62.00000000000006
 30
0
 11
28.49999999999952
 21
-56.00000000000006
 31
0
  0
LINE
  8
0
 62
7
 10
12.60473038956897
 20
-62.00000000000006
 30
0
 11
12.49999999999952
 21
-56.00000000000006
 31
0
  0
LINE
  8
0
 62
7
 10
28.49999999999952
 20
-56.00000000000006
 30
0
 11
34.49999999999997
 21
-56.00000000000006
 31
0
  0
LINE
  8
0
 62
7
 10
12.49999999999997
 20
-54.99999999999994
 30
0
 11
12.49999999999952
 21
-56.00000000000006
 31
0
  0
LINE
  8
0
 62
7
 10
2.925423097283357
 20
-55.00000000000006
 30
0
 11
12.49999999999997
 21
-54.99999999999994
 31
0
  0
LINE
  8
0
 62
7
 10
57.49999999999986
 20
-52.32499999999999
 30
0
 11
60.39999999999966
 21
-52.32499999999999
 31
0
  0
LINE
  8
0
 62
7
 10
57.49999999999986
 20
-53.03490481287463
 30
0
 11
57.49999999999986
 21
-52.32499999999999
 31
0
  0
LINE
  8
0
 62
7
 10
49.49825449350712
 20
-45.35000000000002
 30
0
 11
49.04751813605307
 21
-19.5273313758625
 31
0
  0
LINE
  8
0
 62
7
 10
50.34554078536067
 20
-46.15103751978933
 30
0
 11
50.33155862344276
 21
-45.35000000000002
 31
0
  0
LINE
  8
0
 62
7
 10
50.33155862344276
 20
-45.35000000000002
 30
0
 11
49.49825449350712
 21
-45.35000000000002
 31
0
  0
LINE
  8
0
 62
7
 10
50.46569913591853
 20
-53.03490481287463
 30
0
 11
50.38037633092867
 21
-48.14676458877034
 31
0
  0
LINE
  8
0
 62
7
 10
34.60473038956937
 20
-62.00000000000006
 30
0
 11
34.49999999999997
 21
-56.00000000000006
 31
0
  0
LINE
  8
0
 62
7
 10
34.60473038956937
 20
-62.00000000000006
 30
0
 11
50.39526961043063
 21
-62.00000000000006
 31
0
  0
LINE
  8
0
 62
7
 10
50.39526961043063
 20
-62.00000000000006
 30
0
 11
50.49999999999997
 21
-56.00000000000006
 31
0
  0
LINE
  8
0
 62
7
 10
34.49999999999997
 20
-56.00000000000006
 30
0
 11
50.49999999999997
 21
-56.00000000000006
 31
0
  0
LINE
  8
0
 62
7
 10
50.49999999999997
 20
-55.00000000000006
 30
0
 11
50.49999999999997
 21
-56.00000000000006
 31
0
  0
LINE
  8
0
 62
7
 10
112.4982544935071
 20
-45.35000000000002
 30
0
 11
112.1203403182255
 21
-23.69931139839923
 31
0
  0
LINE
  8
0
 62
7
 10
113.3315586234428
 20
-45.35000000000002
 30
0
 11
112.4982544935071
 21
-45.35000000000002
 31
0
  0
LINE
  8
0
 62
7
 10
113.3455407853607
 20
-46.15103751978933
 30
0
 11
113.3315586234428
 21
-45.35000000000002
 31
0
  0
LINE
  8
0
 62
7
 10
112
 20
-5.684341886080801e-14
 30
0
 11
124.0003046096872
 21
-5.684341886080801e-14
 31
0
  0
LINE
  8
0
 62
7
 10
124.0003046096872
 20
-5.684341886080801e-14
 30
0
 11
126
 21
-5.684341886080801e-14
 31
0
  0
LINE
  8
0
 62
7
 10
60.39999999999966
 20
-52.32499999999999
 30
0
 11
60.39999999999966
 21
-53.82499999999919
 31
0
  0
LINE
  8
0
 62
7
 10
60.39999999999966
 20
-52.32499999999999
 30
0
 11
61.49999999999986
 21
-52.32499999999999
 31
0
  0
LINE
  8
0
 62
7
 10
0
 20
0
 30
0
 11
0.9257277069705481
 21
-53.03490481287463
 31
0
  0
LINE
  8
0
 62
7
 10
113.4831542008468
 20
-54.03490481287463
 30
0
 11
113.4656991359185
 21
-53.03490481287463
 31
0
  0
LINE
  8
0
 62
7
 10
113.5
 20
-55.00000000000006
 30
0
 11
123.0745769027168
 21
-55.00000000000006
 31
0
  0
LINE
  8
0
 62
7
 10
126
 20
-5.684341886080801e-14
 30
0
 11
125.0742722930295
 21
-53.03490481287463
 31
0
  0
LINE
  8
0
 62
7
 10
76.50174550649277
 20
-45.35000000000002
 30
0
 11
75.66844137655735
 21
-45.35000000000002
 31
0
  0
LINE
  8
0
 62
7
 10
75.65445921463933
 20
-46.15103751978933
 30
0
 11
75.66844137655735
 21
-45.35000000000002
 31
0
  0
LINE
  8
0
 62
7
 10
76.95248186394693
 20
-19.5273313758625
 30
0
 11
76.50174550649277
 21
-45.35000000000002
 31
0
  0
LINE
  8
0
 62
7
 10
79.15011355838257
 20
-8.600000000000023
 30
0
 11
79.13611384911715
 21
-7.797957193333161
 31
0
  0
LINE
  8
0
 62
7
 10
80.00174550649277
 20
-8.600000000000023
 30
0
 11
79.15011355838257
 21
-8.600000000000023
 31
0
  0
LINE
  8
0
 62
7
 10
80.11345792203346
 20
-15.00000000000006
 30
0
 11
79.22722050015452
 21
-15.00000000000006
 31
0
  0
LINE
  8
0
 62
7
 10
80.00174550649277
 20
-8.600000000000023
 30
0
 11
80.11345792203346
 21
-15.00000000000006
 31
0
  0
LINE
  8
0
 62
7
 10
113.5
 20
-55.00000000000006
 30
0
 11
113.4831542008468
 21
-54.03490481287463
 31
0
  0
LINE
  8
0
 62
7
 10
60.99999999999986
 20
-54.03490481287463
 30
0
 11
60.99999999999986
 21
-53.82499999999919
 31
0
  0
LINE
  8
0
 62
7
 10
60.39999999999966
 20
-53.82499999999919
 30
0
 11
60.99999999999986
 21
-53.82499999999919
 31
0
  0
LINE
  8
0
 62
7
 10
57.49999999999986
 20
-54.03490481287463
 30
0
 11
57.49999999999986
 21
-53.03490481287463
 31
0
  0
LINE
  8
0
 62
7
 10
57.49999999999986
 20
-55.00000000000006
 30
0
 11
57.49999999999986
 21
-54.03490481287463
 31
0
  0
LINE
  8
0
 62
7
 10
57.49999999999986
 20
-56.00000000000006
 30
0
 11
60.99999999999986
 21
-56.00000000000006
 31
0
  0
LINE
  8
0
 62
7
 10
60.99999999999986
 20
-55.00000000000006
 30
0
 11
60.99999999999986
 21
-56.00000000000006
 31
0
  0
LINE
  8
0
 62
7
 10
57.49999999999986
 20
-55.00000000000006
 30
0
 11
57.49999999999986
 21
-56.00000000000006
 31
0
  0
LINE
  8
0
 62
7
 10
57.49999999999986
 20
-55.00000000000006
 30
0
 11
50.49999999999997
 21
-55.00000000000006
 31
0
  0
LINE
  8
0
 62
7
 10
50.49999999999997
 20
-55.00000000000006
 30
0
 11
50.48315420084677
 21
-54.03490481287463
 31
0
  0
LINE
  8
0
 62
7
 10
110.5
 20
-5.684341886080801e-14
 30
0
 11
109.9844122035737
 21
-0.8930242591729325
 31
0
  0
LINE
  8
0
 62
7
 10
110.5
 20
-5.684341886080801e-14
 30
0
 11
78.49999999999997
 21
-5.684341886080801e-14
 31
0
  0
LINE
  8
0
 62
7
 10
79.10132456305607
 20
-5.804880329737216
 30
0
 11
79.01558779642622
 21
-0.8930242591729325
 31
0
  0
LINE
  8
0
 62
7
 10
78.49999999999997
 20
-5.684341886080801e-14
 30
0
 11
79.01558779642622
 21
-0.8930242591729325
 31
0
  0
LINE
  8
0
 62
7
 10
78.49999999999997
 20
-5.684341886080801e-14
 30
0
 11
76.99999999999997
 21
-5.684341886080801e-14
 31
0
  0
LINE
  8
0
 62
7
 10
76.99999999999997
 20
-5.684341886080801e-14
 30
0
 11
77.22752510984176
 21
-13.03490481287463
 31
0
  0
LINE
  8
0
 62
7
 10
113.4656991359185
 20
-53.03490481287463
 30
0
 11
113.3803763309287
 21
-48.14676458877034
 31
0
  0
ARC
  8
0
 62
7
 10
62.99999999999986
 20
-52.32499999999919
 30
0
 40
1.5
 50
180.0000000000304
 51
270
  0
ARC
  8
0
 62
7
 10
62.99999999999986
 20
-52.32499999999919
 30
0
 40
1.5
 50
270
 51
359.9999999999696
  0
ARC
  8
0
 62
7
 10
62.99999999999986
 20
-52.32499999999919
 30
0
 40
1.5
 50
359.9999999999696
 51
180.0000000000304
  0
ARC
  8
0
 62
7
 10
109.7999999999999
 20
-6.800000000000011
 30
0
 40
1.000000000000018
 50
273.6629013545502
 51
84.33709864546101
  0
ARC
  8
0
 62
7
 10
109.7727794998454
 20
-13.00000000000006
 30
0
 40
2
 50
270
 51
358.9999999999998
  0
ARC
  8
0
 62
7
 10
28.49999999998934
 20
-515.0000000000655
 30
0
 40
500.0000000000662
 50
80.56684216607115
 51
84.18541235938672
  0
ARC
  8
0
 62
7
 10
12.69999999999996
 20
-47.15000000000003
 30
0
 40
0.9999999999999882
 50
92.61019756987366
 51
265.3898024301302
  0
ARC
  8
0
 62
7
 10
15.87935507208712
 20
-23.73421621127369
 30
0
 40
1.999999999999917
 50
99.43315783392597
 51
178.9999999999999
  0
ARC
  8
0
 62
7
 10
47.04782274574026
 20
-19.56223618873702
 30
0
 40
2.000000000000026
 50
0.999999999998709
 51
95.81458764061075
  0
ARC
  8
0
 62
7
 10
50.29999999999993
 20
-47.15000000000003
 30
0
 40
1.000000000000007
 50
274.6101975698759
 51
87.38980243012034
  0
ARC
  8
0
 62
7
 10
97.50000000000907
 20
-515.0000000000657
 30
0
 40
500.0000000000663
 50
95.81458764061308
 51
99.43315783392863
  0
ARC
  8
0
 62
7
 10
113.2999999999999
 20
-47.15000000000003
 30
0
 40
1.000000000000012
 50
274.6101975698796
 51
87.38980243011667
  0
ARC
  8
0
 62
7
 10
110.1206449279128
 20
-23.7342162112738
 30
0
 40
1.999999999999913
 50
1.000000000000089
 51
80.5668421660647
  0
ARC
  8
0
 62
7
 10
2.925423097283357
 20
-53.00000000000006
 30
0
 40
2.000000000000027
 50
181.0000000000001
 51
270
  0
ARC
  8
0
 62
7
 10
123.0745769027168
 20
-53.00000000000006
 30
0
 40
2
 50
270
 51
358.9999999999998
  0
ARC
  8
0
 62
7
 10
75.69999999999996
 20
-47.15000000000003
 30
0
 40
0.9999999999999882
 50
92.61019756987356
 51
265.3898024301237
  0
ARC
  8
0
 62
7
 10
78.95217725425962
 20
-19.56223618873702
 30
0
 40
1.999999999999958
 50
84.18541235937954
 51
179.0000000000013
  0
ARC
  8
0
 62
7
 10
79.19999999999996
 20
-6.800000000000011
 30
0
 40
1.000000000000001
 50
95.66290135453818
 51
266.3370986454669
  0
ARC
  8
0
 62
7
 10
79.22722050015452
 20
-13.00000000000006
 30
0
 40
1.99999999999997
 50
181.0000000000001
 51
270
  0
CIRCLE
  8
0
 62
7
 10
79.69999999999996
 20
-28.99897575082485
 30
0
 40
1.500000699390622
  0
CIRCLE
  8
0
 62
7
 10
94.49999999999997
 20
-23.99897575082485
 30
0
 40
1.500000699390622
  0
CIRCLE
  8
0
 62
7
 10
109.2999999999999
 20
-28.99897575082485
 30
0
 40
1.500000699390622
  0
CIRCLE
  8
0
 62
7
 10
101.7
 20
-28.99897575082485
 30
0
 40
1.500000699390622
  0
CIRCLE
  8
0
 62
7
 10
24.29999999999993
 20
-28.99897575082485
 30
0
 40
1.500000699390622
  0
CIRCLE
  8
0
 62
7
 10
16.69999999999996
 20
-28.99897575082485
 30
0
 40
1.500000699390622
  0
CIRCLE
  8
0
 62
7
 10
10.79999999999964
 20
-5.999127246458158
 30
0
 40
1.500000507799029
  0
CIRCLE
  8
0
 62
7
 10
31.49999999999997
 20
-23.99897575082485
 30
0
 40
1.500000699390622
  0
CIRCLE
  8
0
 62
7
 10
34.79999999999953
 20
-5.999127246458158
 30
0
 40
1.500000507799029
  0
CIRCLE
  8
0
 62
7
 10
26.79999999999953
 20
-5.999127246458158
 30
0
 40
1.500000507799029
  0
CIRCLE
  8
0
 62
7
 10
18.79999999999953
 20
-5.999127246458158
 30
0
 40
1.500000507799029
  0
CIRCLE
  8
0
 62
7
 10
58.79999999999953
 20
-5.999127246458158
 30
0
 40
1.500000507799029
  0
CIRCLE
  8
0
 62
7
 10
42.79999999999953
 20
-5.999127246458158
 30
0
 40
1.500000507799029
  0
CIRCLE
  8
0
 62
7
 10
50.79999999999953
 20
-5.999127246458158
 30
0
 40
1.500000507799029
  0
CIRCLE
  8
0
 62
7
 10
38.69999999999996
 20
-28.99897575082485
 30
0
 40
1.500000699390622
  0
CIRCLE
  8
0
 62
7
 10
46.29999999999987
 20
-28.99897575082485
 30
0
 40
1.500000699390622
  0
CIRCLE
  8
0
 62
7
 10
87.29999999999993
 20
-28.99897575082485
 30
0
 40
1.500000699390622
  0
ENDSEC
  0
EOF
