  0
SECTION
  2
HEADER
  9
$ACADVER
  1
AC1009
  9
$INSBASE
 10
0
 20
0
  9
$EXTMIN
 10
-0.0085015888608108
 20
-62.00000000000017
  9
$EXTMAX
 10
178.9086179347392
 20
0.0085015888608108
  9
$LIMMIN
 10
-0.0085015888608108
 20
-62.00000000000017
  9
$LIMMAX
 10
178.9086179347392
 20
0.0085015888608108
  9
$VIEWCTR
 10
10
 20
10
  9
$VIEWSIZE
 40
10
  9
$SNAPMODE
 70
0
  9
$SNAPUNIT
 10
1
 20
1
  9
$SNAPBASE
 10
0
 20
0
  9
$SNAPANG
 50
0
  9
$SNAPSTYLE
 70
0
  9
$SNAPISOPAIR
 70
0
  9
$GRIDMODE
 70
0
  9
$GRIDUNIT
 10
0
 20
0
  9
$ORTHOMODE
 70
0
  9
$REGENMODE
 70
1
  9
$FILLMODE
 70
1
  9
$QTEXTMODE
 70
0
  9
$DRAGMODE
 70
2
  9
$LTSCALE
 40
1
  9
$OSMODE
 70
0
  9
$ATTMODE
 70
1
  9
$TEXTSIZE
 40
3.5
  9
$TRACEWID
 40
0.5
  9
$TEXTSTYLE
  7
STANDARD
  9
$CLAYER
  8
0
  9
$CELTYPE
  6
BYLAYER
  9
$CECOLOR
 62
256
  9
$DIMSCALE
 40
1
  9
$DIMASZ
 40
0.18
  9
$DIMEXO
 40
0.0625
  9
$DIMDLI
 40
0.38
  9
$DIMRND
 40
0
  9
$DIMDLE
 40
0
  9
$DIMEXE
 40
0.18
  9
$DIMTP
 40
0
  9
$DIMTM
 40
0
  9
$DIMTXT
 40
0.18
  9
$DIMCEN
 40
0.09
  9
$DIMTSZ
 40
0
  9
$DIMTOL
 70
0
  9
$DIMLIM
 70
0
  9
$DIMTIH
 70
1
  9
$DIMTOH
 70
1
  9
$DIMSE1
 70
0
  9
$DIMSE2
 70
0
  9
$DIMTAD
 70
0
  9
$DIMZIN
 70
0
  9
$DIMBLK
  1

  9
$DIMASO
 70
1
  9
$DIMSHO
 70
1
  9
$DIMPOST
  1

  9
$DIMAPOST
  1

  9
$DIMALT
 70
0
  9
$DIMALTD
 70
2
  9
$DIMALTF
 40
25.4
  9
$DIMLFAC
 40
1
  9
$DIMTOFL
 70
0
  9
$DIMTVP
 40
0
  9
$DIMTIX
 70
0
  9
$DIMSOXD
 70
0
  9
$DIMSAH
 70
0
  9
$DIMBLK1
  1

  9
$DIMBLK2
  1

  9
$DIMSTYLE
  2
*UNNAMED
  9
$DIMCLRD
 70
0
  9
$DIMCLRE
 70
0
  9
$DIMCLRT
 70
0
  9
$DIMTFAC
 40
1
  9
$DIMGAP
 40
0.09
  9
$LUNITS
 70
2
  9
$LUPREC
 70
4
  9
$AXISMODE
 70
0
  9
$AXISUNIT
 10
0
 20
0
  9
$SKETCHINC
 40
0.1
  9
$FILLETRAD
 40
2
  9
$AUNITS
 70
0
  9
$AUPREC
 70
0
  9
$MENU
  1
ACAD
  9
$ELEVATION
 40
0
  9
$THICKNESS
 40
0
  9
$VIEWDIR
 10
0
 20
0
 30
1
  9
$LIMCHECK
 70
0
  9
$BLIPMODE
 70
1
  9
$CHAMFERA
 40
0
  9
$CHAMFERB
 40
0
  9
$FASTZOOM
 70
1
  9
$SKPOLY
 70
0
  9
$ANGBASE
 50
0
  9
$ANGDIR
 70
0
  9
$PDMODE
 70
0
  9
$PDSIZE
 40
0
  9
$PLINEWID
 40
0
  9
$COORDS
 70
2
  0
ENDSEC
  0
SECTION
  2
TABLES
  0
TABLE
  2
DIMSTYLE
 70
0
  0
ENDTAB
  0
TABLE
  2
LTYPE
 70
9
  0
LTYPE
  2
CONTINUOUS
 70
64
  3
Solid line
 72
65
 73
0
 40
0
  0
LTYPE
  2
BORDER
 70
64
  3
__ __ . __ __ .
 72
65
 73
6
 40
8.239604188586844
 49
2.354172625310527
 49
-1.177086312655263
 49
2.354172625310527
 49
-1.177086312655263
 49
0
 49
-1.177086312655263
  0
LTYPE
  2
CENTER
 70
64
  3
____ _ ____ _
 72
65
 73
4
 40
9.416690501242106
 49
5.885431563276317
 49
-1.177086312655263
 49
1.177086312655263
 49
-1.177086312655263
  0
LTYPE
  2
DASHDOT
 70
64
  3
__ . __ . __ .
 72
65
 73
4
 40
4.708345250621053
 49
2.354172625310527
 49
-1.177086312655263
 49
0
 49
-1.177086312655263
  0
LTYPE
  2
DASHED
 70
64
  3
__ __ __ __ __
 72
65
 73
2
 40
3.53125893796579
 49
2.354172625310527
 49
-1.177086312655263
  0
LTYPE
  2
DIVIDE
 70
64
  3
__ . . __ . . 
 72
65
 73
6
 40
5.885431563276317
 49
2.354172625310527
 49
-1.177086312655263
 49
0
 49
-1.177086312655263
 49
0
 49
-1.177086312655263
  0
LTYPE
  2
DOT
 70
64
  3
..............
 72
65
 73
4
 40
2.354172625310527
 49
0
 49
-1.177086312655263
 49
0
 49
-1.177086312655263
  0
LTYPE
  2
HIDDEN
 70
64
  3
_ _ _ _ _ _ _
 72
65
 73
2
 40
1.765629468982895
 49
1.177086312655263
 49
-0.5885431563276317
  0
LTYPE
  2
PHANTOM
 70
64
  3
_____ _ _ _____ _ _ 
 72
65
 73
6
 40
11.77086312655263
 49
5.885431563276317
 49
-1.177086312655263
 49
1.177086312655263
 49
-1.177086312655263
 49
1.177086312655263
 49
-1.177086312655263
  0
ENDTAB
  0
TABLE
  2
LAYER
 70
2
  0
LAYER
  2
0
 70
0
 62
7
  6
CONTINUOUS
  0
ENDTAB
  0
TABLE
  2
STYLE
 70
4
  0
STYLE
  2
STANDARD
 70
0
 40
0
 41
1
 50
0
 71
0
 42
3.5
  3
txt
  4

  0
STYLE
  2
SIMPLEX
 70
0
 40
0
 41
1
 50
0
 71
0
 42
3.5
  3
simplex
  4

  0
STYLE
  2
COMPLEX
 70
0
 40
0
 41
1
 50
0
 71
0
 42
3.5
  3
complex
  4

  0
STYLE
  2
ITALIC
 70
0
 40
0
 41
1
 50
0
 71
0
 42
3.5
  3
italic
  4

  0
ENDTAB
  0
TABLE
  2
VIEW
 70
0
  0
ENDTAB
  0
ENDSEC
  0
SECTION
  2
BLOCKS
  0
ENDSEC
  0
SECTION
  2
ENTITIES
  0
LINE
  8
0
 62
7
 10
0
 20
0
 30
0
 11
1.989724992200024
 21
-5.684341886080801e-14
 31
0
  0
LINE
  8
0
 62
7
 10
139.4500581729392
 20
0
 30
0
 11
139.9656459693655
 21
-0.8930242591729893
 31
0
  0
LINE
  8
0
 62
7
 10
114.4500581729394
 20
-56.00000000000017
 30
0
 11
130.4500581729392
 21
-56.00000000000017
 31
0
  0
LINE
  8
0
 62
7
 10
92.45005817293872
 20
-56.00000000000017
 30
0
 11
108.4500581729387
 21
-56.00000000000017
 31
0
  0
LINE
  8
0
 62
7
 10
90.95005817293901
 20
-56.00000000000017
 30
0
 11
92.45005817293872
 21
-56.00000000000017
 31
0
  0
LINE
  8
0
 62
7
 10
108.4500581729387
 20
-56.00000000000017
 30
0
 11
114.4500581729394
 21
-56.00000000000017
 31
0
  0
LINE
  8
0
 62
7
 10
152.4500581729386
 20
-56
 30
0
 11
136.4500581729392
 21
-56.00000000000017
 31
0
  0
LINE
  8
0
 62
7
 10
174.450058172939
 20
-56.00000000000011
 30
0
 11
158.4500581729394
 21
-56
 31
0
  0
LINE
  8
0
 62
7
 10
158.4500581729394
 20
-56
 30
0
 11
152.4500581729386
 21
-56
 31
0
  0
LINE
  8
0
 62
7
 10
174.4332123737861
 20
-54.03490481287457
 30
0
 11
174.4157573088578
 21
-53.03490481287469
 31
0
  0
LINE
  8
0
 62
7
 10
174.450058172939
 20
-56.00000000000011
 30
0
 11
174.4500581729394
 21
-55.00000000000011
 31
0
  0
LINE
  8
0
 62
7
 10
136.4500581729392
 20
-56.00000000000017
 30
0
 11
136.4500581729392
 21
-55.00000000000017
 31
0
  0
LINE
  8
0
 62
7
 10
130.4500581729392
 20
-55.00000000000017
 30
0
 11
130.4500581729392
 21
-56.00000000000017
 31
0
  0
LINE
  8
0
 62
7
 10
90.95005817293901
 20
-55.00000000000017
 30
0
 11
90.95005817293901
 21
-56.00000000000017
 31
0
  0
LINE
  8
0
 62
7
 10
90.95005817293901
 20
-53.03490481287474
 30
0
 11
90.95005817293901
 21
-55.00000000000017
 31
0
  0
LINE
  8
0
 62
7
 10
90.95005817293901
 20
-55.00000000000017
 30
0
 11
92.45005817293924
 21
-55.00000000000017
 31
0
  0
LINE
  8
0
 62
7
 10
92.46690397209244
 20
-54.03490481287463
 30
0
 11
92.45005817293924
 21
-55.00000000000017
 31
0
  0
LINE
  8
0
 62
7
 10
175.9846636467078
 20
-55.00000000000011
 30
0
 11
174.4500581729394
 21
-55.00000000000011
 31
0
  0
LINE
  8
0
 62
7
 10
174.4500581729394
 20
-55.00000000000011
 30
0
 11
174.4332123737861
 21
-54.03490481287457
 31
0
  0
LINE
  8
0
 62
7
 10
136.4500581729392
 20
-55.00000000000017
 30
0
 11
130.4500581729392
 21
-55.00000000000017
 31
0
  0
LINE
  8
0
 62
7
 10
136.4500581729392
 20
-55.00000000000017
 30
0
 11
136.4669039720924
 21
-54.03490481287463
 31
0
  0
LINE
  8
0
 62
7
 10
130.4500581729392
 20
-55.00000000000017
 30
0
 11
130.433212373786
 21
-54.03490481287463
 31
0
  0
LINE
  8
0
 62
7
 10
86.34532778336956
 20
-62.00000000000006
 30
0
 11
86.45005817293872
 21
-56.00000000000006
 31
0
  0
LINE
  8
0
 62
7
 10
70.45005817293872
 20
-56.00000000000006
 30
0
 11
86.45005817293872
 21
-56.00000000000006
 31
0
  0
LINE
  8
0
 62
7
 10
86.43321237378552
 20
-54.03490481287463
 30
0
 11
86.41575730885745
 21
-53.03490481287474
 31
0
  0
LINE
  8
0
 62
7
 10
42.34532778336995
 20
-62.00000000000006
 30
0
 11
42.45005817293924
 21
-56.00000000000017
 31
0
  0
LINE
  8
0
 62
7
 10
70.55478856250812
 20
-62.00000000000006
 30
0
 11
70.45005817293872
 21
-56.00000000000006
 31
0
  0
LINE
  8
0
 62
7
 10
70.55478856250812
 20
-62.00000000000006
 30
0
 11
86.34532778336956
 21
-62.00000000000006
 31
0
  0
LINE
  8
0
 62
7
 10
48.45005817293924
 20
-56.00000000000017
 30
0
 11
64.45005817293872
 21
-56.00000000000017
 31
0
  0
LINE
  8
0
 62
7
 10
64.45005817293872
 20
-56.00000000000017
 30
0
 11
70.45005817293872
 21
-56.00000000000006
 31
0
  0
LINE
  8
0
 62
7
 10
86.85005817293876
 20
-53.03490481287474
 30
0
 11
86.85005817293876
 21
-53.82500000000016
 31
0
  0
LINE
  8
0
 62
7
 10
87.45005817293901
 20
-53.82500000000016
 30
0
 11
87.45005817293901
 21
-55.00000000000017
 31
0
  0
LINE
  8
0
 62
7
 10
42.45005817293924
 20
-55.00000000000006
 30
0
 11
42.43321237378603
 21
-54.03490481287463
 31
0
  0
LINE
  8
0
 62
7
 10
42.45005817293924
 20
-56.00000000000017
 30
0
 11
42.45005817293924
 21
-55.00000000000006
 31
0
  0
LINE
  8
0
 62
7
 10
48.45005817293924
 20
-55.00000000000017
 30
0
 11
42.45005817293924
 21
-55.00000000000006
 31
0
  0
LINE
  8
0
 62
7
 10
48.55478856250812
 20
-62.00000000000017
 30
0
 11
48.45005817293924
 21
-56.00000000000017
 31
0
  0
LINE
  8
0
 62
7
 10
87.45005817293901
 20
-55.00000000000017
 30
0
 11
87.45005817293901
 21
-56.00000000000017
 31
0
  0
LINE
  8
0
 62
7
 10
48.45005817293924
 20
-55.00000000000017
 30
0
 11
48.45005817293924
 21
-56.00000000000017
 31
0
  0
LINE
  8
0
 62
7
 10
86.45005817293872
 20
-56.00000000000006
 30
0
 11
87.45005817293901
 21
-56.00000000000017
 31
0
  0
LINE
  8
0
 62
7
 10
92.55478856250812
 20
-62.00000000000017
 30
0
 11
92.45005817293872
 21
-56.00000000000017
 31
0
  0
LINE
  8
0
 62
7
 10
92.55478856250812
 20
-62.00000000000017
 30
0
 11
108.3453277833696
 21
-62.00000000000017
 31
0
  0
LINE
  8
0
 62
7
 10
64.34532778336956
 20
-62.00000000000017
 30
0
 11
64.45005817293872
 21
-56.00000000000017
 31
0
  0
LINE
  8
0
 62
7
 10
48.55478856250812
 20
-62.00000000000017
 30
0
 11
64.34532778336956
 21
-62.00000000000017
 31
0
  0
LINE
  8
0
 62
7
 10
86.45005817293872
 20
-55.00000000000017
 30
0
 11
87.45005817293901
 21
-55.00000000000017
 31
0
  0
LINE
  8
0
 62
7
 10
48.45005817293924
 20
-55.00000000000017
 30
0
 11
48.46690397209244
 21
-54.03490481287463
 31
0
  0
LINE
  8
0
 62
7
 10
86.45005817293872
 20
-55.00000000000017
 30
0
 11
86.43321237378552
 21
-54.03490481287463
 31
0
  0
LINE
  8
0
 62
7
 10
108.3453277833696
 20
-62.00000000000017
 30
0
 11
108.4500581729387
 21
-56.00000000000017
 31
0
  0
LINE
  8
0
 62
7
 10
86.85005817293876
 20
-53.82500000000016
 30
0
 11
87.45005817293901
 21
-53.82500000000016
 31
0
  0
LINE
  8
0
 62
7
 10
114.5547885625087
 20
-62.00000000000017
 30
0
 11
114.4500581729394
 21
-56.00000000000017
 31
0
  0
LINE
  8
0
 62
7
 10
130.3453277833696
 20
-62.00000000000017
 30
0
 11
130.4500581729392
 21
-56.00000000000017
 31
0
  0
LINE
  8
0
 62
7
 10
158.5547885625087
 20
-62.00000000000011
 30
0
 11
158.4500581729394
 21
-56
 31
0
  0
LINE
  8
0
 62
7
 10
158.5547885625087
 20
-62.00000000000011
 30
0
 11
174.3453277833696
 21
-62.00000000000011
 31
0
  0
LINE
  8
0
 62
7
 10
114.5547885625087
 20
-62.00000000000017
 30
0
 11
130.3453277833696
 21
-62.00000000000017
 31
0
  0
LINE
  8
0
 62
7
 10
136.5547885625083
 20
-62.00000000000017
 30
0
 11
152.3453277833693
 21
-62.00000000000011
 31
0
  0
LINE
  8
0
 62
7
 10
174.3453277833696
 20
-62.00000000000011
 30
0
 11
174.450058172939
 21
-56.00000000000011
 31
0
  0
LINE
  8
0
 62
7
 10
152.3453277833693
 20
-62.00000000000011
 30
0
 11
152.4500581729386
 21
-56
 31
0
  0
LINE
  8
0
 62
7
 10
136.5547885625083
 20
-62.00000000000017
 30
0
 11
136.4500581729392
 21
-56.00000000000017
 31
0
  0
LINE
  8
0
 62
7
 10
26.55478856250852
 20
-62.00000000000006
 30
0
 11
26.45005817293924
 21
-56.00000000000006
 31
0
  0
LINE
  8
0
 62
7
 10
42.45005817293924
 20
-56.00000000000017
 30
0
 11
26.45005817293924
 21
-56.00000000000006
 31
0
  0
LINE
  8
0
 62
7
 10
26.55478856250852
 20
-62.00000000000006
 30
0
 11
42.34532778336995
 21
-62.00000000000006
 31
0
  0
LINE
  8
0
 62
7
 10
176.9103913536785
 20
-1.13686837721616e-13
 30
0
 11
178.9001163458784
 21
-1.13686837721616e-13
 31
0
  0
LINE
  8
0
 62
7
 10
130.433212373786
 20
-54.03490481287463
 30
0
 11
130.4157573088578
 21
-53.03490481287463
 31
0
  0
LINE
  8
0
 62
7
 10
42.43321237378603
 20
-54.03490481287463
 30
0
 11
42.41575730885774
 21
-53.03490481287463
 31
0
  0
LINE
  8
0
 62
7
 10
48.46690397209244
 20
-54.03490481287463
 30
0
 11
48.48435903702062
 21
-53.03490481287463
 31
0
  0
LINE
  8
0
 62
7
 10
90.95005817293901
 20
-55.00000000000017
 30
0
 11
87.45005817293901
 21
-55.00000000000017
 31
0
  0
LINE
  8
0
 62
7
 10
136.4669039720924
 20
-54.03490481287463
 30
0
 11
136.4843590370206
 21
-53.03490481287463
 31
0
  0
LINE
  8
0
 62
7
 10
86.85005817293876
 20
-52.32500000000005
 30
0
 11
86.85005817293876
 21
-53.03490481287474
 31
0
  0
LINE
  8
0
 62
7
 10
90.95005817293901
 20
-53.03490481287474
 30
0
 11
90.95005817293901
 21
-52.32499999999936
 31
0
  0
LINE
  8
0
 62
7
 10
174.4157573088578
 20
-53.03490481287469
 30
0
 11
174.3304345038677
 21
-48.1467645887704
 31
0
  0
LINE
  8
0
 62
7
 10
178.8804131336132
 20
-1.699999999999989
 30
0
 11
177.9843590370205
 21
-53.03490481287469
 31
0
  0
LINE
  8
0
 62
7
 10
42.41575730885774
 20
-53.03490481287463
 30
0
 11
42.33043450386782
 21
-48.14676458877045
 31
0
  0
LINE
  8
0
 62
7
 10
48.48435903702062
 20
-53.03490481287463
 30
0
 11
48.56968184201054
 21
-48.14676458877034
 31
0
  0
LINE
  8
0
 62
7
 10
130.4157573088578
 20
-53.03490481287463
 30
0
 11
130.3304345038678
 21
-48.14676458877045
 31
0
  0
LINE
  8
0
 62
7
 10
136.4843590370206
 20
-53.03490481287463
 30
0
 11
136.5696818420105
 21
-48.14676458877034
 31
0
  0
LINE
  8
0
 62
7
 10
92.56968184201054
 20
-48.14676458877034
 30
0
 11
92.48435903702062
 21
-53.03490481287474
 31
0
  0
LINE
  8
0
 62
7
 10
86.41575730885745
 20
-53.03490481287474
 30
0
 11
86.33043450386742
 21
-48.14676458877045
 31
0
  0
LINE
  8
0
 62
7
 10
170.9344703765127
 20
-0.8930242591729893
 30
0
 11
171.4500581729391
 21
-1.13686837721616e-13
 31
0
  0
LINE
  8
0
 62
7
 10
172.9500581729394
 20
-1.13686837721616e-13
 30
0
 11
172.7225330630972
 21
-13.03490481287457
 31
0
  0
LINE
  8
0
 62
7
 10
172.9500581729394
 20
-1.13686837721616e-13
 30
0
 11
171.4500581729391
 21
-1.13686837721616e-13
 31
0
  0
LINE
  8
0
 62
7
 10
139.4500581729392
 20
0
 30
0
 11
137.9500581729392
 21
-1.70530256582424e-13
 31
0
  0
LINE
  8
0
 62
7
 10
137.9500581729392
 20
-1.70530256582424e-13
 30
0
 11
138.1775832827811
 21
-13.03490481287463
 31
0
  0
LINE
  8
0
 62
7
 10
137.9500581729392
 20
-1.70530256582424e-13
 30
0
 11
1.989724992200024
 21
-5.684341886080801e-14
 31
0
  0
LINE
  8
0
 62
7
 10
176.9103913536785
 20
-1.13686837721616e-13
 30
0
 11
172.9500581729394
 21
-1.13686837721616e-13
 31
0
  0
LINE
  8
0
 62
7
 10
139.4500581729392
 20
0
 30
0
 11
171.4500581729391
 21
-1.13686837721616e-13
 31
0
  0
LINE
  8
0
 62
7
 10
170.9344703765127
 20
-0.8930242591729893
 30
0
 11
170.8487336098831
 21
-5.804880329737216
 31
0
  0
LINE
  8
0
 62
7
 10
170.8139443238221
 20
-7.797957193333218
 30
0
 11
170.7999446145564
 21
-8.60000000000008
 31
0
  0
LINE
  8
0
 62
7
 10
169.9483126664464
 20
-8.60000000000008
 30
0
 11
170.7999446145564
 21
-8.60000000000008
 31
0
  0
LINE
  8
0
 62
7
 10
169.8366002509059
 20
-15.00000000000011
 30
0
 11
169.9483126664464
 21
-8.60000000000008
 31
0
  0
LINE
  8
0
 62
7
 10
140.1001717313218
 20
-8.60000000000008
 30
0
 11
140.9518036794319
 21
-8.60000000000008
 31
0
  0
LINE
  8
0
 62
7
 10
141.0635160949726
 20
-15.00000000000011
 30
0
 11
140.9518036794319
 21
-8.60000000000008
 31
0
  0
LINE
  8
0
 62
7
 10
169.8366002509059
 20
-15.00000000000011
 30
0
 11
141.0635160949726
 21
-15.00000000000011
 31
0
  0
LINE
  8
0
 62
7
 10
169.8366002509059
 20
-15.00000000000011
 30
0
 11
170.7228376727845
 21
-15.00000000000011
 31
0
  0
LINE
  8
0
 62
7
 10
140.177278673094
 20
-15.00000000000011
 30
0
 11
141.0635160949726
 21
-15.00000000000011
 31
0
  0
LINE
  8
0
 62
7
 10
93.94652444043271
 20
-17.00746658433405
 30
0
 11
93.45180367943192
 21
-45.35000000000014
 31
0
  0
LINE
  8
0
 62
7
 10
92.61849954949651
 20
-45.35000000000014
 30
0
 11
92.60451738757871
 21
-46.15103751978933
 31
0
  0
LINE
  8
0
 62
7
 10
93.45180367943192
 20
-45.35000000000014
 30
0
 11
92.61849954949651
 21
-45.35000000000014
 31
0
  0
LINE
  8
0
 62
7
 10
129.4483126664464
 20
-45.35000000000014
 30
0
 11
128.9775687868438
 21
-18.38110119965933
 31
0
  0
LINE
  8
0
 62
7
 10
137.9025400368863
 20
-19.52733137586256
 30
0
 11
137.4518036794319
 21
-45.35000000000014
 31
0
  0
LINE
  8
0
 62
7
 10
130.2816167963819
 20
-45.35000000000014
 30
0
 11
129.4483126664464
 21
-45.35000000000014
 31
0
  0
LINE
  8
0
 62
7
 10
130.2955989582997
 20
-46.15103751978933
 30
0
 11
130.2816167963819
 21
-45.35000000000014
 31
0
  0
LINE
  8
0
 62
7
 10
136.6045173875787
 20
-46.15103751978933
 30
0
 11
136.6184995494965
 21
-45.35000000000014
 31
0
  0
LINE
  8
0
 62
7
 10
137.4518036794319
 20
-45.35000000000014
 30
0
 11
136.6184995494965
 21
-45.35000000000014
 31
0
  0
LINE
  8
0
 62
7
 10
85.44831266644604
 20
-45.35000000000014
 30
0
 11
84.95359190544542
 21
-17.00746658433354
 31
0
  0
LINE
  8
0
 62
7
 10
49.45180367943192
 20
-45.35000000000014
 30
0
 11
49.92254755903451
 21
-18.38110119965927
 31
0
  0
LINE
  8
0
 62
7
 10
48.60451738757865
 20
-46.15103751978933
 30
0
 11
48.61849954949651
 21
-45.35000000000014
 31
0
  0
LINE
  8
0
 62
7
 10
49.45180367943192
 20
-45.35000000000014
 30
0
 11
48.61849954949651
 21
-45.35000000000014
 31
0
  0
LINE
  8
0
 62
7
 10
86.29559895829942
 20
-46.15103751978933
 30
0
 11
86.28161679638146
 21
-45.35000000000014
 31
0
  0
LINE
  8
0
 62
7
 10
86.28161679638146
 20
-45.35000000000014
 30
0
 11
85.44831266644604
 21
-45.35000000000014
 31
0
  0
LINE
  8
0
 62
7
 10
173.4483126664464
 20
-45.35000000000008
 30
0
 11
173.0703984911647
 21
-23.69931139839929
 31
0
  0
LINE
  8
0
 62
7
 10
178.8672449855426
 20
-1.700000000000102
 30
0
 11
178.8804131336132
 21
-1.699999999999989
 31
0
  0
LINE
  8
0
 62
7
 10
174.2816167963819
 20
-45.35000000000008
 30
0
 11
173.4483126664464
 21
-45.35000000000008
 31
0
  0
LINE
  8
0
 62
7
 10
174.2955989582997
 20
-46.15103751978927
 30
0
 11
174.2816167963819
 21
-45.35000000000008
 31
0
  0
LINE
  8
0
 62
7
 10
42.28161679638191
 20
-45.35000000000014
 30
0
 11
41.44831266644644
 21
-45.35000000000014
 31
0
  0
LINE
  8
0
 62
7
 10
41.44831266644644
 20
-45.35000000000014
 30
0
 11
40.99757630899211
 21
-19.52733137586256
 31
0
  0
LINE
  8
0
 62
7
 10
42.29559895829971
 20
-46.15103751978933
 30
0
 11
42.28161679638191
 21
-45.35000000000014
 31
0
  0
LINE
  8
0
 62
7
 10
86.85005817293876
 20
-52.32500000000005
 30
0
 11
87.95005817293901
 21
-52.32500000000005
 31
0
  0
LINE
  8
0
 62
7
 10
4.554788562508122
 20
-62.00000000000006
 30
0
 11
4.450058172938725
 21
-56.00000000000017
 31
0
  0
LINE
  8
0
 62
7
 10
20.45005817293872
 20
-56.00000000000006
 30
0
 11
4.450058172938725
 21
-56.00000000000017
 31
0
  0
LINE
  8
0
 62
7
 10
20.34532778336956
 20
-62.00000000000006
 30
0
 11
20.45005817293872
 21
-56.00000000000006
 31
0
  0
LINE
  8
0
 62
7
 10
4.450058172938725
 20
-56.00000000000017
 30
0
 11
4.450058172939237
 21
-55.00000000000006
 31
0
  0
LINE
  8
0
 62
7
 10
4.554788562508122
 20
-62.00000000000006
 30
0
 11
20.34532778336956
 21
-62.00000000000006
 31
0
  0
LINE
  8
0
 62
7
 10
92.48435903702062
 20
-53.03490481287474
 30
0
 11
92.46690397209244
 21
-54.03490481287463
 31
0
  0
LINE
  8
0
 62
7
 10
4.484359037020624
 20
-53.03490481287474
 30
0
 11
4.466903972092439
 21
-54.03490481287463
 31
0
  0
LINE
  8
0
 62
7
 10
87.45005817293901
 20
-53.82500000000016
 30
0
 11
89.45005817293901
 21
-53.82499999999936
 31
0
  0
LINE
  8
0
 62
7
 10
4.618499549496505
 20
-45.35000000000014
 30
0
 11
4.604517387578653
 21
-46.15103751978933
 31
0
  0
LINE
  8
0
 62
7
 10
4.569681842010539
 20
-48.14676458877045
 30
0
 11
4.484359037020624
 21
-53.03490481287474
 31
0
  0
LINE
  8
0
 62
7
 10
5.451803679431919
 20
-45.35000000000014
 30
0
 11
5.829717854713522
 21
-23.69931139839923
 31
0
  0
LINE
  8
0
 62
7
 10
5.451803679431919
 20
-45.35000000000014
 30
0
 11
4.618499549496505
 21
-45.35000000000014
 31
0
  0
LINE
  8
0
 62
7
 10
0.9157573088578488
 20
-53.03490481287474
 30
0
 11
0.01970321226525584
 21
-1.700000000000045
 31
0
  0
LINE
  8
0
 62
7
 10
0.01970321226525584
 20
-1.700000000000045
 30
0
 11
0.03287136033594606
 21
-1.700000000000045
 31
0
  0
LINE
  8
0
 62
7
 10
140.0513827359953
 20
-5.804880329737216
 30
0
 11
139.9656459693655
 21
-0.8930242591729893
 31
0
  0
LINE
  8
0
 62
7
 10
140.1001717313218
 20
-8.60000000000008
 30
0
 11
140.0861720220562
 21
-7.797957193333218
 31
0
  0
LINE
  8
0
 62
7
 10
2.915452699170544
 20
-55.00000000000017
 30
0
 11
4.450058172939237
 21
-55.00000000000006
 31
0
  0
LINE
  8
0
 62
7
 10
26.45005817293924
 20
-56.00000000000006
 30
0
 11
20.45005817293872
 21
-56.00000000000006
 31
0
  0
LINE
  8
0
 62
7
 10
4.466903972092439
 20
-54.03490481287463
 30
0
 11
4.450058172939237
 21
-55.00000000000006
 31
0
  0
ARC
  8
0
 62
7
 10
2.915452699170544
 20
-53.00000000000017
 30
0
 40
1.999999999999913
 50
181.0000000000002
 51
270
  0
ARC
  8
0
 62
7
 10
175.9846636467078
 20
-53.00000000000011
 30
0
 40
2
 50
270
 51
358.9999999999994
  0
ARC
  8
0
 62
7
 10
89.45005817293901
 20
-52.32499999999936
 30
0
 40
1.50000000000002
 50
334.3207113805104
 51
0
  0
ARC
  8
0
 62
7
 10
89.45005817293901
 20
-52.32499999999936
 30
0
 40
1.499999999999969
 50
205.6792886194905
 51
270
  0
ARC
  8
0
 62
7
 10
89.45005817293901
 20
-52.32499999999936
 30
0
 40
1.500000000000039
 50
154.3207113805641
 51
180.0000000000263
  0
ARC
  8
0
 62
7
 10
140.177278673094
 20
-13.00000000000011
 30
0
 40
2.000000000000139
 50
180.9999999999986
 51
270
  0
ARC
  8
0
 62
7
 10
170.7228376727845
 20
-13.00000000000011
 30
0
 40
2
 50
270
 51
359.000000000003
  0
ARC
  8
0
 62
7
 10
82.95389651513261
 20
-17.04237139720817
 30
0
 40
2.000000000000028
 50
1.000000000001863
 51
90.74741606915643
  0
ARC
  8
0
 62
7
 10
95.94621983074541
 20
-17.04237139720857
 30
0
 40
1.999999999999958
 50
89.25258393084027
 51
179.0000000000013
  0
ARC
  8
0
 62
7
 10
89.45005817293776
 20
-515.0000000000653
 30
0
 40
500.0000000000651
 50
85.67826168123685
 51
89.25258393084077
  0
ARC
  8
0
 62
7
 10
126.9778733965312
 20
-18.41600601253384
 30
0
 40
1.999999999999812
 50
0.9999999999984083
 51
85.67826168123712
  0
ARC
  8
0
 62
7
 10
139.9022354271989
 20
-19.56223618873707
 30
0
 40
2.000000000000042
 50
84.18541235938386
 51
179.0000000000015
  0
ARC
  8
0
 62
7
 10
92.65005817293911
 20
-47.15000000000003
 30
0
 40
0.9999999999999778
 50
92.61019756986055
 51
265.3898024301334
  0
ARC
  8
0
 62
7
 10
136.6500581729391
 20
-47.15000000000003
 30
0
 40
0.9999999999999778
 50
92.61019756986055
 51
265.3898024301319
  0
ARC
  8
0
 62
7
 10
130.2500581729392
 20
-47.15000000000003
 30
0
 40
1.000000000000109
 50
274.6101975698677
 51
87.38980243013296
  0
ARC
  8
0
 62
7
 10
89.45005817294822
 20
-515.0000000000657
 30
0
 40
500.0000000000662
 50
90.74741606916014
 51
94.32173831876402
  0
ARC
  8
0
 62
7
 10
48.65005817293911
 20
-47.15000000000003
 30
0
 40
0.9999999999999805
 50
92.61019756986379
 51
265.3898024301334
  0
ARC
  8
0
 62
7
 10
86.25005817293925
 20
-47.15000000000003
 30
0
 40
1.000000000000075
 50
274.6101975698434
 51
87.38980243015246
  0
ARC
  8
0
 62
7
 10
51.92224294934732
 20
-18.41600601253373
 30
0
 40
1.999999999999957
 50
94.32173831876474
 51
179.000000000003
  0
ARC
  8
0
 62
7
 10
171.0707031008519
 20
-23.7342162112738
 30
0
 40
2.000000000000025
 50
0.9999999999984034
 51
80.56684216606693
  0
ARC
  8
0
 62
7
 10
155.4500581729392
 20
-23.99854540988821
 30
0
 40
1.500000705277299
 50
180.0555612321571
 51
359.9444387678429
  0
ARC
  8
0
 62
7
 10
155.4500581729392
 20
-24
 30
0
 40
1.5
 50
359.9999999999783
 51
180.0000000000217
  0
ARC
  8
0
 62
7
 10
111.4500581729392
 20
-23.99854540988827
 30
0
 40
1.500000705277299
 50
180.0555612321571
 51
359.9444387678429
  0
ARC
  8
0
 62
7
 10
111.4500581729392
 20
-24.00000000000006
 30
0
 40
1.5
 50
359.9999999999783
 51
180.0000000000217
  0
ARC
  8
0
 62
7
 10
89.45005817292855
 20
-515.0000000000632
 30
0
 40
500.0000000000641
 50
80.56684216607113
 51
84.1854123593867
  0
ARC
  8
0
 62
7
 10
170.7500581729392
 20
-6.800000000000011
 30
0
 40
1.000000000000064
 50
273.6629013545394
 51
84.33709864546019
  0
ARC
  8
0
 62
7
 10
174.2500581729392
 20
-47.14999999999998
 30
0
 40
1.000000000000102
 50
274.6101975698628
 51
87.38980243013296
  0
ARC
  8
0
 62
7
 10
42.25005817293925
 20
-47.15000000000003
 30
0
 40
1.000000000000107
 50
274.610197569866
 51
87.3898024301358
  0
ARC
  8
0
 62
7
 10
38.99788091867941
 20
-19.56223618873713
 30
0
 40
1.99999999999992
 50
1.000000000000187
 51
95.81458764060699
  0
ARC
  8
0
 62
7
 10
7.829413245026444
 20
-23.73421621127375
 30
0
 40
1.999999999999986
 50
99.4331578339274
 51
179.0000000000014
  0
ARC
  8
0
 62
7
 10
89.45005817294822
 20
-515.0000000000657
 30
0
 40
500.0000000000663
 50
95.81458764061307
 51
99.43315783392862
  0
ARC
  8
0
 62
7
 10
67.45005817293924
 20
-23.99854540988827
 30
0
 40
1.500000705277299
 50
180.0555612321571
 51
359.9444387678429
  0
ARC
  8
0
 62
7
 10
67.45005817293924
 20
-24.00000000000006
 30
0
 40
1.5
 50
359.9999999999783
 51
180.0000000000217
  0
ARC
  8
0
 62
7
 10
4.650058172939112
 20
-47.15000000000003
 30
0
 40
0.9999999999999805
 50
92.61019756986384
 51
265.3898024301338
  0
ARC
  8
0
 62
7
 10
140.1500581729392
 20
-6.800000000000011
 30
0
 40
1.000000000000001
 50
95.66290135453818
 51
266.3370986454557
  0
ARC
  8
0
 62
7
 10
89.45005817293901
 20
-52.32499999999936
 30
0
 40
1.5
 50
270
 51
334.3207113805104
  0
ARC
  8
0
 62
7
 10
89.45005817293901
 20
-52.32499999999936
 30
0
 40
1.5
 50
180.0000000000263
 51
205.6792886194905
  0
ARC
  8
0
 62
7
 10
89.45005817293901
 20
-52.32499999999936
 30
0
 40
1.4999999999992
 50
25.67928861943444
 51
154.3207113805641
  0
ARC
  8
0
 62
7
 10
89.45005817293901
 20
-52.32499999999936
 30
0
 40
1.5
 50
0
 51
25.67928861943444
  0
CIRCLE
  8
0
 62
7
 10
38.25005817293925
 20
-28.99855011173355
 30
0
 40
1.495152776847419
  0
CIRCLE
  8
0
 62
7
 10
23.45005817293924
 20
-23.99854540988827
 30
0
 40
1.500001410553701
  0
CIRCLE
  8
0
 62
7
 10
28.45005817293872
 20
-6.000000000000171
 30
0
 40
1.500000000000115
  0
CIRCLE
  8
0
 62
7
 10
104.2500581729392
 20
-28.99855011173355
 30
0
 40
1.495152776847419
  0
CIRCLE
  8
0
 62
7
 10
118.6500581729391
 20
-28.99855011173355
 30
0
 40
1.495152776847419
  0
CIRCLE
  8
0
 62
7
 10
140.6500581729391
 20
-28.99855011173349
 30
0
 40
1.495152776847419
  0
CIRCLE
  8
0
 62
7
 10
148.2500581729392
 20
-28.99855011173349
 30
0
 40
1.495152776847419
  0
CIRCLE
  8
0
 62
7
 10
162.6500581729391
 20
-28.99855011173349
 30
0
 40
1.495152776847419
  0
CIRCLE
  8
0
 62
7
 10
170.2500581729393
 20
-28.99855011173349
 30
0
 40
1.495152776847419
  0
CIRCLE
  8
0
 62
7
 10
126.2500581729392
 20
-28.99855011173355
 30
0
 40
1.495152776847419
  0
CIRCLE
  8
0
 62
7
 10
52.45005817293872
 20
-6.000000000000171
 30
0
 40
1.499999999999609
  0
CIRCLE
  8
0
 62
7
 10
60.45005817293872
 20
-6.000000000000171
 30
0
 40
1.500000000000115
  0
CIRCLE
  8
0
 62
7
 10
44.45005817293872
 20
-6.000000000000171
 30
0
 40
1.500000000000115
  0
CIRCLE
  8
0
 62
7
 10
36.45005817293872
 20
-6.000000000000171
 30
0
 40
1.500000000000115
  0
CIRCLE
  8
0
 62
7
 10
30.65005817293923
 20
-28.99855011173355
 30
0
 40
1.495152776847419
  0
CIRCLE
  8
0
 62
7
 10
96.65005817293911
 20
-28.99855011173355
 30
0
 40
1.495152776847419
  0
CIRCLE
  8
0
 62
7
 10
12.45005817293872
 20
-6.000000000000171
 30
0
 40
1.500000000000115
  0
CIRCLE
  8
0
 62
7
 10
20.45005817293872
 20
-6.000000000000171
 30
0
 40
1.500000000000115
  0
CIRCLE
  8
0
 62
7
 10
52.65005817293911
 20
-28.99855011173355
 30
0
 40
1.495152776847419
  0
CIRCLE
  8
0
 62
7
 10
82.25005817293925
 20
-28.99855011173355
 30
0
 40
1.495152776847419
  0
CIRCLE
  8
0
 62
7
 10
60.25005817293925
 20
-28.99855011173355
 30
0
 40
1.495152776847419
  0
CIRCLE
  8
0
 62
7
 10
74.65005817293911
 20
-28.99855011173355
 30
0
 40
1.495152776847419
  0
CIRCLE
  8
0
 62
7
 10
8.650058172939225
 20
-28.99855011173355
 30
0
 40
1.495152776847419
  0
CIRCLE
  8
0
 62
7
 10
16.25005817293925
 20
-28.99855011173355
 30
0
 40
1.495152776847419
  0
POLYLINE
  8
0
 62
7
 66
1
  0
VERTEX
  8
0
 10
178.9001163458784
 20
-1.13686837721616e-13
 30
0
 42
-3.327009959379922e-05
  0
VERTEX
  8
0
 10
178.8837366494406
 20
-0.850000419872174
 30
0
  0
VERTEX
  8
0
 10
178.8754047670864
 20
-1.280157595456082
 30
0
  0
VERTEX
  8
0
 10
178.8672449855426
 20
-1.700000000000102
 30
0
  0
SEQEND
  8
0
  0
POLYLINE
  8
0
 62
7
 66
1
  0
VERTEX
  8
0
 10
0
 20
0
 30
0
 42
3.287831951020073e-05
  0
VERTEX
  8
0
 10
0.01637969643792303
 20
-0.8500004198722309
 30
0
  0
VERTEX
  8
0
 10
0.02471159593942232
 20
-1.280158479216404
 30
0
  0
VERTEX
  8
0
 10
0.03287136033594606
 20
-1.700000000000045
 30
0
  0
SEQEND
  8
0
  0
ENDSEC
  0
EOF
