  0
SECTION
  2
HEADER
  9
$ACADVER
  1
AC1009
  9
$INSBASE
 10
0
 20
0
  9
$EXTMIN
 10
0
 20
-98.8521075252019
  9
$EXTMAX
 10
155.75
 20
42.4457990456488
  9
$LIMMIN
 10
0
 20
-98.8521075252019
  9
$LIMMAX
 10
155.75
 20
42.4457990456488
  9
$VIEWCTR
 10
10
 20
10
  9
$VIEWSIZE
 40
10
  9
$SNAPMODE
 70
0
  9
$SNAPUNIT
 10
1
 20
1
  9
$SNAPBASE
 10
0
 20
0
  9
$SNAPANG
 50
0
  9
$SNAPSTYLE
 70
0
  9
$SNAPISOPAIR
 70
0
  9
$GRIDMODE
 70
0
  9
$GRIDUNIT
 10
0
 20
0
  9
$ORTHOMODE
 70
0
  9
$REGENMODE
 70
1
  9
$FILLMODE
 70
1
  9
$QTEXTMODE
 70
0
  9
$DRAGMODE
 70
2
  9
$LTSCALE
 40
1
  9
$OSMODE
 70
0
  9
$ATTMODE
 70
1
  9
$TEXTSIZE
 40
3.5
  9
$TRACEWID
 40
0.5
  9
$TEXTSTYLE
  7
STANDARD
  9
$CLAYER
  8
0
  9
$CELTYPE
  6
BYLAYER
  9
$CECOLOR
 62
256
  9
$DIMSCALE
 40
1
  9
$DIMASZ
 40
0.18
  9
$DIMEXO
 40
0.0625
  9
$DIMDLI
 40
0.38
  9
$DIMRND
 40
0
  9
$DIMDLE
 40
0
  9
$DIMEXE
 40
0.18
  9
$DIMTP
 40
0
  9
$DIMTM
 40
0
  9
$DIMTXT
 40
0.18
  9
$DIMCEN
 40
0.09
  9
$DIMTSZ
 40
0
  9
$DIMTOL
 70
0
  9
$DIMLIM
 70
0
  9
$DIMTIH
 70
1
  9
$DIMTOH
 70
1
  9
$DIMSE1
 70
0
  9
$DIMSE2
 70
0
  9
$DIMTAD
 70
0
  9
$DIMZIN
 70
0
  9
$DIMBLK
  1

  9
$DIMASO
 70
1
  9
$DIMSHO
 70
1
  9
$DIMPOST
  1

  9
$DIMAPOST
  1

  9
$DIMALT
 70
0
  9
$DIMALTD
 70
2
  9
$DIMALTF
 40
25.4
  9
$DIMLFAC
 40
1
  9
$DIMTOFL
 70
0
  9
$DIMTVP
 40
0
  9
$DIMTIX
 70
0
  9
$DIMSOXD
 70
0
  9
$DIMSAH
 70
0
  9
$DIMBLK1
  1

  9
$DIMBLK2
  1

  9
$DIMSTYLE
  2
*UNNAMED
  9
$DIMCLRD
 70
0
  9
$DIMCLRE
 70
0
  9
$DIMCLRT
 70
0
  9
$DIMTFAC
 40
1
  9
$DIMGAP
 40
0.09
  9
$LUNITS
 70
2
  9
$LUPREC
 70
4
  9
$AXISMODE
 70
0
  9
$AXISUNIT
 10
0
 20
0
  9
$SKETCHINC
 40
0.1
  9
$FILLETRAD
 40
2
  9
$AUNITS
 70
0
  9
$AUPREC
 70
0
  9
$MENU
  1
ACAD
  9
$ELEVATION
 40
0
  9
$THICKNESS
 40
0
  9
$VIEWDIR
 10
0
 20
0
 30
1
  9
$LIMCHECK
 70
0
  9
$BLIPMODE
 70
1
  9
$CHAMFERA
 40
0
  9
$CHAMFERB
 40
0
  9
$FASTZOOM
 70
1
  9
$SKPOLY
 70
0
  9
$ANGBASE
 50
0
  9
$ANGDIR
 70
0
  9
$PDMODE
 70
0
  9
$PDSIZE
 40
0
  9
$PLINEWID
 40
0
  9
$COORDS
 70
2
  0
ENDSEC
  0
SECTION
  2
TABLES
  0
TABLE
  2
DIMSTYLE
 70
0
  0
ENDTAB
  0
TABLE
  2
LTYPE
 70
9
  0
LTYPE
  2
CONTINUOUS
 70
64
  3
Solid line
 72
65
 73
0
 40
0
  0
LTYPE
  2
BORDER
 70
64
  3
__ __ . __ __ .
 72
65
 73
6
 40
7.172697368421053
 49
2.049342105263158
 49
-1.024671052631579
 49
2.049342105263158
 49
-1.024671052631579
 49
0
 49
-1.024671052631579
  0
LTYPE
  2
CENTER
 70
64
  3
____ _ ____ _
 72
65
 73
4
 40
8.197368421052632
 49
5.123355263157895
 49
-1.024671052631579
 49
1.024671052631579
 49
-1.024671052631579
  0
LTYPE
  2
DASHDOT
 70
64
  3
__ . __ . __ .
 72
65
 73
4
 40
4.098684210526316
 49
2.049342105263158
 49
-1.024671052631579
 49
0
 49
-1.024671052631579
  0
LTYPE
  2
DASHED
 70
64
  3
__ __ __ __ __
 72
65
 73
2
 40
3.074013157894737
 49
2.049342105263158
 49
-1.024671052631579
  0
LTYPE
  2
DIVIDE
 70
64
  3
__ . . __ . . 
 72
65
 73
6
 40
5.123355263157895
 49
2.049342105263158
 49
-1.024671052631579
 49
0
 49
-1.024671052631579
 49
0
 49
-1.024671052631579
  0
LTYPE
  2
DOT
 70
64
  3
..............
 72
65
 73
4
 40
2.049342105263158
 49
0
 49
-1.024671052631579
 49
0
 49
-1.024671052631579
  0
LTYPE
  2
HIDDEN
 70
64
  3
_ _ _ _ _ _ _
 72
65
 73
2
 40
1.537006578947369
 49
1.024671052631579
 49
-0.5123355263157895
  0
LTYPE
  2
PHANTOM
 70
64
  3
_____ _ _ _____ _ _ 
 72
65
 73
6
 40
10.24671052631579
 49
5.123355263157895
 49
-1.024671052631579
 49
1.024671052631579
 49
-1.024671052631579
 49
1.024671052631579
 49
-1.024671052631579
  0
ENDTAB
  0
TABLE
  2
LAYER
 70
3
  0
LAYER
  2
0
 70
0
 62
7
  6
CONTINUOUS
  0
LAYER
  2
1
 70
0
 62
7
  6
CONTINUOUS
  0
ENDTAB
  0
TABLE
  2
STYLE
 70
4
  0
STYLE
  2
STANDARD
 70
0
 40
0
 41
1
 50
0
 71
0
 42
3.5
  3
txt
  4

  0
STYLE
  2
SIMPLEX
 70
0
 40
0
 41
1
 50
0
 71
0
 42
3.5
  3
simplex
  4

  0
STYLE
  2
COMPLEX
 70
0
 40
0
 41
1
 50
0
 71
0
 42
3.5
  3
complex
  4

  0
STYLE
  2
ITALIC
 70
0
 40
0
 41
1
 50
0
 71
0
 42
3.5
  3
italic
  4

  0
ENDTAB
  0
TABLE
  2
VIEW
 70
0
  0
ENDTAB
  0
ENDSEC
  0
SECTION
  2
BLOCKS
  0
ENDSEC
  0
SECTION
  2
ENTITIES
  0
LINE
  8
0
 62
7
 10
32.2134863382036
 20
37.979438732235
 30
0
 11
32.2134863382036
 21
-13.2262612465232
 31
0
  0
LINE
  8
0
 62
7
 10
44.3634863382036
 20
38.479438732235
 30
0
 11
44.3634863382036
 21
-73.91391159665361
 31
0
  0
LINE
  8
0
 62
7
 10
56.5134863382036
 20
38.479438732235
 30
0
 11
56.5134863382036
 21
-98.8521075252019
 31
0
  0
LINE
  8
0
 62
7
 10
68.6634863382036
 20
38.479438732235
 30
0
 11
68.6634863382036
 21
-98.8521075252019
 31
0
  0
LINE
  8
0
 62
7
 10
80.8134863382036
 20
38.479438732235
 30
0
 11
80.8134863382036
 21
-98.8521075252019
 31
0
  0
LINE
  8
0
 62
7
 10
92.96348633820359
 20
38.479438732235
 30
0
 11
92.96348633820359
 21
-98.8521075252019
 31
0
  0
LINE
  8
0
 62
7
 10
105.113486338204
 20
38.479438732235
 30
0
 11
105.113486338204
 21
-98.8521075252019
 31
0
  0
LINE
  8
0
 62
7
 10
117.263486338204
 20
38.479438732235
 30
0
 11
117.263486338204
 21
-98.8521075252019
 31
0
  0
LINE
  8
0
 62
7
 10
129.413486338204
 20
38.479438732235
 30
0
 11
129.413486338204
 21
-98.8521075252019
 31
0
  0
LINE
  8
0
 62
7
 10
153.713486338204
 20
37.979438732235
 30
0
 11
153.713486338204
 21
-98.8521075252019
 31
0
  0
LINE
  8
0
 62
7
 10
141.563486338204
 20
38.479438732235
 30
0
 11
141.563486338204
 21
-98.8521075252019
 31
0
  0
LINE
  8
0
 62
7
 10
32.2134863382036
 20
38.479438732235
 30
0
 11
32.2134863382036
 21
37.979438732235
 31
0
  0
LINE
  8
0
 62
7
 10
152.038486338204
 20
22.6181408861592
 30
0
 11
143.238486338203
 21
22.6181408861592
 31
0
  0
LINE
  8
0
 62
7
 10
152.538486338204
 20
5.87086901469536
 30
0
 11
152.538486338204
 21
22.1181408861592
 31
0
  0
LINE
  8
0
 62
7
 10
142.738486338203
 20
22.1181408861592
 30
0
 11
142.738486338203
 21
5.87086901469536
 31
0
  0
LINE
  8
0
 62
7
 10
143.238486338203
 20
5.37086901469536
 30
0
 11
152.038486338204
 21
5.37086901469536
 31
0
  0
LINE
  8
0
 62
7
 10
139.888486338203
 20
22.6181408861592
 30
0
 11
131.088486338203
 21
22.6181408861592
 31
0
  0
LINE
  8
0
 62
7
 10
140.388486338203
 20
5.87086901469536
 30
0
 11
140.388486338203
 21
22.1181408861592
 31
0
  0
LINE
  8
0
 62
7
 10
130.588486338203
 20
22.1181408861592
 30
0
 11
130.588486338203
 21
5.87086901469536
 31
0
  0
LINE
  8
0
 62
7
 10
131.088486338203
 20
5.37086901469536
 30
0
 11
139.888486338203
 21
5.37086901469536
 31
0
  0
LINE
  8
0
 62
7
 10
127.738486338204
 20
22.6181408861592
 30
0
 11
118.938486338204
 21
22.6181408861592
 31
0
  0
LINE
  8
0
 62
7
 10
128.238486338204
 20
5.87086901469536
 30
0
 11
128.238486338204
 21
22.1181408861592
 31
0
  0
LINE
  8
0
 62
7
 10
118.438486338204
 20
22.1181408861592
 30
0
 11
118.438486338204
 21
5.87086901469536
 31
0
  0
LINE
  8
0
 62
7
 10
118.938486338204
 20
5.37086901469536
 30
0
 11
127.738486338204
 21
5.37086901469536
 31
0
  0
LINE
  8
0
 62
7
 10
115.588486338203
 20
22.6181408861592
 30
0
 11
106.788486338203
 21
22.6181408861592
 31
0
  0
LINE
  8
0
 62
7
 10
116.088486338203
 20
5.87086901469536
 30
0
 11
116.088486338203
 21
22.1181408861592
 31
0
  0
LINE
  8
0
 62
7
 10
106.288486338203
 20
22.1181408861592
 30
0
 11
106.288486338203
 21
5.87086901469536
 31
0
  0
LINE
  8
0
 62
7
 10
106.788486338203
 20
5.37086901469536
 30
0
 11
115.588486338203
 21
5.37086901469536
 31
0
  0
LINE
  8
0
 62
7
 10
103.438486338204
 20
22.6181408861592
 30
0
 11
94.63848633820351
 21
22.6181408861592
 31
0
  0
LINE
  8
0
 62
7
 10
103.938486338204
 20
5.87086901469536
 30
0
 11
103.938486338204
 21
22.1181408861592
 31
0
  0
LINE
  8
0
 62
7
 10
94.13848633820351
 20
22.1181408861592
 30
0
 11
94.13848633820351
 21
5.87086901469536
 31
0
  0
LINE
  8
0
 62
7
 10
94.63848633820351
 20
5.37086901469536
 30
0
 11
103.438486338204
 21
5.37086901469536
 31
0
  0
LINE
  8
0
 62
7
 10
91.2884863382035
 20
22.6181408861592
 30
0
 11
82.4884863382035
 21
22.6181408861592
 31
0
  0
LINE
  8
0
 62
7
 10
91.7884863382035
 20
5.87086901469536
 30
0
 11
91.7884863382035
 21
22.1181408861592
 31
0
  0
LINE
  8
0
 62
7
 10
81.9884863382035
 20
22.1181408861592
 30
0
 11
81.9884863382035
 21
5.87086901469536
 31
0
  0
LINE
  8
0
 62
7
 10
82.4884863382035
 20
5.37086901469536
 30
0
 11
91.2884863382035
 21
5.37086901469536
 31
0
  0
LINE
  8
0
 62
7
 10
79.13848633820351
 20
22.6181408861592
 30
0
 11
70.3384863382035
 21
22.6181408861592
 31
0
  0
LINE
  8
0
 62
7
 10
79.63848633820351
 20
5.87086901469536
 30
0
 11
79.63848633820351
 21
22.1181408861592
 31
0
  0
LINE
  8
0
 62
7
 10
69.8384863382035
 20
22.1181408861592
 30
0
 11
69.8384863382035
 21
5.87086901469536
 31
0
  0
LINE
  8
0
 62
7
 10
70.3384863382035
 20
5.37086901469536
 30
0
 11
79.13848633820351
 21
5.37086901469536
 31
0
  0
LINE
  8
0
 62
7
 10
66.9884863382035
 20
22.6181408861592
 30
0
 11
58.1884863382035
 21
22.6181408861592
 31
0
  0
LINE
  8
0
 62
7
 10
67.4884863382035
 20
5.87086901469536
 30
0
 11
67.4884863382035
 21
22.1181408861592
 31
0
  0
LINE
  8
0
 62
7
 10
57.6884863382035
 20
22.1181408861592
 30
0
 11
57.6884863382035
 21
5.87086901469536
 31
0
  0
LINE
  8
0
 62
7
 10
58.1884863382035
 20
5.37086901469536
 30
0
 11
66.9884863382035
 21
5.37086901469536
 31
0
  0
LINE
  8
0
 62
7
 10
54.8384863382035
 20
22.6181408861592
 30
0
 11
46.0384863382035
 21
22.6181408861592
 31
0
  0
LINE
  8
0
 62
7
 10
55.3384863382035
 20
5.87086901469536
 30
0
 11
55.3384863382035
 21
22.1181408861592
 31
0
  0
LINE
  8
0
 62
7
 10
45.5384863382035
 20
22.1181408861592
 30
0
 11
45.5384863382035
 21
5.87086901469536
 31
0
  0
LINE
  8
0
 62
7
 10
46.0384863382035
 20
5.37086901469536
 30
0
 11
54.8384863382035
 21
5.37086901469536
 31
0
  0
LINE
  8
0
 62
7
 10
42.6884863382035
 20
22.6181408861592
 30
0
 11
33.8884863382035
 21
22.6181408861592
 31
0
  0
LINE
  8
0
 62
7
 10
43.1884863382035
 20
5.87086901469536
 30
0
 11
43.1884863382035
 21
22.1181408861592
 31
0
  0
LINE
  8
0
 62
7
 10
33.3884863382035
 20
22.1181408861592
 30
0
 11
33.3884863382035
 21
5.87086901469536
 31
0
  0
LINE
  8
0
 62
7
 10
33.8884863382035
 20
5.37086901469536
 30
0
 11
42.6884863382035
 21
5.37086901469536
 31
0
  0
LINE
  8
0
 62
7
 10
30.5384863382036
 20
22.6181408861592
 30
0
 11
21.7384863382036
 21
22.6181408861592
 31
0
  0
LINE
  8
0
 62
7
 10
31.0384863382035
 20
5.87086901469536
 30
0
 11
31.0384863382036
 21
22.1181408861592
 31
0
  0
LINE
  8
0
 62
7
 10
21.2384863382036
 20
22.1181408861592
 30
0
 11
21.2384863382036
 21
5.87086901469536
 31
0
  0
LINE
  8
0
 62
7
 10
151.638486338204
 20
38.479438732235
 30
0
 11
141.563486338204
 21
38.479438732235
 31
0
  0
LINE
  8
0
 62
7
 10
151.638486338204
 20
34.8088876619396
 30
0
 11
151.838486338204
 21
34.8088876619396
 31
0
  0
LINE
  8
0
 62
7
 10
151.838486338204
 20
33.3474913162168
 30
0
 11
153.713486338204
 21
33.3474913162172
 31
0
  0
LINE
  8
0
 62
7
 10
151.838486338204
 20
33.3474913162168
 30
0
 11
151.838486338204
 21
34.8088876619396
 31
0
  0
LINE
  8
0
 62
7
 10
151.638486338204
 20
31.8028984761803
 30
0
 11
151.638486338204
 21
38.479438732235
 31
0
  0
LINE
  8
0
 62
7
 10
139.488486338204
 20
38.479438732235
 30
0
 11
129.413486338204
 21
38.479438732235
 31
0
  0
LINE
  8
0
 62
7
 10
139.488486338204
 20
34.8088876619396
 30
0
 11
139.688486338204
 21
34.8088876619396
 31
0
  0
LINE
  8
0
 62
7
 10
139.688486338204
 20
33.3474913162168
 30
0
 11
141.563486338204
 21
33.3474913162168
 31
0
  0
LINE
  8
0
 62
7
 10
139.688486338204
 20
33.3474913162168
 30
0
 11
139.688486338204
 21
34.8088876619396
 31
0
  0
LINE
  8
0
 62
7
 10
139.488486338204
 20
31.8028984761803
 30
0
 11
139.488486338204
 21
38.479438732235
 31
0
  0
LINE
  8
0
 62
7
 10
127.338486338204
 20
38.479438732235
 30
0
 11
117.263486338204
 21
38.479438732235
 31
0
  0
LINE
  8
0
 62
7
 10
127.338486338204
 20
34.8088876619396
 30
0
 11
127.538486338204
 21
34.8088876619396
 31
0
  0
LINE
  8
0
 62
7
 10
127.538486338204
 20
33.3474913162168
 30
0
 11
129.413486338204
 21
33.3474913162168
 31
0
  0
LINE
  8
0
 62
7
 10
127.538486338204
 20
33.3474913162168
 30
0
 11
127.538486338204
 21
34.8088876619396
 31
0
  0
LINE
  8
0
 62
7
 10
127.338486338204
 20
31.8028984761803
 30
0
 11
127.338486338204
 21
38.479438732235
 31
0
  0
LINE
  8
0
 62
7
 10
115.188486338204
 20
38.479438732235
 30
0
 11
105.113486338204
 21
38.479438732235
 31
0
  0
LINE
  8
0
 62
7
 10
115.188486338204
 20
34.8088876619396
 30
0
 11
115.388486338204
 21
34.8088876619396
 31
0
  0
LINE
  8
0
 62
7
 10
115.388486338204
 20
33.3474913162168
 30
0
 11
117.263486338204
 21
33.3474913162168
 31
0
  0
LINE
  8
0
 62
7
 10
115.388486338204
 20
33.3474913162168
 30
0
 11
115.388486338204
 21
34.8088876619396
 31
0
  0
LINE
  8
0
 62
7
 10
115.188486338204
 20
31.8028984761803
 30
0
 11
115.188486338204
 21
38.479438732235
 31
0
  0
LINE
  8
0
 62
7
 10
103.038486338204
 20
38.479438732235
 30
0
 11
92.96348633820359
 21
38.479438732235
 31
0
  0
LINE
  8
0
 62
7
 10
103.038486338204
 20
34.8088876619396
 30
0
 11
103.238486338204
 21
34.8088876619396
 31
0
  0
LINE
  8
0
 62
7
 10
103.238486338204
 20
33.3474913162168
 30
0
 11
105.113486338204
 21
33.3474913162168
 31
0
  0
LINE
  8
0
 62
7
 10
103.238486338204
 20
33.3474913162168
 30
0
 11
103.238486338204
 21
34.8088876619396
 31
0
  0
LINE
  8
0
 62
7
 10
103.038486338204
 20
31.8028984761803
 30
0
 11
103.038486338204
 21
38.479438732235
 31
0
  0
LINE
  8
0
 62
7
 10
90.88848633820361
 20
38.479438732235
 30
0
 11
80.8134863382036
 21
38.479438732235
 31
0
  0
LINE
  8
0
 62
7
 10
90.88848633820361
 20
34.8088876619396
 30
0
 11
91.08848633820359
 21
34.8088876619396
 31
0
  0
LINE
  8
0
 62
7
 10
91.08848633820359
 20
33.3474913162168
 30
0
 11
92.96348633820369
 21
33.3474913162168
 31
0
  0
LINE
  8
0
 62
7
 10
91.08848633820359
 20
33.3474913162168
 30
0
 11
91.08848633820359
 21
34.8088876619396
 31
0
  0
LINE
  8
0
 62
7
 10
90.88848633820361
 20
31.8028984761803
 30
0
 11
90.88848633820361
 21
38.479438732235
 31
0
  0
LINE
  8
0
 62
7
 10
78.7384863382036
 20
38.479438732235
 30
0
 11
68.6634863382036
 21
38.479438732235
 31
0
  0
LINE
  8
0
 62
7
 10
78.7384863382036
 20
34.8088876619396
 30
0
 11
78.9384863382036
 21
34.8088876619396
 31
0
  0
LINE
  8
0
 62
7
 10
78.9384863382036
 20
33.3474913162168
 30
0
 11
80.8134863382036
 21
33.3474913162168
 31
0
  0
LINE
  8
0
 62
7
 10
78.9384863382036
 20
33.3474913162168
 30
0
 11
78.9384863382036
 21
34.8088876619396
 31
0
  0
LINE
  8
0
 62
7
 10
78.7384863382036
 20
31.8028984761803
 30
0
 11
78.7384863382036
 21
38.479438732235
 31
0
  0
LINE
  8
0
 62
7
 10
66.58848633820359
 20
38.479438732235
 30
0
 11
56.5134863382036
 21
38.479438732235
 31
0
  0
LINE
  8
0
 62
7
 10
66.58848633820359
 20
34.8088876619396
 30
0
 11
66.7884863382036
 21
34.8088876619396
 31
0
  0
LINE
  8
0
 62
7
 10
66.7884863382036
 20
33.3474913162168
 30
0
 11
68.6634863382036
 21
33.3474913162168
 31
0
  0
LINE
  8
0
 62
7
 10
66.7884863382036
 20
33.3474913162168
 30
0
 11
66.7884863382036
 21
34.8088876619396
 31
0
  0
LINE
  8
0
 62
7
 10
66.58848633820359
 20
31.8028984761803
 30
0
 11
66.58848633820359
 21
38.479438732235
 31
0
  0
LINE
  8
0
 62
7
 10
54.4384863382036
 20
38.479438732235
 30
0
 11
44.3634863382036
 21
38.479438732235
 31
0
  0
LINE
  8
0
 62
7
 10
54.4384863382036
 20
34.8088876619396
 30
0
 11
54.6384863382036
 21
34.8088876619396
 31
0
  0
LINE
  8
0
 62
7
 10
54.6384863382036
 20
33.3474913162168
 30
0
 11
56.5134863382036
 21
33.3474913162168
 31
0
  0
LINE
  8
0
 62
7
 10
54.6384863382036
 20
33.3474913162168
 30
0
 11
54.6384863382036
 21
34.8088876619396
 31
0
  0
LINE
  8
0
 62
7
 10
54.4384863382036
 20
31.8028984761803
 30
0
 11
54.4384863382036
 21
38.479438732235
 31
0
  0
LINE
  8
0
 62
7
 10
42.2884863382036
 20
38.479438732235
 30
0
 11
32.2134863382036
 21
38.479438732235
 31
0
  0
LINE
  8
0
 62
7
 10
42.2884863382036
 20
34.8088876619396
 30
0
 11
42.4884863382036
 21
34.8088876619396
 31
0
  0
LINE
  8
0
 62
7
 10
42.4884863382036
 20
33.3474913162168
 30
0
 11
44.3634863382036
 21
33.3474913162168
 31
0
  0
LINE
  8
0
 62
7
 10
42.4884863382036
 20
33.3474913162168
 30
0
 11
42.4884863382036
 21
34.8088876619396
 31
0
  0
LINE
  8
0
 62
7
 10
42.2884863382036
 20
31.8028984761803
 30
0
 11
42.2884863382036
 21
38.479438732235
 31
0
  0
LINE
  8
0
 62
7
 10
0
 20
-77.9542009543464
 30
0
 11
0
 21
42.4457990456488
 31
0
  0
LINE
  8
0
 62
7
 10
153.713486338204
 20
31.8028984761803
 30
0
 11
32.2134863382036
 21
31.8028984761803
 31
0
  0
LINE
  8
0
 62
7
 10
32.2134863382036
 20
30.3794387322353
 30
0
 11
153.713486338204
 21
30.3794387322352
 31
0
  0
LINE
  8
0
 62
7
 10
9.088486338203561
 20
22.1181408861592
 30
0
 11
9.088486338203561
 21
5.87086901469536
 31
0
  0
LINE
  8
0
 62
7
 10
18.8884863382035
 20
5.87086901469536
 30
0
 11
18.8884863382036
 21
22.1181408861592
 31
0
  0
LINE
  8
0
 62
7
 10
18.3884863382036
 20
22.6181408861592
 30
0
 11
9.588486338203561
 21
22.6181408861592
 31
0
  0
LINE
  8
0
 62
7
 10
32.2134863382036
 20
24.3794387322352
 30
0
 11
153.713486338204
 21
24.3794387322352
 31
0
  0
LINE
  8
0
 62
7
 10
153.713486338204
 20
37.979438732235
 30
0
 11
32.2134863382036
 21
37.979438732235
 31
0
  0
LINE
  8
0
 62
7
 10
106.963486338204
 20
-73.80022844434239
 30
0
 11
106.963486338204
 21
-77.3838943972538
 31
0
  0
LINE
  8
0
 62
7
 10
106.963486338204
 20
-77.3838943972538
 30
0
 11
110.613486338204
 21
-77.3838943972538
 31
0
  0
LINE
  8
0
 62
7
 10
106.963486338204
 20
-73.80022844434239
 30
0
 11
110.613486338204
 21
-73.80022844434239
 31
0
  0
LINE
  8
0
 62
7
 10
111.763486338204
 20
-86.6228541818769
 30
0
 11
111.763486338204
 21
-90.0427565472219
 31
0
  0
LINE
  8
0
 62
7
 10
111.763486338204
 20
-90.0427565472219
 30
0
 11
115.413486338204
 21
-90.042756547222
 31
0
  0
LINE
  8
0
 62
7
 10
111.763486338204
 20
-86.6228541818769
 30
0
 11
115.413486338204
 21
-86.6228541818769
 31
0
  0
LINE
  8
0
 62
7
 10
115.413486338204
 20
-86.6228541818769
 30
0
 11
115.413486338204
 21
-90.042756547222
 31
0
  0
LINE
  8
0
 62
7
 10
106.963486338204
 20
-86.6228541818769
 30
0
 11
110.613486338204
 21
-86.6228541818769
 31
0
  0
LINE
  8
0
 62
7
 10
110.613486338204
 20
-86.6228541818769
 30
0
 11
110.613486338204
 21
-90.0427565472219
 31
0
  0
LINE
  8
0
 62
7
 10
106.963486338204
 20
-90.0427565472219
 30
0
 11
110.613486338204
 21
-90.0427565472219
 31
0
  0
LINE
  8
0
 62
7
 10
106.963486338204
 20
-86.6228541818769
 30
0
 11
106.963486338204
 21
-90.0427565472219
 31
0
  0
LINE
  8
0
 62
7
 10
111.763486338204
 20
-73.80022844434239
 30
0
 11
111.763486338204
 21
-77.3838943972538
 31
0
  0
LINE
  8
0
 62
7
 10
110.613486338204
 20
-73.80022844434239
 30
0
 11
110.613486338204
 21
-77.3838943972538
 31
0
  0
LINE
  8
0
 62
7
 10
115.413486338204
 20
-73.80022844434239
 30
0
 11
115.413486338204
 21
-77.3838943972538
 31
0
  0
LINE
  8
0
 62
7
 10
111.763486338204
 20
-73.80022844434239
 30
0
 11
115.413486338204
 21
-73.80022844434239
 31
0
  0
LINE
  8
0
 62
7
 10
111.763486338204
 20
-77.3838943972538
 30
0
 11
115.413486338204
 21
-77.3838943972538
 31
0
  0
LINE
  8
0
 62
7
 10
32.2134863382036
 20
-72.7535609348416
 30
0
 11
153.713486338204
 21
-72.75356093484049
 31
0
  0
LINE
  8
0
 62
7
 10
106.963486338204
 20
-33.4827711357333
 30
0
 11
110.613486338204
 21
-33.4827711357333
 31
0
  0
LINE
  8
0
 62
7
 10
106.963486338204
 20
-29.9161082948857
 30
0
 11
110.613486338204
 21
-29.9161082948857
 31
0
  0
LINE
  8
0
 62
7
 10
106.963486338204
 20
-29.9161082948857
 30
0
 11
106.963486338204
 21
-33.4827711357333
 31
0
  0
LINE
  8
0
 62
7
 10
110.613486338204
 20
-29.9161082948857
 30
0
 11
110.613486338204
 21
-33.4827711357333
 31
0
  0
LINE
  8
0
 62
7
 10
111.763486338204
 20
-33.4827711357333
 30
0
 11
115.413486338204
 21
-33.4827711357332
 31
0
  0
LINE
  8
0
 62
7
 10
115.413486338204
 20
-29.9161082948857
 30
0
 11
115.413486338204
 21
-33.4827711357332
 31
0
  0
LINE
  8
0
 62
7
 10
111.763486338204
 20
-29.9161082948857
 30
0
 11
111.763486338204
 21
-33.4827711357333
 31
0
  0
LINE
  8
0
 62
7
 10
111.763486338204
 20
-29.9161082948857
 30
0
 11
115.413486338204
 21
-29.9161082948857
 31
0
  0
LINE
  8
0
 62
7
 10
115.413486338204
 20
-55.7840312288449
 30
0
 11
115.413486338204
 21
-59.4703363530639
 31
0
  0
LINE
  8
0
 62
7
 10
111.763486338204
 20
-55.7840312288449
 30
0
 11
115.413486338204
 21
-55.7840312288449
 31
0
  0
LINE
  8
0
 62
7
 10
111.763486338204
 20
-59.4703363530639
 30
0
 11
115.413486338204
 21
-59.4703363530639
 31
0
  0
LINE
  8
0
 62
7
 10
111.763486338204
 20
-55.7840312288449
 30
0
 11
111.763486338204
 21
-59.4703363530639
 31
0
  0
LINE
  8
0
 62
7
 10
106.963486338204
 20
-59.4703363530639
 30
0
 11
110.613486338204
 21
-59.4703363530639
 31
0
  0
LINE
  8
0
 62
7
 10
110.613486338204
 20
-55.7840312288449
 30
0
 11
110.613486338204
 21
-59.4703363530639
 31
0
  0
LINE
  8
0
 62
7
 10
106.963486338204
 20
-55.7840312288449
 30
0
 11
110.613486338204
 21
-55.7840312288449
 31
0
  0
LINE
  8
0
 62
7
 10
106.963486338204
 20
-55.7840312288449
 30
0
 11
106.963486338204
 21
-59.4703363530639
 31
0
  0
LINE
  8
0
 62
7
 10
111.763486338204
 20
-42.8692742915769
 30
0
 11
111.763486338204
 21
-46.5357782860211
 31
0
  0
LINE
  8
0
 62
7
 10
111.763486338204
 20
-42.8692742915769
 30
0
 11
115.413486338204
 21
-42.8692742915769
 31
0
  0
LINE
  8
0
 62
7
 10
115.413486338204
 20
-42.8692742915769
 30
0
 11
115.413486338204
 21
-46.5357782860211
 31
0
  0
LINE
  8
0
 62
7
 10
111.763486338204
 20
-46.5357782860211
 30
0
 11
115.413486338204
 21
-46.5357782860211
 31
0
  0
LINE
  8
0
 62
7
 10
106.963486338204
 20
-46.5357782860211
 30
0
 11
110.613486338204
 21
-46.5357782860211
 31
0
  0
LINE
  8
0
 62
7
 10
110.613486338204
 20
-42.8692742915769
 30
0
 11
110.613486338204
 21
-46.5357782860211
 31
0
  0
LINE
  8
0
 62
7
 10
106.963486338204
 20
-42.8692742915769
 30
0
 11
106.963486338204
 21
-46.5357782860211
 31
0
  0
LINE
  8
0
 62
7
 10
106.963486338204
 20
-42.8692742915769
 30
0
 11
110.613486338204
 21
-42.8692742915769
 31
0
  0
LINE
  8
0
 62
7
 10
106.963486338204
 20
-16.9244341368357
 30
0
 11
106.963486338204
 21
-20.3088385228385
 31
0
  0
LINE
  8
0
 62
7
 10
106.963486338204
 20
-20.3088385228385
 30
0
 11
110.613486338204
 21
-20.3088385228385
 31
0
  0
LINE
  8
0
 62
7
 10
106.963486338204
 20
-16.9244341368357
 30
0
 11
110.613486338204
 21
-16.9244341368357
 31
0
  0
LINE
  8
0
 62
7
 10
110.613486338204
 20
-16.9244341368357
 30
0
 11
110.613486338204
 21
-20.3088385228385
 31
0
  0
LINE
  8
0
 62
7
 10
111.763486338204
 20
-20.3088385228385
 30
0
 11
115.413486338204
 21
-20.3088385228385
 31
0
  0
LINE
  8
0
 62
7
 10
115.413486338204
 20
-16.9244341368357
 30
0
 11
115.413486338204
 21
-20.3088385228385
 31
0
  0
LINE
  8
0
 62
7
 10
111.763486338204
 20
-16.9244341368357
 30
0
 11
115.413486338204
 21
-16.9244341368357
 31
0
  0
LINE
  8
0
 62
7
 10
111.763486338204
 20
-16.9244341368357
 30
0
 11
111.763486338204
 21
-20.3088385228385
 31
0
  0
LINE
  8
0
 62
7
 10
139.713486338204
 20
-73.80022844434239
 30
0
 11
139.713486338204
 21
-77.3838943972538
 31
0
  0
LINE
  8
0
 62
7
 10
136.063486338204
 20
-73.80022844434239
 30
0
 11
139.713486338204
 21
-73.80022844434239
 31
0
  0
LINE
  8
0
 62
7
 10
136.063486338204
 20
-77.3838943972538
 30
0
 11
139.713486338204
 21
-77.3838943972538
 31
0
  0
LINE
  8
0
 62
7
 10
131.263486338204
 20
-90.0427565472219
 30
0
 11
134.913486338204
 21
-90.0427565472219
 31
0
  0
LINE
  8
0
 62
7
 10
131.263486338204
 20
-86.6228541818769
 30
0
 11
134.913486338204
 21
-86.6228541818769
 31
0
  0
LINE
  8
0
 62
7
 10
134.913486338204
 20
-86.6228541818769
 30
0
 11
134.913486338204
 21
-90.0427565472219
 31
0
  0
LINE
  8
0
 62
7
 10
131.263486338204
 20
-86.6228541818769
 30
0
 11
131.263486338204
 21
-90.0427565472219
 31
0
  0
LINE
  8
0
 62
7
 10
136.063486338204
 20
-86.6228541818769
 30
0
 11
136.063486338204
 21
-90.0427565472219
 31
0
  0
LINE
  8
0
 62
7
 10
136.063486338204
 20
-90.0427565472219
 30
0
 11
139.713486338204
 21
-90.042756547222
 31
0
  0
LINE
  8
0
 62
7
 10
136.063486338204
 20
-86.6228541818769
 30
0
 11
139.713486338204
 21
-86.6228541818769
 31
0
  0
LINE
  8
0
 62
7
 10
139.713486338204
 20
-86.6228541818769
 30
0
 11
139.713486338204
 21
-90.042756547222
 31
0
  0
LINE
  8
0
 62
7
 10
131.263486338204
 20
-73.80022844434239
 30
0
 11
131.263486338204
 21
-77.3838943972538
 31
0
  0
LINE
  8
0
 62
7
 10
136.063486338204
 20
-73.80022844434239
 30
0
 11
136.063486338204
 21
-77.3838943972538
 31
0
  0
LINE
  8
0
 62
7
 10
134.913486338204
 20
-73.80022844434239
 30
0
 11
134.913486338204
 21
-77.3838943972538
 31
0
  0
LINE
  8
0
 62
7
 10
131.263486338204
 20
-77.3838943972538
 30
0
 11
134.913486338204
 21
-77.3838943972538
 31
0
  0
LINE
  8
0
 62
7
 10
131.263486338204
 20
-73.80022844434239
 30
0
 11
134.913486338204
 21
-73.80022844434239
 31
0
  0
LINE
  8
0
 62
7
 10
131.263486338204
 20
-16.9244341368357
 30
0
 11
131.263486338204
 21
-20.3088385228385
 31
0
  0
LINE
  8
0
 62
7
 10
131.263486338204
 20
-20.3088385228385
 30
0
 11
134.913486338204
 21
-20.3088385228385
 31
0
  0
LINE
  8
0
 62
7
 10
131.263486338204
 20
-16.9244341368357
 30
0
 11
134.913486338204
 21
-16.9244341368357
 31
0
  0
LINE
  8
0
 62
7
 10
134.913486338204
 20
-16.9244341368357
 30
0
 11
134.913486338204
 21
-20.3088385228385
 31
0
  0
LINE
  8
0
 62
7
 10
136.063486338204
 20
-46.5357782860211
 30
0
 11
139.713486338204
 21
-46.5357782860211
 31
0
  0
LINE
  8
0
 62
7
 10
136.063486338204
 20
-42.8692742915769
 30
0
 11
139.713486338204
 21
-42.8692742915769
 31
0
  0
LINE
  8
0
 62
7
 10
139.713486338204
 20
-42.8692742915769
 30
0
 11
139.713486338204
 21
-46.5357782860211
 31
0
  0
LINE
  8
0
 62
7
 10
136.063486338204
 20
-42.8692742915769
 30
0
 11
136.063486338204
 21
-46.5357782860211
 31
0
  0
LINE
  8
0
 62
7
 10
131.263486338204
 20
-46.5357782860211
 30
0
 11
134.913486338204
 21
-46.5357782860211
 31
0
  0
LINE
  8
0
 62
7
 10
134.913486338204
 20
-42.8692742915769
 30
0
 11
134.913486338204
 21
-46.5357782860211
 31
0
  0
LINE
  8
0
 62
7
 10
131.263486338204
 20
-42.8692742915769
 30
0
 11
134.913486338204
 21
-42.8692742915769
 31
0
  0
LINE
  8
0
 62
7
 10
131.263486338204
 20
-42.8692742915769
 30
0
 11
131.263486338204
 21
-46.5357782860211
 31
0
  0
LINE
  8
0
 62
7
 10
136.063486338204
 20
-33.4827711357333
 30
0
 11
139.713486338204
 21
-33.4827711357332
 31
0
  0
LINE
  8
0
 62
7
 10
139.713486338204
 20
-29.9161082948857
 30
0
 11
139.713486338204
 21
-33.4827711357332
 31
0
  0
LINE
  8
0
 62
7
 10
136.063486338204
 20
-29.9161082948857
 30
0
 11
136.063486338204
 21
-33.4827711357333
 31
0
  0
LINE
  8
0
 62
7
 10
136.063486338204
 20
-29.9161082948857
 30
0
 11
139.713486338204
 21
-29.9161082948857
 31
0
  0
LINE
  8
0
 62
7
 10
131.263486338204
 20
-33.4827711357333
 30
0
 11
134.913486338204
 21
-33.4827711357333
 31
0
  0
LINE
  8
0
 62
7
 10
134.913486338204
 20
-29.9161082948857
 30
0
 11
134.913486338204
 21
-33.4827711357333
 31
0
  0
LINE
  8
0
 62
7
 10
131.263486338204
 20
-29.9161082948857
 30
0
 11
131.263486338204
 21
-33.4827711357333
 31
0
  0
LINE
  8
0
 62
7
 10
131.263486338204
 20
-29.9161082948857
 30
0
 11
134.913486338204
 21
-29.9161082948857
 31
0
  0
LINE
  8
0
 62
7
 10
136.063486338204
 20
-20.3088385228385
 30
0
 11
139.713486338204
 21
-20.3088385228385
 31
0
  0
LINE
  8
0
 62
7
 10
139.713486338204
 20
-16.9244341368357
 30
0
 11
139.713486338204
 21
-20.3088385228385
 31
0
  0
LINE
  8
0
 62
7
 10
136.063486338204
 20
-16.9244341368357
 30
0
 11
136.063486338204
 21
-20.3088385228385
 31
0
  0
LINE
  8
0
 62
7
 10
136.063486338204
 20
-16.9244341368357
 30
0
 11
139.713486338204
 21
-16.9244341368357
 31
0
  0
LINE
  8
0
 62
7
 10
139.713486338204
 20
-55.7840312288449
 30
0
 11
139.713486338204
 21
-59.4703363530639
 31
0
  0
LINE
  8
0
 62
7
 10
136.063486338204
 20
-59.4703363530639
 30
0
 11
139.713486338204
 21
-59.4703363530639
 31
0
  0
LINE
  8
0
 62
7
 10
136.063486338204
 20
-55.7840312288449
 30
0
 11
136.063486338204
 21
-59.4703363530639
 31
0
  0
LINE
  8
0
 62
7
 10
136.063486338204
 20
-55.7840312288449
 30
0
 11
139.713486338204
 21
-55.7840312288449
 31
0
  0
LINE
  8
0
 62
7
 10
131.263486338204
 20
-59.4703363530639
 30
0
 11
134.913486338204
 21
-59.4703363530639
 31
0
  0
LINE
  8
0
 62
7
 10
134.913486338204
 20
-55.7840312288449
 30
0
 11
134.913486338204
 21
-59.4703363530639
 31
0
  0
LINE
  8
0
 62
7
 10
131.263486338204
 20
-55.7840312288449
 30
0
 11
134.913486338204
 21
-55.7840312288449
 31
0
  0
LINE
  8
0
 62
7
 10
131.263486338204
 20
-55.7840312288449
 30
0
 11
131.263486338204
 21
-59.4703363530639
 31
0
  0
LINE
  8
0
 62
7
 10
99.6134863382036
 20
-20.3088385228385
 30
0
 11
103.263486338204
 21
-20.3088385228385
 31
0
  0
LINE
  8
0
 62
7
 10
103.263486338204
 20
-16.9244341368357
 30
0
 11
103.263486338204
 21
-20.3088385228385
 31
0
  0
LINE
  8
0
 62
7
 10
99.6134863382036
 20
-16.9244341368357
 30
0
 11
103.263486338204
 21
-16.9244341368357
 31
0
  0
LINE
  8
0
 62
7
 10
99.6134863382036
 20
-16.9244341368357
 30
0
 11
99.6134863382036
 21
-20.3088385228385
 31
0
  0
LINE
  8
0
 62
7
 10
99.6134863382036
 20
-33.4827711357333
 30
0
 11
103.263486338204
 21
-33.4827711357332
 31
0
  0
LINE
  8
0
 62
7
 10
103.263486338204
 20
-29.9161082948857
 30
0
 11
103.263486338204
 21
-33.4827711357332
 31
0
  0
LINE
  8
0
 62
7
 10
99.6134863382036
 20
-29.9161082948857
 30
0
 11
99.6134863382036
 21
-33.4827711357333
 31
0
  0
LINE
  8
0
 62
7
 10
99.6134863382036
 20
-29.9161082948857
 30
0
 11
103.263486338204
 21
-29.9161082948857
 31
0
  0
LINE
  8
0
 62
7
 10
94.8134863382036
 20
-33.4827711357333
 30
0
 11
98.46348633820359
 21
-33.4827711357333
 31
0
  0
LINE
  8
0
 62
7
 10
94.8134863382036
 20
-29.9161082948857
 30
0
 11
98.46348633820359
 21
-29.9161082948857
 31
0
  0
LINE
  8
0
 62
7
 10
94.8134863382036
 20
-29.9161082948857
 30
0
 11
94.8134863382036
 21
-33.4827711357333
 31
0
  0
LINE
  8
0
 62
7
 10
98.46348633820359
 20
-29.9161082948857
 30
0
 11
98.46348633820359
 21
-33.4827711357333
 31
0
  0
LINE
  8
0
 62
7
 10
99.6134863382036
 20
-42.8692742915769
 30
0
 11
99.6134863382036
 21
-46.5357782860211
 31
0
  0
LINE
  8
0
 62
7
 10
99.6134863382036
 20
-46.5357782860211
 30
0
 11
103.263486338204
 21
-46.5357782860211
 31
0
  0
LINE
  8
0
 62
7
 10
99.6134863382036
 20
-42.8692742915769
 30
0
 11
103.263486338204
 21
-42.8692742915769
 31
0
  0
LINE
  8
0
 62
7
 10
103.263486338204
 20
-42.8692742915769
 30
0
 11
103.263486338204
 21
-46.5357782860211
 31
0
  0
LINE
  8
0
 62
7
 10
94.8134863382036
 20
-46.5357782860211
 30
0
 11
98.46348633820359
 21
-46.5357782860211
 31
0
  0
LINE
  8
0
 62
7
 10
98.46348633820359
 20
-42.8692742915769
 30
0
 11
98.46348633820359
 21
-46.5357782860211
 31
0
  0
LINE
  8
0
 62
7
 10
94.8134863382036
 20
-42.8692742915769
 30
0
 11
98.46348633820359
 21
-42.8692742915769
 31
0
  0
LINE
  8
0
 62
7
 10
94.8134863382036
 20
-42.8692742915769
 30
0
 11
94.8134863382036
 21
-46.5357782860211
 31
0
  0
LINE
  8
0
 62
7
 10
94.8134863382036
 20
-16.9244341368357
 30
0
 11
94.8134863382036
 21
-20.3088385228385
 31
0
  0
LINE
  8
0
 62
7
 10
94.8134863382036
 20
-20.3088385228385
 30
0
 11
98.46348633820359
 21
-20.3088385228385
 31
0
  0
LINE
  8
0
 62
7
 10
94.8134863382036
 20
-16.9244341368357
 30
0
 11
98.46348633820359
 21
-16.9244341368357
 31
0
  0
LINE
  8
0
 62
7
 10
98.46348633820359
 20
-16.9244341368357
 30
0
 11
98.46348633820359
 21
-20.3088385228385
 31
0
  0
LINE
  8
0
 62
7
 10
103.263486338204
 20
-55.7840312288449
 30
0
 11
103.263486338204
 21
-59.4703363530639
 31
0
  0
LINE
  8
0
 62
7
 10
99.6134863382036
 20
-55.7840312288449
 30
0
 11
103.263486338204
 21
-55.7840312288449
 31
0
  0
LINE
  8
0
 62
7
 10
99.6134863382036
 20
-59.4703363530639
 30
0
 11
103.263486338204
 21
-59.4703363530639
 31
0
  0
LINE
  8
0
 62
7
 10
99.6134863382036
 20
-55.7840312288449
 30
0
 11
99.6134863382036
 21
-59.4703363530639
 31
0
  0
LINE
  8
0
 62
7
 10
94.8134863382036
 20
-59.4703363530639
 30
0
 11
98.46348633820359
 21
-59.4703363530639
 31
0
  0
LINE
  8
0
 62
7
 10
98.46348633820359
 20
-55.7840312288449
 30
0
 11
98.46348633820359
 21
-59.4703363530639
 31
0
  0
LINE
  8
0
 62
7
 10
94.8134863382036
 20
-55.7840312288449
 30
0
 11
98.46348633820359
 21
-55.7840312288449
 31
0
  0
LINE
  8
0
 62
7
 10
94.8134863382036
 20
-55.7840312288449
 30
0
 11
94.8134863382036
 21
-59.4703363530639
 31
0
  0
LINE
  8
0
 62
7
 10
94.8134863382036
 20
-73.80022844434239
 30
0
 11
94.8134863382036
 21
-77.3838943972538
 31
0
  0
LINE
  8
0
 62
7
 10
94.8134863382036
 20
-77.3838943972538
 30
0
 11
98.46348633820359
 21
-77.3838943972538
 31
0
  0
LINE
  8
0
 62
7
 10
94.8134863382036
 20
-73.80022844434239
 30
0
 11
98.46348633820359
 21
-73.80022844434239
 31
0
  0
LINE
  8
0
 62
7
 10
103.263486338204
 20
-73.80022844434239
 30
0
 11
103.263486338204
 21
-77.3838943972538
 31
0
  0
LINE
  8
0
 62
7
 10
99.6134863382036
 20
-73.80022844434239
 30
0
 11
103.263486338204
 21
-73.80022844434239
 31
0
  0
LINE
  8
0
 62
7
 10
99.6134863382036
 20
-77.3838943972538
 30
0
 11
103.263486338204
 21
-77.3838943972538
 31
0
  0
LINE
  8
0
 62
7
 10
99.6134863382036
 20
-73.80022844434239
 30
0
 11
99.6134863382036
 21
-77.3838943972538
 31
0
  0
LINE
  8
0
 62
7
 10
98.46348633820359
 20
-73.80022844434239
 30
0
 11
98.46348633820359
 21
-77.3838943972538
 31
0
  0
LINE
  8
0
 62
7
 10
94.8134863382036
 20
-86.6228541818769
 30
0
 11
98.46348633820359
 21
-86.6228541818769
 31
0
  0
LINE
  8
0
 62
7
 10
98.46348633820359
 20
-86.6228541818769
 30
0
 11
98.46348633820359
 21
-90.0427565472219
 31
0
  0
LINE
  8
0
 62
7
 10
94.8134863382036
 20
-90.0427565472219
 30
0
 11
98.46348633820359
 21
-90.0427565472219
 31
0
  0
LINE
  8
0
 62
7
 10
94.8134863382036
 20
-86.6228541818769
 30
0
 11
94.8134863382036
 21
-90.0427565472219
 31
0
  0
LINE
  8
0
 62
7
 10
99.6134863382036
 20
-86.6228541818769
 30
0
 11
99.6134863382036
 21
-90.0427565472219
 31
0
  0
LINE
  8
0
 62
7
 10
99.6134863382036
 20
-90.0427565472219
 30
0
 11
103.263486338204
 21
-90.042756547222
 31
0
  0
LINE
  8
0
 62
7
 10
99.6134863382036
 20
-86.6228541818769
 30
0
 11
103.263486338204
 21
-86.6228541818769
 31
0
  0
LINE
  8
0
 62
7
 10
103.263486338204
 20
-86.6228541818769
 30
0
 11
103.263486338204
 21
-90.042756547222
 31
0
  0
LINE
  8
0
 62
7
 10
87.46348633820359
 20
-73.80022844434239
 30
0
 11
87.46348633820359
 21
-77.3838943972538
 31
0
  0
LINE
  8
0
 62
7
 10
87.46348633820359
 20
-86.6228541818769
 30
0
 11
87.46348633820359
 21
-90.0427565472219
 31
0
  0
LINE
  8
0
 62
7
 10
87.46348633820359
 20
-90.0427565472219
 30
0
 11
91.1134863382036
 21
-90.042756547222
 31
0
  0
LINE
  8
0
 62
7
 10
87.46348633820359
 20
-86.6228541818769
 30
0
 11
91.1134863382036
 21
-86.6228541818769
 31
0
  0
LINE
  8
0
 62
7
 10
91.1134863382036
 20
-86.6228541818769
 30
0
 11
91.1134863382036
 21
-90.042756547222
 31
0
  0
LINE
  8
0
 62
7
 10
82.6634863382036
 20
-90.0427565472219
 30
0
 11
86.3134863382036
 21
-90.0427565472219
 31
0
  0
LINE
  8
0
 62
7
 10
82.6634863382036
 20
-86.6228541818769
 30
0
 11
86.3134863382036
 21
-86.6228541818769
 31
0
  0
LINE
  8
0
 62
7
 10
86.3134863382036
 20
-86.6228541818769
 30
0
 11
86.3134863382036
 21
-90.0427565472219
 31
0
  0
LINE
  8
0
 62
7
 10
82.6634863382036
 20
-86.6228541818769
 30
0
 11
82.6634863382036
 21
-90.0427565472219
 31
0
  0
LINE
  8
0
 62
7
 10
87.46348633820359
 20
-77.3838943972538
 30
0
 11
91.1134863382036
 21
-77.3838943972538
 31
0
  0
LINE
  8
0
 62
7
 10
87.46348633820359
 20
-73.80022844434239
 30
0
 11
91.1134863382036
 21
-73.80022844434239
 31
0
  0
LINE
  8
0
 62
7
 10
91.1134863382036
 20
-73.80022844434239
 30
0
 11
91.1134863382036
 21
-77.3838943972538
 31
0
  0
LINE
  8
0
 62
7
 10
82.6634863382036
 20
-73.80022844434239
 30
0
 11
82.6634863382036
 21
-77.3838943972538
 31
0
  0
LINE
  8
0
 62
7
 10
82.6634863382036
 20
-77.3838943972538
 30
0
 11
86.3134863382036
 21
-77.3838943972538
 31
0
  0
LINE
  8
0
 62
7
 10
86.3134863382036
 20
-73.80022844434239
 30
0
 11
86.3134863382036
 21
-77.3838943972538
 31
0
  0
LINE
  8
0
 62
7
 10
82.6634863382036
 20
-73.80022844434239
 30
0
 11
86.3134863382036
 21
-73.80022844434239
 31
0
  0
LINE
  8
0
 62
7
 10
87.46348633820359
 20
-20.3088385228385
 30
0
 11
91.1134863382036
 21
-20.3088385228385
 31
0
  0
LINE
  8
0
 62
7
 10
87.46348633820359
 20
-16.9244341368357
 30
0
 11
91.1134863382036
 21
-16.9244341368357
 31
0
  0
LINE
  8
0
 62
7
 10
87.46348633820359
 20
-16.9244341368357
 30
0
 11
87.46348633820359
 21
-20.3088385228385
 31
0
  0
LINE
  8
0
 62
7
 10
91.1134863382036
 20
-16.9244341368357
 30
0
 11
91.1134863382036
 21
-20.3088385228385
 31
0
  0
LINE
  8
0
 62
7
 10
87.46348633820359
 20
-42.8692742915768
 30
0
 11
87.46348633820359
 21
-46.5357782860211
 31
0
  0
LINE
  8
0
 62
7
 10
87.46348633820359
 20
-46.5357782860211
 30
0
 11
91.1134863382036
 21
-46.5357782860211
 31
0
  0
LINE
  8
0
 62
7
 10
87.46348633820359
 20
-42.8692742915768
 30
0
 11
91.1134863382036
 21
-42.8692742915768
 31
0
  0
LINE
  8
0
 62
7
 10
91.1134863382036
 20
-42.8692742915768
 30
0
 11
91.1134863382036
 21
-46.5357782860211
 31
0
  0
LINE
  8
0
 62
7
 10
82.6634863382036
 20
-46.5357782860211
 30
0
 11
86.3134863382036
 21
-46.5357782860211
 31
0
  0
LINE
  8
0
 62
7
 10
86.3134863382036
 20
-42.8692742915768
 30
0
 11
86.3134863382036
 21
-46.5357782860211
 31
0
  0
LINE
  8
0
 62
7
 10
82.6634863382036
 20
-42.8692742915768
 30
0
 11
86.3134863382036
 21
-42.8692742915768
 31
0
  0
LINE
  8
0
 62
7
 10
82.6634863382036
 20
-42.8692742915768
 30
0
 11
82.6634863382036
 21
-46.5357782860211
 31
0
  0
LINE
  8
0
 62
7
 10
82.6634863382036
 20
-16.9244341368357
 30
0
 11
82.6634863382036
 21
-20.3088385228385
 31
0
  0
LINE
  8
0
 62
7
 10
82.6634863382036
 20
-20.3088385228385
 30
0
 11
86.3134863382036
 21
-20.3088385228385
 31
0
  0
LINE
  8
0
 62
7
 10
82.6634863382036
 20
-16.9244341368357
 30
0
 11
86.3134863382036
 21
-16.9244341368357
 31
0
  0
LINE
  8
0
 62
7
 10
86.3134863382036
 20
-16.9244341368357
 30
0
 11
86.3134863382036
 21
-20.3088385228385
 31
0
  0
LINE
  8
0
 62
7
 10
82.6634863382036
 20
-33.4827711357333
 30
0
 11
86.3134863382036
 21
-33.4827711357333
 31
0
  0
LINE
  8
0
 62
7
 10
82.6634863382036
 20
-29.9161082948857
 30
0
 11
86.3134863382036
 21
-29.9161082948857
 31
0
  0
LINE
  8
0
 62
7
 10
82.6634863382036
 20
-29.9161082948857
 30
0
 11
82.6634863382036
 21
-33.4827711357333
 31
0
  0
LINE
  8
0
 62
7
 10
86.3134863382036
 20
-29.9161082948857
 30
0
 11
86.3134863382036
 21
-33.4827711357333
 31
0
  0
LINE
  8
0
 62
7
 10
87.46348633820359
 20
-33.4827711357333
 30
0
 11
91.1134863382036
 21
-33.4827711357332
 31
0
  0
LINE
  8
0
 62
7
 10
91.1134863382036
 20
-29.9161082948857
 30
0
 11
91.1134863382036
 21
-33.4827711357332
 31
0
  0
LINE
  8
0
 62
7
 10
87.46348633820359
 20
-29.9161082948857
 30
0
 11
87.46348633820359
 21
-33.4827711357333
 31
0
  0
LINE
  8
0
 62
7
 10
87.46348633820359
 20
-29.9161082948857
 30
0
 11
91.1134863382036
 21
-29.9161082948857
 31
0
  0
LINE
  8
0
 62
7
 10
87.46348633820359
 20
-55.7840312288449
 30
0
 11
91.1134863382036
 21
-55.7840312288449
 31
0
  0
LINE
  8
0
 62
7
 10
87.46348633820359
 20
-59.4703363530639
 30
0
 11
91.1134863382036
 21
-59.4703363530639
 31
0
  0
LINE
  8
0
 62
7
 10
87.46348633820359
 20
-55.7840312288449
 30
0
 11
87.46348633820359
 21
-59.4703363530639
 31
0
  0
LINE
  8
0
 62
7
 10
91.1134863382036
 20
-55.7840312288449
 30
0
 11
91.1134863382036
 21
-59.4703363530639
 31
0
  0
LINE
  8
0
 62
7
 10
82.6634863382036
 20
-59.4703363530639
 30
0
 11
86.3134863382036
 21
-59.4703363530639
 31
0
  0
LINE
  8
0
 62
7
 10
86.3134863382036
 20
-55.7840312288449
 30
0
 11
86.3134863382036
 21
-59.4703363530639
 31
0
  0
LINE
  8
0
 62
7
 10
82.6634863382036
 20
-55.7840312288449
 30
0
 11
86.3134863382036
 21
-55.7840312288449
 31
0
  0
LINE
  8
0
 62
7
 10
82.6634863382036
 20
-55.7840312288449
 30
0
 11
82.6634863382036
 21
-59.4703363530639
 31
0
  0
LINE
  8
0
 62
7
 10
78.96348633820359
 20
-73.80022844434239
 30
0
 11
78.96348633820359
 21
-77.3838943972538
 31
0
  0
LINE
  8
0
 62
7
 10
75.3134863382036
 20
-73.80022844434239
 30
0
 11
78.96348633820359
 21
-73.80022844434239
 31
0
  0
LINE
  8
0
 62
7
 10
75.3134863382036
 20
-73.80022844434239
 30
0
 11
75.3134863382036
 21
-77.3838943972538
 31
0
  0
LINE
  8
0
 62
7
 10
75.3134863382036
 20
-77.3838943972538
 30
0
 11
78.96348633820359
 21
-77.3838943972538
 31
0
  0
LINE
  8
0
 62
7
 10
70.51348633820361
 20
-90.0427565472219
 30
0
 11
74.1634863382036
 21
-90.0427565472219
 31
0
  0
LINE
  8
0
 62
7
 10
70.51348633820361
 20
-86.6228541818769
 30
0
 11
74.1634863382036
 21
-86.6228541818769
 31
0
  0
LINE
  8
0
 62
7
 10
74.1634863382036
 20
-86.6228541818769
 30
0
 11
74.1634863382036
 21
-90.0427565472219
 31
0
  0
LINE
  8
0
 62
7
 10
70.51348633820361
 20
-86.6228541818769
 30
0
 11
70.51348633820361
 21
-90.0427565472219
 31
0
  0
LINE
  8
0
 62
7
 10
75.3134863382036
 20
-86.6228541818769
 30
0
 11
75.3134863382036
 21
-90.0427565472219
 31
0
  0
LINE
  8
0
 62
7
 10
75.3134863382036
 20
-86.6228541818769
 30
0
 11
78.96348633820359
 21
-86.6228541818769
 31
0
  0
LINE
  8
0
 62
7
 10
78.96348633820359
 20
-86.6228541818769
 30
0
 11
78.96348633820359
 21
-90.042756547222
 31
0
  0
LINE
  8
0
 62
7
 10
75.3134863382036
 20
-90.0427565472219
 30
0
 11
78.96348633820359
 21
-90.042756547222
 31
0
  0
LINE
  8
0
 62
7
 10
70.51348633820361
 20
-73.80022844434239
 30
0
 11
70.51348633820361
 21
-77.3838943972538
 31
0
  0
LINE
  8
0
 62
7
 10
74.1634863382036
 20
-73.80022844434239
 30
0
 11
74.1634863382036
 21
-77.3838943972538
 31
0
  0
LINE
  8
0
 62
7
 10
70.51348633820361
 20
-77.3838943972538
 30
0
 11
74.1634863382036
 21
-77.3838943972538
 31
0
  0
LINE
  8
0
 62
7
 10
70.51348633820361
 20
-73.80022844434239
 30
0
 11
74.1634863382036
 21
-73.80022844434239
 31
0
  0
LINE
  8
0
 62
7
 10
75.3134863382036
 20
-42.8692742915768
 30
0
 11
75.3134863382036
 21
-46.5357782860211
 31
0
  0
LINE
  8
0
 62
7
 10
75.3134863382036
 20
-46.5357782860211
 30
0
 11
78.96348633820359
 21
-46.5357782860211
 31
0
  0
LINE
  8
0
 62
7
 10
75.3134863382036
 20
-42.8692742915768
 30
0
 11
78.96348633820359
 21
-42.8692742915768
 31
0
  0
LINE
  8
0
 62
7
 10
78.96348633820359
 20
-42.8692742915768
 30
0
 11
78.96348633820359
 21
-46.5357782860211
 31
0
  0
LINE
  8
0
 62
7
 10
70.51348633820361
 20
-46.5357782860211
 30
0
 11
74.1634863382036
 21
-46.5357782860211
 31
0
  0
LINE
  8
0
 62
7
 10
74.1634863382036
 20
-42.8692742915768
 30
0
 11
74.1634863382036
 21
-46.5357782860211
 31
0
  0
LINE
  8
0
 62
7
 10
70.51348633820361
 20
-42.8692742915768
 30
0
 11
74.1634863382036
 21
-42.8692742915768
 31
0
  0
LINE
  8
0
 62
7
 10
70.51348633820361
 20
-42.8692742915768
 30
0
 11
70.51348633820361
 21
-46.5357782860211
 31
0
  0
LINE
  8
0
 62
7
 10
75.3134863382036
 20
-33.4827711357333
 30
0
 11
78.96348633820359
 21
-33.4827711357332
 31
0
  0
LINE
  8
0
 62
7
 10
78.96348633820359
 20
-29.9161082948857
 30
0
 11
78.96348633820359
 21
-33.4827711357332
 31
0
  0
LINE
  8
0
 62
7
 10
75.3134863382036
 20
-29.9161082948857
 30
0
 11
75.3134863382036
 21
-33.4827711357333
 31
0
  0
LINE
  8
0
 62
7
 10
75.3134863382036
 20
-29.9161082948857
 30
0
 11
78.96348633820359
 21
-29.9161082948857
 31
0
  0
LINE
  8
0
 62
7
 10
70.51348633820361
 20
-33.4827711357333
 30
0
 11
74.1634863382036
 21
-33.4827711357333
 31
0
  0
LINE
  8
0
 62
7
 10
74.1634863382036
 20
-29.9161082948857
 30
0
 11
74.1634863382036
 21
-33.4827711357333
 31
0
  0
LINE
  8
0
 62
7
 10
70.51348633820361
 20
-29.9161082948857
 30
0
 11
74.1634863382036
 21
-29.9161082948857
 31
0
  0
LINE
  8
0
 62
7
 10
70.51348633820361
 20
-29.9161082948857
 30
0
 11
70.51348633820361
 21
-33.4827711357333
 31
0
  0
LINE
  8
0
 62
7
 10
75.3134863382036
 20
-55.7840312288449
 30
0
 11
78.96348633820359
 21
-55.7840312288449
 31
0
  0
LINE
  8
0
 62
7
 10
75.3134863382036
 20
-59.4703363530639
 30
0
 11
78.96348633820359
 21
-59.4703363530639
 31
0
  0
LINE
  8
0
 62
7
 10
75.3134863382036
 20
-55.7840312288449
 30
0
 11
75.3134863382036
 21
-59.4703363530639
 31
0
  0
LINE
  8
0
 62
7
 10
78.96348633820359
 20
-55.7840312288449
 30
0
 11
78.96348633820359
 21
-59.4703363530639
 31
0
  0
LINE
  8
0
 62
7
 10
70.51348633820361
 20
-59.4703363530639
 30
0
 11
74.1634863382036
 21
-59.4703363530639
 31
0
  0
LINE
  8
0
 62
7
 10
74.1634863382036
 20
-55.7840312288449
 30
0
 11
74.1634863382036
 21
-59.4703363530639
 31
0
  0
LINE
  8
0
 62
7
 10
70.51348633820361
 20
-55.7840312288449
 30
0
 11
74.1634863382036
 21
-55.7840312288449
 31
0
  0
LINE
  8
0
 62
7
 10
70.51348633820361
 20
-55.7840312288449
 30
0
 11
70.51348633820361
 21
-59.4703363530639
 31
0
  0
LINE
  8
0
 62
7
 10
70.51348633820361
 20
-16.9244341368357
 30
0
 11
70.51348633820361
 21
-20.3088385228385
 31
0
  0
LINE
  8
0
 62
7
 10
70.51348633820361
 20
-20.3088385228385
 30
0
 11
74.1634863382036
 21
-20.3088385228385
 31
0
  0
LINE
  8
0
 62
7
 10
70.51348633820361
 20
-16.9244341368357
 30
0
 11
74.1634863382036
 21
-16.9244341368357
 31
0
  0
LINE
  8
0
 62
7
 10
74.1634863382036
 20
-16.9244341368357
 30
0
 11
74.1634863382036
 21
-20.3088385228385
 31
0
  0
LINE
  8
0
 62
7
 10
75.3134863382036
 20
-20.3088385228385
 30
0
 11
78.96348633820359
 21
-20.3088385228385
 31
0
  0
LINE
  8
0
 62
7
 10
75.3134863382036
 20
-16.9244341368357
 30
0
 11
75.3134863382036
 21
-20.3088385228385
 31
0
  0
LINE
  8
0
 62
7
 10
75.3134863382036
 20
-16.9244341368357
 30
0
 11
78.96348633820359
 21
-16.9244341368357
 31
0
  0
LINE
  8
0
 62
7
 10
78.96348633820359
 20
-16.9244341368357
 30
0
 11
78.96348633820359
 21
-20.3088385228385
 31
0
  0
LINE
  8
0
 62
7
 10
153.713486338204
 20
-98.8521075252019
 30
0
 11
56.5134863382036
 21
-98.8521075252019
 31
0
  0
LINE
  8
0
 62
7
 10
58.3634863382036
 20
-77.3838943972538
 30
0
 11
62.0134863382036
 21
-77.3838943972538
 31
0
  0
LINE
  8
0
 62
7
 10
58.3634863382036
 20
-86.6228541818769
 30
0
 11
62.0134863382036
 21
-86.6228541818769
 31
0
  0
LINE
  8
0
 62
7
 10
62.0134863382036
 20
-86.6228541818769
 30
0
 11
62.0134863382036
 21
-90.0427565472219
 31
0
  0
LINE
  8
0
 62
7
 10
58.3634863382036
 20
-90.0427565472219
 30
0
 11
62.0134863382036
 21
-90.0427565472219
 31
0
  0
LINE
  8
0
 62
7
 10
58.3634863382036
 20
-86.6228541818769
 30
0
 11
58.3634863382036
 21
-90.0427565472219
 31
0
  0
LINE
  8
0
 62
7
 10
63.1634863382036
 20
-86.6228541818769
 30
0
 11
63.1634863382036
 21
-90.0427565472219
 31
0
  0
LINE
  8
0
 62
7
 10
63.1634863382036
 20
-90.0427565472219
 30
0
 11
66.8134863382036
 21
-90.042756547222
 31
0
  0
LINE
  8
0
 62
7
 10
63.1634863382036
 20
-86.6228541818769
 30
0
 11
66.8134863382036
 21
-86.6228541818769
 31
0
  0
LINE
  8
0
 62
7
 10
66.8134863382036
 20
-86.6228541818769
 30
0
 11
66.8134863382036
 21
-90.042756547222
 31
0
  0
LINE
  8
0
 62
7
 10
58.3634863382036
 20
-73.80022844434239
 30
0
 11
58.3634863382036
 21
-77.3838943972538
 31
0
  0
LINE
  8
0
 62
7
 10
63.1634863382036
 20
-73.80022844434239
 30
0
 11
66.8134863382036
 21
-73.80022844434239
 31
0
  0
LINE
  8
0
 62
7
 10
62.0134863382036
 20
-73.80022844434239
 30
0
 11
62.0134863382036
 21
-77.3838943972538
 31
0
  0
LINE
  8
0
 62
7
 10
58.3634863382036
 20
-73.80022844434239
 30
0
 11
62.0134863382036
 21
-73.80022844434239
 31
0
  0
LINE
  8
0
 62
7
 10
63.1634863382036
 20
-73.80022844434239
 30
0
 11
63.1634863382036
 21
-77.3838943972538
 31
0
  0
LINE
  8
0
 62
7
 10
63.1634863382036
 20
-77.3838943972538
 30
0
 11
66.8134863382036
 21
-77.3838943972538
 31
0
  0
LINE
  8
0
 62
7
 10
66.8134863382036
 20
-73.80022844434239
 30
0
 11
66.8134863382036
 21
-77.3838943972538
 31
0
  0
LINE
  8
0
 62
7
 10
58.3634863382036
 20
-16.9244341368357
 30
0
 11
58.3634863382036
 21
-20.3088385228385
 31
0
  0
LINE
  8
0
 62
7
 10
58.3634863382036
 20
-20.3088385228385
 30
0
 11
62.0134863382036
 21
-20.3088385228385
 31
0
  0
LINE
  8
0
 62
7
 10
58.3634863382036
 20
-16.9244341368357
 30
0
 11
62.0134863382036
 21
-16.9244341368357
 31
0
  0
LINE
  8
0
 62
7
 10
62.0134863382036
 20
-16.9244341368357
 30
0
 11
62.0134863382036
 21
-20.3088385228385
 31
0
  0
LINE
  8
0
 62
7
 10
63.1634863382036
 20
-20.3088385228385
 30
0
 11
66.8134863382036
 21
-20.3088385228385
 31
0
  0
LINE
  8
0
 62
7
 10
66.8134863382036
 20
-16.9244341368357
 30
0
 11
66.8134863382036
 21
-20.3088385228385
 31
0
  0
LINE
  8
0
 62
7
 10
63.1634863382036
 20
-16.9244341368357
 30
0
 11
63.1634863382036
 21
-20.3088385228385
 31
0
  0
LINE
  8
0
 62
7
 10
63.1634863382036
 20
-16.9244341368357
 30
0
 11
66.8134863382036
 21
-16.9244341368357
 31
0
  0
LINE
  8
0
 62
7
 10
58.3634863382036
 20
-33.4827711357333
 30
0
 11
62.0134863382036
 21
-33.4827711357333
 31
0
  0
LINE
  8
0
 62
7
 10
62.0134863382036
 20
-29.9161082948857
 30
0
 11
62.0134863382036
 21
-33.4827711357333
 31
0
  0
LINE
  8
0
 62
7
 10
58.3634863382036
 20
-29.9161082948857
 30
0
 11
62.0134863382036
 21
-29.9161082948857
 31
0
  0
LINE
  8
0
 62
7
 10
58.3634863382036
 20
-29.9161082948857
 30
0
 11
58.3634863382036
 21
-33.4827711357333
 31
0
  0
LINE
  8
0
 62
7
 10
63.1634863382036
 20
-33.4827711357333
 30
0
 11
66.8134863382036
 21
-33.4827711357332
 31
0
  0
LINE
  8
0
 62
7
 10
66.8134863382036
 20
-29.9161082948857
 30
0
 11
66.8134863382036
 21
-33.4827711357332
 31
0
  0
LINE
  8
0
 62
7
 10
63.1634863382036
 20
-29.9161082948857
 30
0
 11
63.1634863382036
 21
-33.4827711357333
 31
0
  0
LINE
  8
0
 62
7
 10
63.1634863382036
 20
-29.9161082948857
 30
0
 11
66.8134863382036
 21
-29.9161082948857
 31
0
  0
LINE
  8
0
 62
7
 10
66.8134863382036
 20
-55.7840312288449
 30
0
 11
66.8134863382036
 21
-59.4703363530639
 31
0
  0
LINE
  8
0
 62
7
 10
63.1634863382036
 20
-55.7840312288449
 30
0
 11
66.8134863382036
 21
-55.7840312288449
 31
0
  0
LINE
  8
0
 62
7
 10
63.1634863382036
 20
-59.4703363530639
 30
0
 11
66.8134863382036
 21
-59.4703363530639
 31
0
  0
LINE
  8
0
 62
7
 10
63.1634863382036
 20
-55.7840312288449
 30
0
 11
63.1634863382036
 21
-59.4703363530639
 31
0
  0
LINE
  8
0
 62
7
 10
58.3634863382036
 20
-59.4703363530639
 30
0
 11
62.0134863382036
 21
-59.4703363530639
 31
0
  0
LINE
  8
0
 62
7
 10
62.0134863382036
 20
-55.7840312288449
 30
0
 11
62.0134863382036
 21
-59.4703363530639
 31
0
  0
LINE
  8
0
 62
7
 10
58.3634863382036
 20
-55.7840312288449
 30
0
 11
62.0134863382036
 21
-55.7840312288449
 31
0
  0
LINE
  8
0
 62
7
 10
58.3634863382036
 20
-55.7840312288449
 30
0
 11
58.3634863382036
 21
-59.4703363530639
 31
0
  0
LINE
  8
0
 62
7
 10
63.1634863382036
 20
-42.8692742915768
 30
0
 11
63.1634863382036
 21
-46.5357782860211
 31
0
  0
LINE
  8
0
 62
7
 10
63.1634863382036
 20
-42.8692742915768
 30
0
 11
66.8134863382036
 21
-42.8692742915768
 31
0
  0
LINE
  8
0
 62
7
 10
66.8134863382036
 20
-42.8692742915768
 30
0
 11
66.8134863382036
 21
-46.5357782860211
 31
0
  0
LINE
  8
0
 62
7
 10
63.1634863382036
 20
-46.5357782860211
 30
0
 11
66.8134863382036
 21
-46.5357782860211
 31
0
  0
LINE
  8
0
 62
7
 10
58.3634863382036
 20
-46.5357782860211
 30
0
 11
62.0134863382036
 21
-46.5357782860211
 31
0
  0
LINE
  8
0
 62
7
 10
62.0134863382036
 20
-42.8692742915768
 30
0
 11
62.0134863382036
 21
-46.5357782860211
 31
0
  0
LINE
  8
0
 62
7
 10
58.3634863382036
 20
-42.8692742915768
 30
0
 11
62.0134863382036
 21
-42.8692742915768
 31
0
  0
LINE
  8
0
 62
7
 10
58.3634863382036
 20
-42.8692742915768
 30
0
 11
58.3634863382036
 21
-46.5357782860211
 31
0
  0
LINE
  8
0
 62
7
 10
37.7134863382036
 20
-42.869274291578
 30
0
 11
37.7134863382036
 21
-46.5357782860221
 31
0
  0
LINE
  8
0
 62
7
 10
34.0634863382036
 20
-42.869274291578
 30
0
 11
34.0634863382036
 21
-46.5357782860221
 31
0
  0
LINE
  8
0
 62
7
 10
34.0634863382036
 20
-42.869274291578
 30
0
 11
37.7134863382036
 21
-42.869274291578
 31
0
  0
LINE
  8
0
 62
7
 10
34.0634863382036
 20
-46.5357782860221
 30
0
 11
37.7134863382036
 21
-46.5357782860221
 31
0
  0
LINE
  8
0
 62
7
 10
34.0634863382036
 20
-16.9244341368368
 30
0
 11
34.0634863382036
 21
-20.3088385228396
 31
0
  0
LINE
  8
0
 62
7
 10
34.0634863382036
 20
-20.3088385228396
 30
0
 11
37.7134863382036
 21
-20.3088385228396
 31
0
  0
LINE
  8
0
 62
7
 10
34.0634863382036
 20
-16.9244341368368
 30
0
 11
37.7134863382036
 21
-16.9244341368368
 31
0
  0
LINE
  8
0
 62
7
 10
37.7134863382036
 20
-16.9244341368368
 30
0
 11
37.7134863382036
 21
-20.3088385228396
 31
0
  0
LINE
  8
0
 62
7
 10
38.8634863382036
 20
-46.5357782860221
 30
0
 11
42.5134863382036
 21
-46.5357782860221
 31
0
  0
LINE
  8
0
 62
7
 10
38.8634863382036
 20
-42.869274291578
 30
0
 11
42.5134863382036
 21
-42.869274291578
 31
0
  0
LINE
  8
0
 62
7
 10
42.5134863382036
 20
-42.869274291578
 30
0
 11
42.5134863382036
 21
-46.5357782860221
 31
0
  0
LINE
  8
0
 62
7
 10
38.8634863382036
 20
-42.869274291578
 30
0
 11
38.8634863382036
 21
-46.5357782860221
 31
0
  0
LINE
  8
0
 62
7
 10
34.0634863382036
 20
-33.4827711357344
 30
0
 11
37.7134863382036
 21
-33.4827711357344
 31
0
  0
LINE
  8
0
 62
7
 10
34.0634863382036
 20
-29.9161082948868
 30
0
 11
34.0634863382036
 21
-33.4827711357344
 31
0
  0
LINE
  8
0
 62
7
 10
34.0634863382036
 20
-29.9161082948868
 30
0
 11
37.7134863382036
 21
-29.9161082948868
 31
0
  0
LINE
  8
0
 62
7
 10
37.7134863382036
 20
-29.9161082948868
 30
0
 11
37.7134863382036
 21
-33.4827711357344
 31
0
  0
LINE
  8
0
 62
7
 10
38.8634863382036
 20
-33.4827711357344
 30
0
 11
42.5134863382036
 21
-33.4827711357343
 31
0
  0
LINE
  8
0
 62
7
 10
42.5134863382036
 20
-29.9161082948868
 30
0
 11
42.5134863382036
 21
-33.4827711357343
 31
0
  0
LINE
  8
0
 62
7
 10
38.8634863382036
 20
-29.9161082948868
 30
0
 11
38.8634863382036
 21
-33.4827711357344
 31
0
  0
LINE
  8
0
 62
7
 10
38.8634863382036
 20
-29.9161082948868
 30
0
 11
42.5134863382036
 21
-29.9161082948868
 31
0
  0
LINE
  8
0
 62
7
 10
42.5134863382036
 20
-55.784031228846
 30
0
 11
42.5134863382036
 21
-59.470336353065
 31
0
  0
LINE
  8
0
 62
7
 10
38.8634863382036
 20
-59.470336353065
 30
0
 11
42.5134863382036
 21
-59.470336353065
 31
0
  0
LINE
  8
0
 62
7
 10
38.8634863382036
 20
-55.784031228846
 30
0
 11
38.8634863382036
 21
-59.470336353065
 31
0
  0
LINE
  8
0
 62
7
 10
38.8634863382036
 20
-55.784031228846
 30
0
 11
42.5134863382036
 21
-55.784031228846
 31
0
  0
LINE
  8
0
 62
7
 10
34.0634863382036
 20
-59.470336353065
 30
0
 11
37.7134863382036
 21
-59.470336353065
 31
0
  0
LINE
  8
0
 62
7
 10
37.7134863382036
 20
-55.784031228846
 30
0
 11
37.7134863382036
 21
-59.470336353065
 31
0
  0
LINE
  8
0
 62
7
 10
34.0634863382036
 20
-55.784031228846
 30
0
 11
34.0634863382036
 21
-59.470336353065
 31
0
  0
LINE
  8
0
 62
7
 10
34.0634863382036
 20
-55.784031228846
 30
0
 11
37.7134863382036
 21
-55.784031228846
 31
0
  0
LINE
  8
0
 62
7
 10
38.8634863382036
 20
-20.3088385228396
 30
0
 11
42.5134863382036
 21
-20.3088385228396
 31
0
  0
LINE
  8
0
 62
7
 10
42.5134863382036
 20
-16.9244341368368
 30
0
 11
42.5134863382036
 21
-20.3088385228396
 31
0
  0
LINE
  8
0
 62
7
 10
38.8634863382036
 20
-16.9244341368368
 30
0
 11
38.8634863382036
 21
-20.3088385228396
 31
0
  0
LINE
  8
0
 62
7
 10
38.8634863382036
 20
-16.9244341368368
 30
0
 11
42.5134863382036
 21
-16.9244341368368
 31
0
  0
LINE
  8
0
 62
7
 10
56.5134863382036
 20
-73.91391159665361
 30
0
 11
32.2134863382036
 21
-73.91391159665361
 31
0
  0
LINE
  8
0
 62
7
 10
51.0134863382036
 20
-33.4827711357344
 30
0
 11
54.6634863382036
 21
-33.4827711357343
 31
0
  0
LINE
  8
0
 62
7
 10
54.6634863382036
 20
-29.9161082948868
 30
0
 11
54.6634863382036
 21
-33.4827711357343
 31
0
  0
LINE
  8
0
 62
7
 10
51.0134863382036
 20
-29.9161082948868
 30
0
 11
51.0134863382036
 21
-33.4827711357344
 31
0
  0
LINE
  8
0
 62
7
 10
51.0134863382036
 20
-29.9161082948868
 30
0
 11
54.6634863382036
 21
-29.9161082948868
 31
0
  0
LINE
  8
0
 62
7
 10
51.0134863382036
 20
-42.869274291578
 30
0
 11
51.0134863382036
 21
-46.5357782860221
 31
0
  0
LINE
  8
0
 62
7
 10
51.0134863382036
 20
-46.5357782860221
 30
0
 11
54.6634863382036
 21
-46.5357782860221
 31
0
  0
LINE
  8
0
 62
7
 10
51.0134863382036
 20
-42.869274291578
 30
0
 11
54.6634863382036
 21
-42.869274291578
 31
0
  0
LINE
  8
0
 62
7
 10
54.6634863382036
 20
-42.869274291578
 30
0
 11
54.6634863382036
 21
-46.5357782860221
 31
0
  0
LINE
  8
0
 62
7
 10
46.2134863382036
 20
-46.5357782860221
 30
0
 11
49.8634863382036
 21
-46.5357782860221
 31
0
  0
LINE
  8
0
 62
7
 10
49.8634863382036
 20
-42.869274291578
 30
0
 11
49.8634863382036
 21
-46.5357782860221
 31
0
  0
LINE
  8
0
 62
7
 10
46.2134863382036
 20
-42.869274291578
 30
0
 11
46.2134863382036
 21
-46.5357782860221
 31
0
  0
LINE
  8
0
 62
7
 10
46.2134863382036
 20
-42.869274291578
 30
0
 11
49.8634863382036
 21
-42.869274291578
 31
0
  0
LINE
  8
0
 62
7
 10
46.2134863382036
 20
-33.4827711357344
 30
0
 11
49.8634863382036
 21
-33.4827711357344
 31
0
  0
LINE
  8
0
 62
7
 10
46.2134863382036
 20
-29.9161082948868
 30
0
 11
46.2134863382036
 21
-33.4827711357344
 31
0
  0
LINE
  8
0
 62
7
 10
46.2134863382036
 20
-29.9161082948868
 30
0
 11
49.8634863382036
 21
-29.9161082948868
 31
0
  0
LINE
  8
0
 62
7
 10
49.8634863382036
 20
-29.9161082948868
 30
0
 11
49.8634863382036
 21
-33.4827711357344
 31
0
  0
LINE
  8
0
 62
7
 10
46.2134863382036
 20
-59.470336353065
 30
0
 11
49.8634863382036
 21
-59.470336353065
 31
0
  0
LINE
  8
0
 62
7
 10
49.8634863382036
 20
-55.784031228846
 30
0
 11
49.8634863382036
 21
-59.470336353065
 31
0
  0
LINE
  8
0
 62
7
 10
46.2134863382036
 20
-55.784031228846
 30
0
 11
49.8634863382036
 21
-55.784031228846
 31
0
  0
LINE
  8
0
 62
7
 10
46.2134863382036
 20
-55.784031228846
 30
0
 11
46.2134863382036
 21
-59.470336353065
 31
0
  0
LINE
  8
0
 62
7
 10
54.6634863382036
 20
-55.784031228846
 30
0
 11
54.6634863382036
 21
-59.470336353065
 31
0
  0
LINE
  8
0
 62
7
 10
51.0134863382036
 20
-59.470336353065
 30
0
 11
54.6634863382036
 21
-59.470336353065
 31
0
  0
LINE
  8
0
 62
7
 10
51.0134863382036
 20
-55.784031228846
 30
0
 11
51.0134863382036
 21
-59.470336353065
 31
0
  0
LINE
  8
0
 62
7
 10
51.0134863382036
 20
-55.784031228846
 30
0
 11
54.6634863382036
 21
-55.784031228846
 31
0
  0
LINE
  8
0
 62
7
 10
46.2134863382036
 20
-20.3088385228396
 30
0
 11
49.8634863382036
 21
-20.3088385228396
 31
0
  0
LINE
  8
0
 62
7
 10
46.2134863382036
 20
-16.9244341368368
 30
0
 11
49.8634863382036
 21
-16.9244341368368
 31
0
  0
LINE
  8
0
 62
7
 10
49.8634863382036
 20
-16.9244341368368
 30
0
 11
49.8634863382036
 21
-20.3088385228396
 31
0
  0
LINE
  8
0
 62
7
 10
46.2134863382036
 20
-16.9244341368368
 30
0
 11
46.2134863382036
 21
-20.3088385228396
 31
0
  0
LINE
  8
0
 62
7
 10
51.0134863382036
 20
-20.3088385228396
 30
0
 11
54.6634863382036
 21
-20.3088385228396
 31
0
  0
LINE
  8
0
 62
7
 10
51.0134863382036
 20
-16.9244341368368
 30
0
 11
51.0134863382036
 21
-20.3088385228396
 31
0
  0
LINE
  8
0
 62
7
 10
51.0134863382036
 20
-16.9244341368368
 30
0
 11
54.6634863382036
 21
-16.9244341368368
 31
0
  0
LINE
  8
0
 62
7
 10
54.6634863382036
 20
-16.9244341368368
 30
0
 11
54.6634863382036
 21
-20.3088385228396
 31
0
  0
LINE
  8
0
 62
7
 10
0
 20
-77.9542009543464
 30
0
 11
56.5134863382036
 21
-77.9542009543464
 31
0
  0
LINE
  8
0
 62
7
 10
153.713486338204
 20
-1.15606345014834
 30
0
 11
155.75
 21
-1.15606345014834
 31
0
  0
LINE
  8
0
 62
7
 10
153.713486338204
 20
-77.9542009543464
 30
0
 11
155.75
 21
-77.9542009543464
 31
0
  0
LINE
  8
0
 62
7
 10
155.75
 20
42.4457990456488
 30
0
 11
155.75
 21
-77.9542009543464
 31
0
  0
LINE
  8
0
 62
7
 10
0
 20
-1.15606345014834
 30
0
 11
32.2134863382036
 21
-1.15606345014834
 31
0
  0
LINE
  8
0
 62
7
 10
153.713486338204
 20
35.829773641864
 30
0
 11
155.75
 21
35.829773641864
 31
0
  0
LINE
  8
0
 62
7
 10
0
 20
35.829773641864
 30
0
 11
32.2134863382036
 21
35.829773641864
 31
0
  0
LINE
  8
0
 62
7
 10
0
 20
42.4457990456488
 30
0
 11
155.75
 21
42.4457990456488
 31
0
  0
LINE
  8
0
 62
7
 10
0
 20
2.49579904564831
 30
0
 11
32.2134863382036
 21
2.49579904564831
 31
0
  0
LINE
  8
0
 62
7
 10
153.713486338204
 20
1.39937012317267
 30
0
 11
155.75
 21
1.39937012317267
 31
0
  0
LINE
  8
0
 62
7
 10
153.713486338204
 20
2.49579904564831
 30
0
 11
155.75
 21
2.49579904564831
 31
0
  0
LINE
  8
0
 62
7
 10
0
 20
1.39937012317256
 30
0
 11
32.2134863382036
 21
1.39937012317301
 31
0
  0
LINE
  8
0
 62
7
 10
32.2134863382036
 20
-8.32626124652319
 30
0
 11
0.174550649282189
 21
-8.32626124652319
 31
0
  0
LINE
  8
0
 62
7
 10
155.75
 20
-8.32626124652319
 30
0
 11
153.713486338204
 21
-8.32626124652319
 31
0
  0
LINE
  8
0
 62
7
 10
3.5527136788005e-15
 20
39.4457990456489
 30
0
 11
155.75
 21
39.4457990456489
 31
0
  0
LINE
  8
0
 62
7
 10
143.413486338204
 20
-73.80022844434239
 30
0
 11
143.413486338204
 21
-77.3838943972538
 31
0
  0
LINE
  8
0
 62
7
 10
143.413486338204
 20
-77.3838943972538
 30
0
 11
147.063486338203
 21
-77.3838943972538
 31
0
  0
LINE
  8
0
 62
7
 10
147.063486338203
 20
-73.80022844434239
 30
0
 11
147.063486338203
 21
-77.3838943972538
 31
0
  0
LINE
  8
0
 62
7
 10
143.413486338204
 20
-73.80022844434239
 30
0
 11
147.063486338203
 21
-73.80022844434239
 31
0
  0
LINE
  8
0
 62
7
 10
151.863486338204
 20
-73.80022844434239
 30
0
 11
151.863486338204
 21
-77.3838943972538
 31
0
  0
LINE
  8
0
 62
7
 10
143.413486338204
 20
-86.6228541818769
 30
0
 11
147.063486338203
 21
-86.6228541818769
 31
0
  0
LINE
  8
0
 62
7
 10
147.063486338203
 20
-86.6228541818769
 30
0
 11
147.063486338203
 21
-90.0427565472219
 31
0
  0
LINE
  8
0
 62
7
 10
143.413486338204
 20
-90.0427565472219
 30
0
 11
147.063486338203
 21
-90.0427565472219
 31
0
  0
LINE
  8
0
 62
7
 10
143.413486338204
 20
-86.6228541818769
 30
0
 11
143.413486338204
 21
-90.0427565472219
 31
0
  0
LINE
  8
0
 62
7
 10
148.213486338204
 20
-86.6228541818769
 30
0
 11
148.213486338203
 21
-90.0427565472219
 31
0
  0
LINE
  8
0
 62
7
 10
148.213486338204
 20
-86.6228541818769
 30
0
 11
151.863486338204
 21
-86.6228541818769
 31
0
  0
LINE
  8
0
 62
7
 10
151.863486338204
 20
-86.6228541818769
 30
0
 11
151.863486338204
 21
-90.042756547222
 31
0
  0
LINE
  8
0
 62
7
 10
148.213486338203
 20
-90.0427565472219
 30
0
 11
151.863486338204
 21
-90.042756547222
 31
0
  0
LINE
  8
0
 62
7
 10
148.213486338204
 20
-77.3838943972538
 30
0
 11
151.863486338204
 21
-77.3838943972538
 31
0
  0
LINE
  8
0
 62
7
 10
148.213486338204
 20
-73.80022844434239
 30
0
 11
148.213486338204
 21
-77.3838943972538
 31
0
  0
LINE
  8
0
 62
7
 10
148.213486338204
 20
-73.80022844434239
 30
0
 11
151.863486338204
 21
-73.80022844434239
 31
0
  0
LINE
  8
0
 62
7
 10
143.413486338204
 20
-16.9244341368357
 30
0
 11
143.413486338204
 21
-20.3088385228385
 31
0
  0
LINE
  8
0
 62
7
 10
143.413486338204
 20
-20.3088385228385
 30
0
 11
147.063486338203
 21
-20.3088385228385
 31
0
  0
LINE
  8
0
 62
7
 10
143.413486338204
 20
-16.9244341368357
 30
0
 11
147.063486338203
 21
-16.9244341368357
 31
0
  0
LINE
  8
0
 62
7
 10
147.063486338203
 20
-16.9244341368357
 30
0
 11
147.063486338203
 21
-20.3088385228385
 31
0
  0
LINE
  8
0
 62
7
 10
148.213486338204
 20
-20.3088385228385
 30
0
 11
151.863486338204
 21
-20.3088385228385
 31
0
  0
LINE
  8
0
 62
7
 10
151.863486338204
 20
-16.9244341368357
 30
0
 11
151.863486338204
 21
-20.3088385228385
 31
0
  0
LINE
  8
0
 62
7
 10
148.213486338204
 20
-16.9244341368357
 30
0
 11
151.863486338204
 21
-16.9244341368357
 31
0
  0
LINE
  8
0
 62
7
 10
148.213486338204
 20
-16.9244341368357
 30
0
 11
148.213486338204
 21
-20.3088385228385
 31
0
  0
LINE
  8
0
 62
7
 10
148.213486338204
 20
-42.8692742915769
 30
0
 11
148.213486338204
 21
-46.5357782860211
 31
0
  0
LINE
  8
0
 62
7
 10
148.213486338204
 20
-46.5357782860211
 30
0
 11
151.863486338204
 21
-46.5357782860211
 31
0
  0
LINE
  8
0
 62
7
 10
148.213486338204
 20
-42.8692742915769
 30
0
 11
151.863486338204
 21
-42.8692742915769
 31
0
  0
LINE
  8
0
 62
7
 10
151.863486338204
 20
-42.8692742915769
 30
0
 11
151.863486338204
 21
-46.5357782860211
 31
0
  0
LINE
  8
0
 62
7
 10
143.413486338204
 20
-46.5357782860211
 30
0
 11
147.063486338203
 21
-46.5357782860211
 31
0
  0
LINE
  8
0
 62
7
 10
147.063486338203
 20
-42.8692742915769
 30
0
 11
147.063486338203
 21
-46.5357782860211
 31
0
  0
LINE
  8
0
 62
7
 10
143.413486338204
 20
-42.8692742915769
 30
0
 11
147.063486338203
 21
-42.8692742915769
 31
0
  0
LINE
  8
0
 62
7
 10
143.413486338204
 20
-42.8692742915769
 30
0
 11
143.413486338204
 21
-46.5357782860211
 31
0
  0
LINE
  8
0
 62
7
 10
143.413486338204
 20
-33.4827711357333
 30
0
 11
147.063486338203
 21
-33.4827711357333
 31
0
  0
LINE
  8
0
 62
7
 10
147.063486338203
 20
-29.9161082948857
 30
0
 11
147.063486338203
 21
-33.4827711357333
 31
0
  0
LINE
  8
0
 62
7
 10
143.413486338204
 20
-29.9161082948857
 30
0
 11
147.063486338203
 21
-29.9161082948857
 31
0
  0
LINE
  8
0
 62
7
 10
143.413486338204
 20
-29.9161082948857
 30
0
 11
143.413486338204
 21
-33.4827711357333
 31
0
  0
LINE
  8
0
 62
7
 10
148.213486338204
 20
-33.4827711357333
 30
0
 11
151.863486338204
 21
-33.4827711357332
 31
0
  0
LINE
  8
0
 62
7
 10
151.863486338204
 20
-29.9161082948857
 30
0
 11
151.863486338204
 21
-33.4827711357332
 31
0
  0
LINE
  8
0
 62
7
 10
148.213486338204
 20
-29.9161082948857
 30
0
 11
148.213486338204
 21
-33.4827711357333
 31
0
  0
LINE
  8
0
 62
7
 10
148.213486338204
 20
-29.9161082948857
 30
0
 11
151.863486338204
 21
-29.9161082948857
 31
0
  0
LINE
  8
0
 62
7
 10
143.413486338204
 20
-59.4703363530639
 30
0
 11
147.063486338203
 21
-59.4703363530639
 31
0
  0
LINE
  8
0
 62
7
 10
147.063486338203
 20
-55.7840312288449
 30
0
 11
147.063486338203
 21
-59.4703363530639
 31
0
  0
LINE
  8
0
 62
7
 10
143.413486338204
 20
-55.7840312288449
 30
0
 11
147.063486338203
 21
-55.7840312288449
 31
0
  0
LINE
  8
0
 62
7
 10
143.413486338204
 20
-55.7840312288449
 30
0
 11
143.413486338204
 21
-59.4703363530639
 31
0
  0
LINE
  8
0
 62
7
 10
151.863486338204
 20
-55.7840312288449
 30
0
 11
151.863486338204
 21
-59.4703363530639
 31
0
  0
LINE
  8
0
 62
7
 10
148.213486338204
 20
-55.7840312288449
 30
0
 11
151.863486338204
 21
-55.7840312288449
 31
0
  0
LINE
  8
0
 62
7
 10
148.213486338204
 20
-59.4703363530639
 30
0
 11
151.863486338204
 21
-59.4703363530639
 31
0
  0
LINE
  8
0
 62
7
 10
148.213486338204
 20
-55.7840312288449
 30
0
 11
148.213486338204
 21
-59.4703363530639
 31
0
  0
LINE
  8
0
 62
7
 10
32.2134863382036
 20
-66.8258144310596
 30
0
 11
153.713486338204
 21
-66.8258144310586
 31
0
  0
LINE
  8
0
 62
7
 10
32.2134863382036
 20
-12.1177443130137
 30
0
 11
153.713486338204
 21
-12.1177443130137
 31
0
  0
LINE
  8
0
 62
7
 10
32.2134863382036
 20
-5.99897863249561
 30
0
 11
153.713486338204
 21
-5.99897863249561
 31
0
  0
LINE
  8
0
 62
7
 10
32.2134863382036
 20
-9.949196304570989
 30
0
 11
153.713486338204
 21
-9.949196304570989
 31
0
  0
LINE
  8
0
 62
7
 10
32.2134863382036
 20
-4.53524643329013
 30
0
 11
153.713486338204
 21
-4.53524643329013
 31
0
  0
LINE
  8
0
 62
7
 10
153.713486338204
 20
-0.255495049573597
 30
0
 11
32.2134863382036
 21
-0.255495049573597
 31
0
  0
LINE
  8
0
 62
7
 10
119.113486338204
 20
-42.8692742915769
 30
0
 11
122.763486338204
 21
-42.8692742915769
 31
0
  0
LINE
  8
0
 62
7
 10
119.113486338204
 20
-42.8692742915769
 30
0
 11
119.113486338204
 21
-46.5357782860211
 31
0
  0
LINE
  8
0
 62
7
 10
122.763486338204
 20
-42.8692742915769
 30
0
 11
122.763486338204
 21
-46.5357782860211
 31
0
  0
LINE
  8
0
 62
7
 10
119.113486338204
 20
-46.5357782860211
 30
0
 11
122.763486338204
 21
-46.5357782860211
 31
0
  0
LINE
  8
0
 62
7
 10
123.913486338204
 20
-42.8692742915769
 30
0
 11
123.913486338204
 21
-46.5357782860211
 31
0
  0
LINE
  8
0
 62
7
 10
127.563486338204
 20
-42.8692742915769
 30
0
 11
127.563486338204
 21
-46.5357782860211
 31
0
  0
LINE
  8
0
 62
7
 10
123.913486338204
 20
-42.8692742915769
 30
0
 11
127.563486338204
 21
-42.8692742915769
 31
0
  0
LINE
  8
0
 62
7
 10
123.913486338204
 20
-46.5357782860211
 30
0
 11
127.563486338204
 21
-46.5357782860211
 31
0
  0
LINE
  8
0
 62
7
 10
123.913486338204
 20
-55.7840312288449
 30
0
 11
127.563486338204
 21
-55.7840312288449
 31
0
  0
LINE
  8
0
 62
7
 10
123.913486338204
 20
-55.7840312288449
 30
0
 11
123.913486338204
 21
-59.4703363530639
 31
0
  0
LINE
  8
0
 62
7
 10
123.913486338204
 20
-59.4703363530639
 30
0
 11
127.563486338204
 21
-59.4703363530639
 31
0
  0
LINE
  8
0
 62
7
 10
127.563486338204
 20
-55.7840312288449
 30
0
 11
127.563486338204
 21
-59.4703363530639
 31
0
  0
LINE
  8
0
 62
7
 10
119.113486338204
 20
-55.7840312288449
 30
0
 11
119.113486338204
 21
-59.4703363530639
 31
0
  0
LINE
  8
0
 62
7
 10
119.113486338204
 20
-55.7840312288449
 30
0
 11
122.763486338204
 21
-55.7840312288449
 31
0
  0
LINE
  8
0
 62
7
 10
122.763486338204
 20
-55.7840312288449
 30
0
 11
122.763486338204
 21
-59.4703363530639
 31
0
  0
LINE
  8
0
 62
7
 10
119.113486338204
 20
-59.4703363530639
 30
0
 11
122.763486338204
 21
-59.4703363530639
 31
0
  0
LINE
  8
0
 62
7
 10
123.913486338204
 20
-29.9161082948857
 30
0
 11
127.563486338204
 21
-29.9161082948857
 31
0
  0
LINE
  8
0
 62
7
 10
123.913486338204
 20
-29.9161082948857
 30
0
 11
123.913486338204
 21
-33.4827711357333
 31
0
  0
LINE
  8
0
 62
7
 10
127.563486338204
 20
-29.9161082948857
 30
0
 11
127.563486338204
 21
-33.4827711357332
 31
0
  0
LINE
  8
0
 62
7
 10
123.913486338204
 20
-33.4827711357333
 30
0
 11
127.563486338204
 21
-33.4827711357332
 31
0
  0
LINE
  8
0
 62
7
 10
119.113486338204
 20
-29.9161082948857
 30
0
 11
119.113486338204
 21
-33.4827711357333
 31
0
  0
LINE
  8
0
 62
7
 10
119.113486338204
 20
-29.9161082948857
 30
0
 11
122.763486338204
 21
-29.9161082948857
 31
0
  0
LINE
  8
0
 62
7
 10
122.763486338204
 20
-29.9161082948857
 30
0
 11
122.763486338204
 21
-33.4827711357333
 31
0
  0
LINE
  8
0
 62
7
 10
119.113486338204
 20
-33.4827711357333
 30
0
 11
122.763486338204
 21
-33.4827711357333
 31
0
  0
LINE
  8
0
 62
7
 10
122.763486338204
 20
-16.9244341368357
 30
0
 11
122.763486338204
 21
-20.3088385228385
 31
0
  0
LINE
  8
0
 62
7
 10
119.113486338204
 20
-16.9244341368357
 30
0
 11
122.763486338204
 21
-16.9244341368357
 31
0
  0
LINE
  8
0
 62
7
 10
119.113486338204
 20
-20.3088385228385
 30
0
 11
122.763486338204
 21
-20.3088385228385
 31
0
  0
LINE
  8
0
 62
7
 10
119.113486338204
 20
-16.9244341368357
 30
0
 11
119.113486338204
 21
-20.3088385228385
 31
0
  0
LINE
  8
0
 62
7
 10
123.913486338204
 20
-16.9244341368357
 30
0
 11
127.563486338204
 21
-16.9244341368357
 31
0
  0
LINE
  8
0
 62
7
 10
123.913486338204
 20
-16.9244341368357
 30
0
 11
123.913486338204
 21
-20.3088385228385
 31
0
  0
LINE
  8
0
 62
7
 10
127.563486338204
 20
-16.9244341368357
 30
0
 11
127.563486338204
 21
-20.3088385228385
 31
0
  0
LINE
  8
0
 62
7
 10
123.913486338204
 20
-20.3088385228385
 30
0
 11
127.563486338204
 21
-20.3088385228385
 31
0
  0
LINE
  8
0
 62
7
 10
119.113486338204
 20
-73.80022844434239
 30
0
 11
122.763486338204
 21
-73.80022844434239
 31
0
  0
LINE
  8
0
 62
7
 10
119.113486338204
 20
-77.3838943972538
 30
0
 11
122.763486338204
 21
-77.3838943972538
 31
0
  0
LINE
  8
0
 62
7
 10
122.763486338204
 20
-73.80022844434239
 30
0
 11
122.763486338204
 21
-77.3838943972538
 31
0
  0
LINE
  8
0
 62
7
 10
123.913486338204
 20
-73.80022844434239
 30
0
 11
123.913486338204
 21
-77.3838943972538
 31
0
  0
LINE
  8
0
 62
7
 10
119.113486338204
 20
-73.80022844434239
 30
0
 11
119.113486338204
 21
-77.3838943972538
 31
0
  0
LINE
  8
0
 62
7
 10
127.563486338204
 20
-86.6228541818769
 30
0
 11
127.563486338204
 21
-90.042756547222
 31
0
  0
LINE
  8
0
 62
7
 10
123.913486338204
 20
-86.6228541818769
 30
0
 11
127.563486338204
 21
-86.6228541818769
 31
0
  0
LINE
  8
0
 62
7
 10
123.913486338204
 20
-90.0427565472219
 30
0
 11
127.563486338204
 21
-90.042756547222
 31
0
  0
LINE
  8
0
 62
7
 10
123.913486338204
 20
-86.6228541818769
 30
0
 11
123.913486338204
 21
-90.0427565472219
 31
0
  0
LINE
  8
0
 62
7
 10
119.113486338204
 20
-86.6228541818769
 30
0
 11
119.113486338204
 21
-90.0427565472219
 31
0
  0
LINE
  8
0
 62
7
 10
119.113486338204
 20
-90.0427565472219
 30
0
 11
122.763486338204
 21
-90.0427565472219
 31
0
  0
LINE
  8
0
 62
7
 10
122.763486338204
 20
-86.6228541818769
 30
0
 11
122.763486338204
 21
-90.0427565472219
 31
0
  0
LINE
  8
0
 62
7
 10
119.113486338204
 20
-86.6228541818769
 30
0
 11
122.763486338204
 21
-86.6228541818769
 31
0
  0
LINE
  8
0
 62
7
 10
123.913486338204
 20
-77.3838943972538
 30
0
 11
127.563486338204
 21
-77.3838943972538
 31
0
  0
LINE
  8
0
 62
7
 10
123.913486338204
 20
-73.80022844434239
 30
0
 11
127.563486338204
 21
-73.80022844434239
 31
0
  0
LINE
  8
0
 62
7
 10
127.563486338204
 20
-73.80022844434239
 30
0
 11
127.563486338204
 21
-77.3838943972538
 31
0
  0
LINE
  8
0
 62
7
 10
9.588486338203561
 20
5.37086901469536
 30
0
 11
18.3884863382035
 21
5.37086901469536
 31
0
  0
LINE
  8
0
 62
7
 10
21.7384863382036
 20
5.37086901469536
 30
0
 11
30.5384863382035
 21
5.37086901469536
 31
0
  0
LINE
  8
0
 62
7
 10
5.7884863382036
 20
-13.2262612465232
 30
0
 11
5.7884863382036
 21
-23.2262612465232
 31
0
  0
LINE
  8
0
 62
7
 10
5.7884863382036
 20
-13.2262612465232
 30
0
 11
32.2134863382036
 21
-13.2262612465232
 31
0
  0
LINE
  8
0
 62
7
 10
5.7884863382036
 20
-23.2262612465232
 30
0
 11
32.2134863382036
 21
-23.2262612465232
 31
0
  0
LINE
  8
0
 62
7
 10
19.4884863382036
 20
-58.8870563095791
 30
0
 11
19.4884863382036
 21
-60.8262612465233
 31
0
  0
LINE
  8
0
 62
7
 10
13.4884863382036
 20
-38.5387939482781
 30
0
 11
13.4884863382036
 21
-35.8262612465232
 31
0
  0
LINE
  8
0
 62
7
 10
12.854365894036
 20
-39.0701563071922
 30
0
 11
13.0753104270368
 21
-39.0311978247841
 31
0
  0
LINE
  8
0
 62
7
 10
10.7884863382037
 20
-55.1203468033238
 30
0
 11
10.7884863382036
 21
-41.5321756897227
 31
0
  0
LINE
  8
0
 62
7
 10
13.075310427037
 20
-57.6213246682623
 30
0
 11
12.8543658940363
 21
-57.5823661858543
 31
0
  0
LINE
  8
0
 62
7
 10
19.4884863382036
 20
-35.8262612465232
 30
0
 11
19.4884863382036
 21
-37.7654661834674
 31
0
  0
LINE
  8
0
 62
7
 10
22.1884863382036
 20
-41.4762612465232
 30
0
 11
22.1884863382036
 21
-55.1762612465234
 31
0
  0
LINE
  8
0
 62
7
 10
13.4884863382036
 20
-60.8262612465234
 30
0
 11
13.4884863382036
 21
-58.1137285447686
 31
0
  0
LINE
  8
0
 62
7
 10
32.2134863382036
 20
-23.2262612465232
 30
0
 11
32.2134863382036
 21
-73.91391159665361
 31
0
  0
LINE
  8
0
 62
7
 10
32.2134863382036
 20
-13.2262612465232
 30
0
 11
32.2134863382036
 21
-23.2262612465232
 31
0
  0
ARC
  8
1
 62
7
 10
152.038486338204
 20
5.87086901469536
 30
0
 40
0.5
 50
270
 51
0
  0
ARC
  8
1
 62
7
 10
143.238486338203
 20
5.87086901469536
 30
0
 40
0.5
 50
180
 51
270
  0
ARC
  8
1
 62
7
 10
152.038486338204
 20
22.1181408861592
 30
0
 40
0.5
 50
0
 51
90
  0
ARC
  8
1
 62
7
 10
143.238486338203
 20
22.1181408861592
 30
0
 40
0.5
 50
90
 51
180
  0
ARC
  8
1
 62
7
 10
139.888486338203
 20
5.87086901469536
 30
0
 40
0.5
 50
270
 51
0
  0
ARC
  8
1
 62
7
 10
131.088486338203
 20
5.87086901469536
 30
0
 40
0.5
 50
180
 51
270
  0
ARC
  8
1
 62
7
 10
139.888486338203
 20
22.1181408861592
 30
0
 40
0.5
 50
0
 51
90
  0
ARC
  8
1
 62
7
 10
131.088486338203
 20
22.1181408861592
 30
0
 40
0.5
 50
90
 51
180
  0
ARC
  8
1
 62
7
 10
127.738486338204
 20
5.87086901469536
 30
0
 40
0.5
 50
270
 51
0
  0
ARC
  8
1
 62
7
 10
118.938486338204
 20
5.87086901469536
 30
0
 40
0.5
 50
180
 51
270
  0
ARC
  8
1
 62
7
 10
127.738486338204
 20
22.1181408861592
 30
0
 40
0.5000000000000142
 50
0
 51
90
  0
ARC
  8
1
 62
7
 10
118.938486338204
 20
22.1181408861592
 30
0
 40
0.5
 50
90
 51
180
  0
ARC
  8
1
 62
7
 10
115.588486338203
 20
5.87086901469536
 30
0
 40
0.5
 50
270
 51
0
  0
ARC
  8
1
 62
7
 10
106.788486338203
 20
5.87086901469536
 30
0
 40
0.5
 50
180
 51
270
  0
ARC
  8
1
 62
7
 10
115.588486338203
 20
22.1181408861592
 30
0
 40
0.5
 50
0
 51
90
  0
ARC
  8
1
 62
7
 10
106.788486338203
 20
22.1181408861592
 30
0
 40
0.5
 50
90
 51
180
  0
ARC
  8
1
 62
7
 10
103.438486338204
 20
5.87086901469536
 30
0
 40
0.5
 50
270
 51
0
  0
ARC
  8
1
 62
7
 10
94.63848633820351
 20
5.87086901469536
 30
0
 40
0.5
 50
180
 51
270
  0
ARC
  8
1
 62
7
 10
103.438486338204
 20
22.1181408861592
 30
0
 40
0.5
 50
0
 51
90
  0
ARC
  8
1
 62
7
 10
94.63848633820351
 20
22.1181408861592
 30
0
 40
0.5
 50
90
 51
180
  0
ARC
  8
1
 62
7
 10
91.2884863382035
 20
5.87086901469536
 30
0
 40
0.5
 50
270
 51
0
  0
ARC
  8
1
 62
7
 10
82.4884863382035
 20
5.87086901469536
 30
0
 40
0.5
 50
180
 51
270
  0
ARC
  8
1
 62
7
 10
91.2884863382035
 20
22.1181408861592
 30
0
 40
0.5
 50
0
 51
90
  0
ARC
  8
1
 62
7
 10
82.4884863382035
 20
22.1181408861592
 30
0
 40
0.5
 50
90
 51
180
  0
ARC
  8
1
 62
7
 10
79.13848633820351
 20
5.87086901469536
 30
0
 40
0.5
 50
270
 51
0
  0
ARC
  8
1
 62
7
 10
70.3384863382035
 20
5.87086901469536
 30
0
 40
0.5
 50
180
 51
270
  0
ARC
  8
1
 62
7
 10
79.13848633820351
 20
22.1181408861592
 30
0
 40
0.5
 50
0
 51
90
  0
ARC
  8
1
 62
7
 10
70.3384863382035
 20
22.1181408861592
 30
0
 40
0.5
 50
90
 51
180
  0
ARC
  8
1
 62
7
 10
66.9884863382035
 20
5.87086901469536
 30
0
 40
0.5
 50
270
 51
0
  0
ARC
  8
1
 62
7
 10
58.1884863382035
 20
5.87086901469536
 30
0
 40
0.5
 50
180
 51
270
  0
ARC
  8
1
 62
7
 10
66.9884863382035
 20
22.1181408861592
 30
0
 40
0.5
 50
0
 51
90
  0
ARC
  8
1
 62
7
 10
58.1884863382035
 20
22.1181408861592
 30
0
 40
0.5
 50
90
 51
180
  0
ARC
  8
1
 62
7
 10
54.8384863382035
 20
5.87086901469536
 30
0
 40
0.5
 50
270
 51
0
  0
ARC
  8
1
 62
7
 10
46.0384863382035
 20
5.87086901469536
 30
0
 40
0.5
 50
180
 51
270
  0
ARC
  8
1
 62
7
 10
54.8384863382035
 20
22.1181408861592
 30
0
 40
0.5
 50
0
 51
90
  0
ARC
  8
1
 62
7
 10
46.0384863382035
 20
22.1181408861592
 30
0
 40
0.5
 50
90
 51
180
  0
ARC
  8
1
 62
7
 10
42.6884863382035
 20
5.87086901469536
 30
0
 40
0.5
 50
270
 51
0
  0
ARC
  8
1
 62
7
 10
33.8884863382035
 20
5.87086901469536
 30
0
 40
0.5
 50
180
 51
270
  0
ARC
  8
1
 62
7
 10
42.6884863382035
 20
22.1181408861592
 30
0
 40
0.5
 50
0
 51
90
  0
ARC
  8
1
 62
7
 10
33.8884863382035
 20
22.1181408861592
 30
0
 40
0.5
 50
90
 51
180
  0
ARC
  8
1
 62
7
 10
30.5384863382036
 20
22.1181408861592
 30
0
 40
0.5
 50
0
 51
90
  0
ARC
  8
1
 62
7
 10
21.7384863382036
 20
22.1181408861592
 30
0
 40
0.5
 50
90
 51
180
  0
ARC
  8
1
 62
7
 10
9.588486338203561
 20
22.1181408861592
 30
0
 40
0.5
 50
90
 51
180
  0
ARC
  8
1
 62
7
 10
18.3884863382036
 20
22.1181408861592
 30
0
 40
0.5
 50
0
 51
90
  0
ARC
  8
1
 62
7
 10
18.3884863382035
 20
5.87086901469536
 30
0
 40
0.5
 50
270
 51
0
  0
ARC
  8
1
 62
7
 10
9.588486338203561
 20
5.87086901469536
 30
0
 40
0.5
 50
180
 51
270
  0
ARC
  8
1
 62
7
 10
21.7384863382036
 20
5.87086901469536
 30
0
 40
0.5
 50
180
 51
270
  0
ARC
  8
1
 62
7
 10
30.5384863382035
 20
5.87086901469536
 30
0
 40
0.5
 50
270
 51
0
  0
ARC
  8
0
 62
7
 10
16.4884863382036
 20
-60.8262612465232
 30
0
 40
3
 50
180
 51
0
  0
ARC
  8
0
 62
7
 10
19.9884863382036
 20
-58.8870563095791
 30
0
 40
0.5000000000000743
 50
107.920213139395
 51
180
  0
ARC
  8
0
 62
7
 10
18.7884863382037
 20
-55.1762612465232
 30
0
 40
3.399999999999904
 50
287.9202131393902
 51
0
  0
ARC
  8
0
 62
7
 10
18.7884863382037
 20
-41.4762612465232
 30
0
 40
3.399999999999899
 50
0
 51
72.07978686060979
  0
ARC
  8
0
 62
7
 10
19.9884863382036
 20
-37.7654661834673
 30
0
 40
0.5
 50
180
 51
252.0797868606047
  0
ARC
  8
0
 62
7
 10
16.4884863382036
 20
-35.8262612465232
 30
0
 40
3
 50
0
 51
180
  0
ARC
  8
0
 62
7
 10
12.9884863382036
 20
-38.5387939482779
 30
0
 40
0.5000000000000506
 50
279.9999999999682
 51
359.9999999999772
  0
ARC
  8
0
 62
7
 10
13.2884863382036
 20
-41.5321756897226
 30
0
 40
2.499999999999929
 50
100.0000000000066
 51
180
  0
ARC
  8
0
 62
7
 10
13.2884863382037
 20
-55.1203468033238
 30
0
 40
2.5
 50
180
 51
259.9999999999983
  0
ARC
  8
0
 62
7
 10
12.9884863382036
 20
-58.1137285447684
 30
0
 40
0.5
 50
0
 51
80.00000000000742
  0
CIRCLE
  8
0
 62
7
 10
108.788486338204
 20
-81.15325504790179
 30
0
 40
2
  0
CIRCLE
  8
0
 62
7
 10
113.588486338204
 20
-93.95382538592381
 30
0
 40
2
  0
CIRCLE
  8
0
 62
7
 10
113.588486338204
 20
-81.15325504790179
 30
0
 40
2
  0
CIRCLE
  8
0
 62
7
 10
108.788486338204
 20
-93.95382538592369
 30
0
 40
2
  0
CIRCLE
  8
0
 62
7
 10
108.788486338204
 20
-37.3439433576611
 30
0
 40
2
  0
CIRCLE
  8
0
 62
7
 10
108.788486338204
 20
-50.2750897443429
 30
0
 40
2
  0
CIRCLE
  8
0
 62
7
 10
113.588486338204
 20
-37.3439433576611
 30
0
 40
2
  0
CIRCLE
  8
0
 62
7
 10
113.588486338204
 20
-24.3743528367332
 30
0
 40
2
  0
CIRCLE
  8
0
 62
7
 10
113.588486338204
 20
-63.1678570986661
 30
0
 40
2
  0
CIRCLE
  8
0
 62
7
 10
108.788486338204
 20
-24.3743528367332
 30
0
 40
2
  0
CIRCLE
  8
0
 62
7
 10
113.588486338204
 20
-50.2750897443429
 30
0
 40
2
  0
CIRCLE
  8
0
 62
7
 10
108.788486338204
 20
-63.1678570986661
 30
0
 40
2
  0
CIRCLE
  8
0
 62
7
 10
137.888486338204
 20
-93.95382538592381
 30
0
 40
2
  0
CIRCLE
  8
0
 62
7
 10
133.088486338204
 20
-81.15325504790179
 30
0
 40
2
  0
CIRCLE
  8
0
 62
7
 10
137.888486338204
 20
-81.15325504790179
 30
0
 40
2
  0
CIRCLE
  8
0
 62
7
 10
133.088486338204
 20
-93.95382538592381
 30
0
 40
2
  0
CIRCLE
  8
0
 62
7
 10
133.088486338204
 20
-37.3439433576611
 30
0
 40
2
  0
CIRCLE
  8
0
 62
7
 10
137.888486338204
 20
-37.3439433576611
 30
0
 40
2
  0
CIRCLE
  8
0
 62
7
 10
133.088486338204
 20
-24.3743528367332
 30
0
 40
2
  0
CIRCLE
  8
0
 62
7
 10
133.088486338204
 20
-63.1678570986661
 30
0
 40
2
  0
CIRCLE
  8
0
 62
7
 10
137.888486338204
 20
-63.1678570986661
 30
0
 40
2
  0
CIRCLE
  8
0
 62
7
 10
137.888486338204
 20
-24.3743528367332
 30
0
 40
2
  0
CIRCLE
  8
0
 62
7
 10
137.888486338204
 20
-50.2750897443429
 30
0
 40
2
  0
CIRCLE
  8
0
 62
7
 10
133.088486338204
 20
-50.2750897443429
 30
0
 40
2
  0
CIRCLE
  8
0
 62
7
 10
96.63848633820361
 20
-63.1678570986661
 30
0
 40
2
  0
CIRCLE
  8
0
 62
7
 10
96.63848633820361
 20
-37.3439433576611
 30
0
 40
2
  0
CIRCLE
  8
0
 62
7
 10
96.63848633820361
 20
-24.3743528367332
 30
0
 40
2
  0
CIRCLE
  8
0
 62
7
 10
101.438486338204
 20
-50.2750897443429
 30
0
 40
2
  0
CIRCLE
  8
0
 62
7
 10
101.438486338204
 20
-63.1678570986661
 30
0
 40
2
  0
CIRCLE
  8
0
 62
7
 10
101.438486338204
 20
-24.3743528367332
 30
0
 40
2
  0
CIRCLE
  8
0
 62
7
 10
101.438486338204
 20
-37.3439433576611
 30
0
 40
2
  0
CIRCLE
  8
0
 62
7
 10
96.63848633820361
 20
-50.2750897443429
 30
0
 40
2
  0
CIRCLE
  8
0
 62
7
 10
96.63848633820361
 20
-81.15325504790179
 30
0
 40
2
  0
CIRCLE
  8
0
 62
7
 10
101.438486338204
 20
-81.15325504790179
 30
0
 40
2
  0
CIRCLE
  8
0
 62
7
 10
101.438486338204
 20
-93.95382538592369
 30
0
 40
2
  0
CIRCLE
  8
0
 62
7
 10
96.63848633820361
 20
-93.95382538592369
 30
0
 40
2
  0
CIRCLE
  8
0
 62
7
 10
84.4884863382036
 20
-93.95382538592369
 30
0
 40
2
  0
CIRCLE
  8
0
 62
7
 10
84.4884863382036
 20
-81.15325504790179
 30
0
 40
2
  0
CIRCLE
  8
0
 62
7
 10
89.2884863382036
 20
-81.15325504790179
 30
0
 40
2
  0
CIRCLE
  8
0
 62
7
 10
89.2884863382036
 20
-93.95382538592369
 30
0
 40
2
  0
CIRCLE
  8
0
 62
7
 10
84.4884863382036
 20
-63.1678570986661
 30
0
 40
2
  0
CIRCLE
  8
0
 62
7
 10
84.4884863382036
 20
-37.3439433576611
 30
0
 40
2
  0
CIRCLE
  8
0
 62
7
 10
89.2884863382036
 20
-37.3439433576611
 30
0
 40
2
  0
CIRCLE
  8
0
 62
7
 10
89.2884863382036
 20
-50.2750897443429
 30
0
 40
2
  0
CIRCLE
  8
0
 62
7
 10
84.4884863382036
 20
-50.2750897443429
 30
0
 40
2
  0
CIRCLE
  8
0
 62
7
 10
89.2884863382036
 20
-63.1678570986661
 30
0
 40
2
  0
CIRCLE
  8
0
 62
7
 10
89.2884863382036
 20
-24.3743528367332
 30
0
 40
2
  0
CIRCLE
  8
0
 62
7
 10
84.4884863382036
 20
-24.3743528367332
 30
0
 40
2
  0
CIRCLE
  8
0
 62
7
 10
77.13848633820361
 20
-93.95382538592369
 30
0
 40
2
  0
CIRCLE
  8
0
 62
7
 10
72.33848633820359
 20
-81.15325504790179
 30
0
 40
2
  0
CIRCLE
  8
0
 62
7
 10
77.13848633820361
 20
-81.15325504790179
 30
0
 40
2
  0
CIRCLE
  8
0
 62
7
 10
72.33848633820359
 20
-93.95382538592369
 30
0
 40
2
  0
CIRCLE
  8
0
 62
7
 10
77.13848633820361
 20
-50.2750897443429
 30
0
 40
2
  0
CIRCLE
  8
0
 62
7
 10
72.33848633820359
 20
-50.2750897443429
 30
0
 40
2
  0
CIRCLE
  8
0
 62
7
 10
77.13848633820361
 20
-37.3439433576611
 30
0
 40
2
  0
CIRCLE
  8
0
 62
7
 10
72.33848633820359
 20
-37.3439433576611
 30
0
 40
2
  0
CIRCLE
  8
0
 62
7
 10
77.13848633820361
 20
-63.1678570986661
 30
0
 40
2
  0
CIRCLE
  8
0
 62
7
 10
72.33848633820359
 20
-63.1678570986661
 30
0
 40
2
  0
CIRCLE
  8
0
 62
7
 10
72.33848633820359
 20
-24.3743528367332
 30
0
 40
2
  0
CIRCLE
  8
0
 62
7
 10
77.13848633820361
 20
-24.3743528367332
 30
0
 40
2
  0
CIRCLE
  8
0
 62
7
 10
60.1884863382036
 20
-93.95382538592369
 30
0
 40
2
  0
CIRCLE
  8
0
 62
7
 10
64.9884863382036
 20
-93.95382538592369
 30
0
 40
2
  0
CIRCLE
  8
0
 62
7
 10
60.1884863382036
 20
-81.15325504790179
 30
0
 40
2
  0
CIRCLE
  8
0
 62
7
 10
64.9884863382036
 20
-81.15325504790179
 30
0
 40
2
  0
CIRCLE
  8
0
 62
7
 10
60.1884863382036
 20
-37.3439433576611
 30
0
 40
2
  0
CIRCLE
  8
0
 62
7
 10
60.1884863382036
 20
-24.3743528367332
 30
0
 40
2
  0
CIRCLE
  8
0
 62
7
 10
64.9884863382036
 20
-37.3439433576611
 30
0
 40
2
  0
CIRCLE
  8
0
 62
7
 10
60.1884863382036
 20
-63.1678570986661
 30
0
 40
2
  0
CIRCLE
  8
0
 62
7
 10
64.9884863382036
 20
-24.3743528367332
 30
0
 40
2
  0
CIRCLE
  8
0
 62
7
 10
64.9884863382036
 20
-50.2750897443429
 30
0
 40
2
  0
CIRCLE
  8
0
 62
7
 10
60.1884863382036
 20
-50.2750897443429
 30
0
 40
2
  0
CIRCLE
  8
0
 62
7
 10
64.9884863382036
 20
-63.1678570986661
 30
0
 40
2
  0
CIRCLE
  8
0
 62
7
 10
35.8884863382036
 20
-37.3439433576622
 30
0
 40
2
  0
CIRCLE
  8
0
 62
7
 10
35.8884863382036
 20
-63.1678570986673
 30
0
 40
2
  0
CIRCLE
  8
0
 62
7
 10
40.6884863382036
 20
-63.1678570986673
 30
0
 40
2
  0
CIRCLE
  8
0
 62
7
 10
35.8884863382036
 20
-50.275089744344
 30
0
 40
2
  0
CIRCLE
  8
0
 62
7
 10
40.6884863382036
 20
-37.3439433576622
 30
0
 40
2
  0
CIRCLE
  8
0
 62
7
 10
35.8884863382036
 20
-24.3743528367343
 30
0
 40
2
  0
CIRCLE
  8
0
 62
7
 10
40.6884863382036
 20
-50.275089744344
 30
0
 40
2
  0
CIRCLE
  8
0
 62
7
 10
40.6884863382036
 20
-24.3743528367343
 30
0
 40
2
  0
CIRCLE
  8
0
 62
7
 10
52.8384863382036
 20
-37.3439433576622
 30
0
 40
2
  0
CIRCLE
  8
0
 62
7
 10
52.8384863382036
 20
-50.275089744344
 30
0
 40
2
  0
CIRCLE
  8
0
 62
7
 10
48.0384863382036
 20
-37.3439433576622
 30
0
 40
2
  0
CIRCLE
  8
0
 62
7
 10
52.8384863382036
 20
-63.1678570986673
 30
0
 40
2
  0
CIRCLE
  8
0
 62
7
 10
48.0384863382036
 20
-24.3743528367343
 30
0
 40
2
  0
CIRCLE
  8
0
 62
7
 10
48.0384863382036
 20
-63.1678570986673
 30
0
 40
2
  0
CIRCLE
  8
0
 62
7
 10
52.8384863382036
 20
-24.3743528367343
 30
0
 40
2
  0
CIRCLE
  8
0
 62
7
 10
48.0384863382036
 20
-50.275089744344
 30
0
 40
2
  0
CIRCLE
  8
0
 62
7
 10
145.238486338204
 20
-93.95382538592381
 30
0
 40
2
  0
CIRCLE
  8
0
 62
7
 10
150.038486338204
 20
-93.95382538592381
 30
0
 40
2
  0
CIRCLE
  8
0
 62
7
 10
145.238486338204
 20
-81.15325504790179
 30
0
 40
2
  0
CIRCLE
  8
0
 62
7
 10
150.038486338204
 20
-81.15325504790179
 30
0
 40
2
  0
CIRCLE
  8
0
 62
7
 10
145.238486338204
 20
-37.3439433576611
 30
0
 40
2
  0
CIRCLE
  8
0
 62
7
 10
150.038486338204
 20
-24.3743528367332
 30
0
 40
2
  0
CIRCLE
  8
0
 62
7
 10
150.038486338204
 20
-50.2750897443429
 30
0
 40
2
  0
CIRCLE
  8
0
 62
7
 10
150.038486338204
 20
-63.1678570986661
 30
0
 40
2
  0
CIRCLE
  8
0
 62
7
 10
145.238486338204
 20
-50.2750897443429
 30
0
 40
2
  0
CIRCLE
  8
0
 62
7
 10
145.238486338204
 20
-63.1678570986661
 30
0
 40
2
  0
CIRCLE
  8
0
 62
7
 10
150.038486338204
 20
-37.3439433576611
 30
0
 40
2
  0
CIRCLE
  8
0
 62
7
 10
145.238486338204
 20
-24.3743528367332
 30
0
 40
2
  0
CIRCLE
  8
0
 62
7
 10
125.738486338204
 20
-24.3743528367332
 30
0
 40
2
  0
CIRCLE
  8
0
 62
7
 10
120.938486338204
 20
-50.2750897443429
 30
0
 40
2
  0
CIRCLE
  8
0
 62
7
 10
125.738486338204
 20
-37.3439433576611
 30
0
 40
2
  0
CIRCLE
  8
0
 62
7
 10
125.738486338204
 20
-50.2750897443429
 30
0
 40
2
  0
CIRCLE
  8
0
 62
7
 10
120.938486338204
 20
-24.3743528367332
 30
0
 40
2
  0
CIRCLE
  8
0
 62
7
 10
125.738486338204
 20
-63.1678570986661
 30
0
 40
2
  0
CIRCLE
  8
0
 62
7
 10
120.938486338204
 20
-63.1678570986661
 30
0
 40
2
  0
CIRCLE
  8
0
 62
7
 10
120.938486338204
 20
-37.3439433576611
 30
0
 40
2
  0
CIRCLE
  8
0
 62
7
 10
120.938486338204
 20
-93.95382538592381
 30
0
 40
2
  0
CIRCLE
  8
0
 62
7
 10
125.738486338204
 20
-81.15325504790179
 30
0
 40
2
  0
CIRCLE
  8
0
 62
7
 10
120.938486338204
 20
-81.15325504790179
 30
0
 40
2
  0
CIRCLE
  8
0
 62
7
 10
125.738486338204
 20
-93.95382538592381
 30
0
 40
2
  0
ENDSEC
  0
EOF
