  0
SECTION
  2
HEADER
  9
$ACADVER
  1
AC1009
  9
$INSBASE
 10
0
 20
0
  9
$EXTMIN
 10
-2.948752353404416e-12
 20
-98.596612475629
  9
$EXTMAX
 10
24.30000000000008
 20
42.7000000000001
  9
$LIMMIN
 10
-2.948752353404416e-12
 20
-98.596612475629
  9
$LIMMAX
 10
24.30000000000008
 20
42.7000000000001
  9
$VIEWCTR
 10
10
 20
10
  9
$VIEWSIZE
 40
10
  9
$SNAPMODE
 70
0
  9
$SNAPUNIT
 10
1
 20
1
  9
$SNAPBASE
 10
0
 20
0
  9
$SNAPANG
 50
0
  9
$SNAPSTYLE
 70
0
  9
$SNAPISOPAIR
 70
0
  9
$GRIDMODE
 70
0
  9
$GRIDUNIT
 10
0
 20
0
  9
$ORTHOMODE
 70
0
  9
$REGENMODE
 70
1
  9
$FILLMODE
 70
1
  9
$QTEXTMODE
 70
0
  9
$DRAGMODE
 70
2
  9
$LTSCALE
 40
1
  9
$OSMODE
 70
0
  9
$ATTMODE
 70
1
  9
$TEXTSIZE
 40
3.5
  9
$TRACEWID
 40
0.5
  9
$TEXTSTYLE
  7
STANDARD
  9
$CLAYER
  8
0
  9
$CELTYPE
  6
BYLAYER
  9
$CECOLOR
 62
256
  9
$DIMSCALE
 40
1
  9
$DIMASZ
 40
0.18
  9
$DIMEXO
 40
0.0625
  9
$DIMDLI
 40
0.38
  9
$DIMRND
 40
0
  9
$DIMDLE
 40
0
  9
$DIMEXE
 40
0.18
  9
$DIMTP
 40
0
  9
$DIMTM
 40
0
  9
$DIMTXT
 40
0.18
  9
$DIMCEN
 40
0.09
  9
$DIMTSZ
 40
0
  9
$DIMTOL
 70
0
  9
$DIMLIM
 70
0
  9
$DIMTIH
 70
1
  9
$DIMTOH
 70
1
  9
$DIMSE1
 70
0
  9
$DIMSE2
 70
0
  9
$DIMTAD
 70
0
  9
$DIMZIN
 70
0
  9
$DIMBLK
  1

  9
$DIMASO
 70
1
  9
$DIMSHO
 70
1
  9
$DIMPOST
  1

  9
$DIMAPOST
  1

  9
$DIMALT
 70
0
  9
$DIMALTD
 70
2
  9
$DIMALTF
 40
25.4
  9
$DIMLFAC
 40
1
  9
$DIMTOFL
 70
0
  9
$DIMTVP
 40
0
  9
$DIMTIX
 70
0
  9
$DIMSOXD
 70
0
  9
$DIMSAH
 70
0
  9
$DIMBLK1
  1

  9
$DIMBLK2
  1

  9
$DIMSTYLE
  2
*UNNAMED
  9
$DIMCLRD
 70
0
  9
$DIMCLRE
 70
0
  9
$DIMCLRT
 70
0
  9
$DIMTFAC
 40
1
  9
$DIMGAP
 40
0.09
  9
$LUNITS
 70
2
  9
$LUPREC
 70
4
  9
$AXISMODE
 70
0
  9
$AXISUNIT
 10
0
 20
0
  9
$SKETCHINC
 40
0.1
  9
$FILLETRAD
 40
2
  9
$AUNITS
 70
0
  9
$AUPREC
 70
0
  9
$MENU
  1
ACAD
  9
$ELEVATION
 40
0
  9
$THICKNESS
 40
0
  9
$VIEWDIR
 10
0
 20
0
 30
1
  9
$LIMCHECK
 70
0
  9
$BLIPMODE
 70
1
  9
$CHAMFERA
 40
0
  9
$CHAMFERB
 40
0
  9
$FASTZOOM
 70
1
  9
$SKPOLY
 70
0
  9
$ANGBASE
 50
0
  9
$ANGDIR
 70
0
  9
$PDMODE
 70
0
  9
$PDSIZE
 40
0
  9
$PLINEWID
 40
0
  9
$COORDS
 70
2
  0
ENDSEC
  0
SECTION
  2
TABLES
  0
TABLE
  2
DIMSTYLE
 70
0
  0
ENDTAB
  0
TABLE
  2
LTYPE
 70
9
  0
LTYPE
  2
CONTINUOUS
 70
64
  3
Solid line
 72
65
 73
0
 40
0
  0
LTYPE
  2
BORDER
 70
64
  3
__ __ . __ __ .
 72
65
 73
6
 40
6.507080837693445
 49
1.859165953626699
 49
-0.9295829768133493
 49
1.859165953626699
 49
-0.9295829768133493
 49
0
 49
-0.9295829768133493
  0
LTYPE
  2
CENTER
 70
64
  3
____ _ ____ _
 72
65
 73
4
 40
7.436663814506795
 49
4.647914884066747
 49
-0.9295829768133493
 49
0.9295829768133493
 49
-0.9295829768133493
  0
LTYPE
  2
DASHDOT
 70
64
  3
__ . __ . __ .
 72
65
 73
4
 40
3.718331907253397
 49
1.859165953626699
 49
-0.9295829768133493
 49
0
 49
-0.9295829768133493
  0
LTYPE
  2
DASHED
 70
64
  3
__ __ __ __ __
 72
65
 73
2
 40
2.788748930440048
 49
1.859165953626699
 49
-0.9295829768133493
  0
LTYPE
  2
DIVIDE
 70
64
  3
__ . . __ . . 
 72
65
 73
6
 40
4.647914884066747
 49
1.859165953626699
 49
-0.9295829768133493
 49
0
 49
-0.9295829768133493
 49
0
 49
-0.9295829768133493
  0
LTYPE
  2
DOT
 70
64
  3
..............
 72
65
 73
4
 40
1.859165953626699
 49
0
 49
-0.9295829768133493
 49
0
 49
-0.9295829768133493
  0
LTYPE
  2
HIDDEN
 70
64
  3
_ _ _ _ _ _ _
 72
65
 73
2
 40
1.394374465220024
 49
0.9295829768133493
 49
-0.4647914884066747
  0
LTYPE
  2
PHANTOM
 70
64
  3
_____ _ _ _____ _ _ 
 72
65
 73
6
 40
9.295829768133494
 49
4.647914884066747
 49
-0.9295829768133493
 49
0.9295829768133493
 49
-0.9295829768133493
 49
0.9295829768133493
 49
-0.9295829768133493
  0
ENDTAB
  0
TABLE
  2
LAYER
 70
3
  0
LAYER
  2
0
 70
0
 62
7
  6
CONTINUOUS
  0
LAYER
  2
1
 70
0
 62
7
  6
CONTINUOUS
  0
ENDTAB
  0
TABLE
  2
STYLE
 70
4
  0
STYLE
  2
STANDARD
 70
0
 40
0
 41
1
 50
0
 71
0
 42
3.5
  3
txt
  4

  0
STYLE
  2
SIMPLEX
 70
0
 40
0
 41
1
 50
0
 71
0
 42
3.5
  3
simplex
  4

  0
STYLE
  2
COMPLEX
 70
0
 40
0
 41
1
 50
0
 71
0
 42
3.5
  3
complex
  4

  0
STYLE
  2
ITALIC
 70
0
 40
0
 41
1
 50
0
 71
0
 42
3.5
  3
italic
  4

  0
ENDTAB
  0
TABLE
  2
VIEW
 70
0
  0
ENDTAB
  0
ENDSEC
  0
SECTION
  2
BLOCKS
  0
ENDSEC
  0
SECTION
  2
ENTITIES
  0
LINE
  8
0
 62
7
 10
12.14999999999895
 20
32.058393525752
 30
0
 11
-1.051603248924948e-12
 21
32.058393525752
 31
0
  0
LINE
  8
0
 62
7
 10
10.14999999999895
 20
42.410772743856
 30
0
 11
10.14999999999895
 21
38.234933781807
 31
0
  0
LINE
  8
0
 62
7
 10
-1.051603248924948e-12
 20
39.7000000000001
 30
0
 11
10.14999999999895
 21
39.7000000000001
 31
0
  0
LINE
  8
0
 62
7
 10
-1.051603248924948e-12
 20
38.234933781807
 30
0
 11
12.07499999999894
 21
38.234933781807
 31
0
  0
LINE
  8
0
 62
7
 10
-1.051603248924948e-12
 20
30.634933781807
 30
0
 11
12.14999999999895
 21
30.634933781807
 31
0
  0
LINE
  8
0
 62
7
 10
10.97499999999895
 20
6.126364064267021
 30
0
 11
10.97499999999895
 21
22.373635935731
 31
0
  0
LINE
  8
0
 62
7
 10
-1.051603248924948e-12
 20
24.634933781807
 30
0
 11
12.14999999999895
 21
24.634933781807
 31
0
  0
LINE
  8
0
 62
7
 10
10.47499999999895
 20
22.873635935731
 30
0
 11
1.674999999998953
 21
22.873635935731
 31
0
  0
LINE
  8
0
 62
7
 10
1.674999999998953
 20
5.626364064267021
 30
0
 11
10.47499999999895
 21
5.626364064267021
 31
0
  0
LINE
  8
0
 62
7
 10
1.174999999998946
 20
6.126364064267021
 30
0
 11
1.174999999998946
 21
22.373635935731
 31
0
  0
LINE
  8
0
 62
7
 10
10.07499999999894
 20
38.734933781807
 30
0
 11
10.07499999999894
 21
32.058393525752
 31
0
  0
LINE
  8
0
 62
7
 10
-1.051603248924948e-12
 20
38.734933781807
 30
0
 11
10.07499999999894
 21
38.734933781807
 31
0
  0
LINE
  8
0
 62
7
 10
10.07499999999894
 20
35.064382711513
 30
0
 11
10.27499999999895
 21
35.064382711513
 31
0
  0
LINE
  8
0
 62
7
 10
10.27499999999895
 20
33.60298636579
 30
0
 11
12.07499999999894
 21
33.60298636579
 31
0
  0
LINE
  8
0
 62
7
 10
12.07499999999894
 20
33.60298636579
 30
0
 11
12.07499999999894
 21
38.234933781807
 31
0
  0
LINE
  8
0
 62
7
 10
2.539810857823646
 20
42.410772743856
 30
0
 11
-2.948752353404416e-12
 21
42.410772743856
 31
0
  0
LINE
  8
0
 62
7
 10
3.824999999998944
 20
42.7000000000001
 30
0
 11
6.324999999998944
 21
42.7000000000001
 31
0
  0
LINE
  8
0
 62
7
 10
10.14999999999895
 20
42.410772743856
 30
0
 11
7.61018914217415
 21
42.410772743856
 31
0
  0
LINE
  8
0
 62
7
 10
10.27499999999895
 20
33.60298636579
 30
0
 11
10.27499999999895
 21
35.064382711513
 31
0
  0
LINE
  8
0
 62
7
 10
22.42500000000008
 20
33.60298636579
 30
0
 11
22.42500000000008
 21
35.064382711513
 31
0
  0
LINE
  8
0
 62
7
 10
22.30000000000008
 20
42.410772743856
 30
0
 11
19.76018914217528
 21
42.410772743856
 31
0
  0
LINE
  8
0
 62
7
 10
15.97500000000008
 20
42.7000000000001
 30
0
 11
18.47500000000008
 21
42.7000000000001
 31
0
  0
LINE
  8
0
 62
7
 10
14.68981085782478
 20
42.410772743856
 30
0
 11
12.14999999999818
 21
42.410772743856
 31
0
  0
LINE
  8
0
 62
7
 10
7.105427357601002e-15
 20
-4.27975138371397
 30
0
 11
24.30000000000008
 21
-4.27975138371698
 31
0
  0
LINE
  8
0
 62
7
 10
24.22500000000008
 20
33.60298636579
 30
0
 11
24.22500000000008
 21
38.234933781807
 31
0
  0
LINE
  8
0
 62
7
 10
22.42500000000008
 20
33.60298636579
 30
0
 11
24.22500000000008
 21
33.60298636579
 31
0
  0
LINE
  8
0
 62
7
 10
22.22500000000008
 20
35.064382711513
 30
0
 11
22.42500000000008
 21
35.064382711513
 31
0
  0
LINE
  8
0
 62
7
 10
0
 20
-11.86224926344
 30
0
 11
24.30000000000008
 21
-11.86224926344
 31
0
  0
LINE
  8
0
 62
7
 10
7.105427357601002e-15
 20
-9.69370125499796
 30
0
 11
24.30000000000008
 21
-9.69370125499796
 31
0
  0
LINE
  8
0
 62
7
 10
22.45000000000008
 20
-42.613779242004
 30
0
 11
22.45000000000008
 21
-46.280283236448
 31
0
  0
LINE
  8
0
 62
7
 10
18.80000000000008
 20
-42.613779242004
 30
0
 11
22.45000000000008
 21
-42.613779242004
 31
0
  0
LINE
  8
0
 62
7
 10
18.80000000000008
 20
-42.613779242004
 30
0
 11
18.80000000000008
 21
-46.280283236448
 31
0
  0
LINE
  8
0
 62
7
 10
18.80000000000008
 20
-46.280283236448
 30
0
 11
22.45000000000008
 21
-46.280283236448
 31
0
  0
LINE
  8
0
 62
7
 10
18.80000000000008
 20
-16.668939087262
 30
0
 11
18.80000000000008
 21
-20.053343473265
 31
0
  0
LINE
  8
0
 62
7
 10
18.80000000000008
 20
-16.668939087262
 30
0
 11
22.45000000000008
 21
-16.668939087262
 31
0
  0
LINE
  8
0
 62
7
 10
22.45000000000008
 20
-16.668939087262
 30
0
 11
22.45000000000008
 21
-20.053343473265
 31
0
  0
LINE
  8
0
 62
7
 10
18.80000000000008
 20
-20.053343473265
 30
0
 11
22.45000000000008
 21
-20.053343473265
 31
0
  0
LINE
  8
0
 62
7
 10
14.00000000000008
 20
-42.613779242004
 30
0
 11
14.00000000000008
 21
-46.280283236448
 31
0
  0
LINE
  8
0
 62
7
 10
14.00000000000008
 20
-46.280283236448
 30
0
 11
17.65000000000008
 21
-46.280283236448
 31
0
  0
LINE
  8
0
 62
7
 10
14.00000000000008
 20
-42.613779242004
 30
0
 11
17.65000000000008
 21
-42.613779242004
 31
0
  0
LINE
  8
0
 62
7
 10
17.65000000000008
 20
-42.613779242004
 30
0
 11
17.65000000000008
 21
-46.280283236448
 31
0
  0
LINE
  8
0
 62
7
 10
18.80000000000008
 20
-29.660613245312
 30
0
 11
22.45000000000008
 21
-29.660613245312
 31
0
  0
LINE
  8
0
 62
7
 10
18.80000000000008
 20
-29.660613245312
 30
0
 11
18.80000000000008
 21
-33.22727608616
 31
0
  0
LINE
  8
0
 62
7
 10
22.45000000000008
 20
-29.660613245312
 30
0
 11
22.45000000000008
 21
-33.22727608616
 31
0
  0
LINE
  8
0
 62
7
 10
18.80000000000008
 20
-33.22727608616
 30
0
 11
22.45000000000008
 21
-33.22727608616
 31
0
  0
LINE
  8
0
 62
7
 10
14.00000000000008
 20
-55.528536179272
 30
0
 11
14.00000000000008
 21
-59.214841303491
 31
0
  0
LINE
  8
0
 62
7
 10
14.00000000000008
 20
-55.528536179272
 30
0
 11
17.65000000000008
 21
-55.528536179272
 31
0
  0
LINE
  8
0
 62
7
 10
17.65000000000008
 20
-55.528536179272
 30
0
 11
17.65000000000008
 21
-59.214841303491
 31
0
  0
LINE
  8
0
 62
7
 10
14.00000000000008
 20
-59.214841303491
 30
0
 11
17.65000000000008
 21
-59.214841303491
 31
0
  0
LINE
  8
0
 62
7
 10
14.00000000000008
 20
-29.660613245312
 30
0
 11
14.00000000000008
 21
-33.22727608616
 31
0
  0
LINE
  8
0
 62
7
 10
14.00000000000008
 20
-29.660613245312
 30
0
 11
17.65000000000008
 21
-29.660613245312
 31
0
  0
LINE
  8
0
 62
7
 10
17.65000000000008
 20
-29.660613245312
 30
0
 11
17.65000000000008
 21
-33.22727608616
 31
0
  0
LINE
  8
0
 62
7
 10
14.00000000000008
 20
-33.22727608616
 30
0
 11
17.65000000000008
 21
-33.22727608616
 31
0
  0
LINE
  8
0
 62
7
 10
22.45000000000008
 20
-55.528536179272
 30
0
 11
22.45000000000008
 21
-59.214841303491
 31
0
  0
LINE
  8
0
 62
7
 10
18.80000000000008
 20
-55.528536179272
 30
0
 11
18.80000000000008
 21
-59.214841303491
 31
0
  0
LINE
  8
0
 62
7
 10
18.80000000000008
 20
-59.214841303491
 30
0
 11
22.45000000000008
 21
-59.214841303491
 31
0
  0
LINE
  8
0
 62
7
 10
18.80000000000008
 20
-55.528536179272
 30
0
 11
22.45000000000008
 21
-55.528536179272
 31
0
  0
LINE
  8
0
 62
7
 10
14.00000000000008
 20
-16.668939087262
 30
0
 11
14.00000000000008
 21
-20.053343473265
 31
0
  0
LINE
  8
0
 62
7
 10
17.65000000000008
 20
-16.668939087262
 30
0
 11
17.65000000000008
 21
-20.053343473265
 31
0
  0
LINE
  8
0
 62
7
 10
14.00000000000008
 20
-16.668939087262
 30
0
 11
17.65000000000008
 21
-16.668939087262
 31
0
  0
LINE
  8
0
 62
7
 10
14.00000000000008
 20
-20.053343473265
 30
0
 11
17.65000000000008
 21
-20.053343473265
 31
0
  0
LINE
  8
0
 62
7
 10
12.15000000000008
 20
-66.57031938148501
 30
0
 11
24.30000000000008
 21
-66.57031938148501
 31
0
  0
LINE
  8
0
 62
7
 10
24.30000000000008
 20
0
 30
0
 11
0
 21
0
 31
0
  0
LINE
  8
0
 62
7
 10
12.15000000000008
 20
38.734933781807
 30
0
 11
22.22500000000008
 21
38.734933781807
 31
0
  0
LINE
  8
0
 62
7
 10
22.22500000000008
 20
38.734933781807
 30
0
 11
22.22500000000008
 21
32.058393525752
 31
0
  0
LINE
  8
0
 62
7
 10
12.15000000000008
 20
-72.498065885267
 30
0
 11
24.30000000000008
 21
-72.498065885267
 31
0
  0
LINE
  8
0
 62
7
 10
14.00000000000008
 20
-73.544733394769
 30
0
 11
17.65000000000008
 21
-73.544733394769
 31
0
  0
LINE
  8
0
 62
7
 10
17.65000000000008
 20
-73.544733394769
 30
0
 11
17.65000000000008
 21
-77.128399347681
 31
0
  0
LINE
  8
0
 62
7
 10
22.45000000000008
 20
-73.544733394769
 30
0
 11
22.45000000000008
 21
-77.128399347681
 31
0
  0
LINE
  8
0
 62
7
 10
18.80000000000008
 20
-77.128399347681
 30
0
 11
22.45000000000008
 21
-77.128399347681
 31
0
  0
LINE
  8
0
 62
7
 10
14.00000000000008
 20
-77.128399347681
 30
0
 11
17.65000000000008
 21
-77.128399347681
 31
0
  0
LINE
  8
0
 62
7
 10
18.80000000000008
 20
-73.544733394769
 30
0
 11
18.80000000000008
 21
-77.128399347681
 31
0
  0
LINE
  8
0
 62
7
 10
18.80000000000008
 20
-73.544733394769
 30
0
 11
22.45000000000008
 21
-73.544733394769
 31
0
  0
LINE
  8
0
 62
7
 10
14.00000000000008
 20
-86.367359132304
 30
0
 11
14.00000000000008
 21
-89.787261497649
 31
0
  0
LINE
  8
0
 62
7
 10
14.00000000000008
 20
-89.787261497649
 30
0
 11
17.65000000000008
 21
-89.787261497649
 31
0
  0
LINE
  8
0
 62
7
 10
17.65000000000008
 20
-86.367359132304
 30
0
 11
17.65000000000008
 21
-89.787261497649
 31
0
  0
LINE
  8
0
 62
7
 10
14.00000000000008
 20
-86.367359132304
 30
0
 11
17.65000000000008
 21
-86.367359132304
 31
0
  0
LINE
  8
0
 62
7
 10
18.80000000000008
 20
-86.367359132304
 30
0
 11
18.80000000000008
 21
-89.787261497649
 31
0
  0
LINE
  8
0
 62
7
 10
22.45000000000008
 20
-86.367359132304
 30
0
 11
22.45000000000008
 21
-89.787261497649
 31
0
  0
LINE
  8
0
 62
7
 10
18.80000000000008
 20
-86.367359132304
 30
0
 11
22.45000000000008
 21
-86.367359132304
 31
0
  0
LINE
  8
0
 62
7
 10
18.80000000000008
 20
-89.787261497649
 30
0
 11
22.45000000000008
 21
-89.787261497649
 31
0
  0
LINE
  8
0
 62
7
 10
14.00000000000008
 20
-73.544733394769
 30
0
 11
14.00000000000008
 21
-77.128399347681
 31
0
  0
LINE
  8
0
 62
7
 10
0
 20
-5.74348358292195
 30
0
 11
24.30000000000008
 21
-5.74348358292195
 31
0
  0
LINE
  8
0
 62
7
 10
13.32500000000007
 20
6.126364064267021
 30
0
 11
13.32500000000007
 21
22.373635935731
 31
0
  0
LINE
  8
0
 62
7
 10
13.82500000000008
 20
5.626364064267021
 30
0
 11
22.62500000000008
 21
5.626364064267021
 31
0
  0
LINE
  8
0
 62
7
 10
22.62500000000008
 20
22.873635935731
 30
0
 11
13.82500000000008
 21
22.873635935731
 31
0
  0
LINE
  8
0
 62
7
 10
12.15000000000008
 20
24.634933781807
 30
0
 11
24.30000000000008
 21
24.634933781807
 31
0
  0
LINE
  8
0
 62
7
 10
23.12500000000008
 20
6.126364064267021
 30
0
 11
23.12500000000008
 21
22.373635935731
 31
0
  0
LINE
  8
0
 62
7
 10
24.30000000000008
 20
-98.596612475629
 30
0
 11
12.15000000000008
 21
-98.596612475629
 31
0
  0
LINE
  8
0
 62
7
 10
12.15000000000008
 20
30.634933781807
 30
0
 11
24.30000000000008
 21
30.634933781807
 31
0
  0
LINE
  8
0
 62
7
 10
12.15000000000008
 20
38.234933781807
 30
0
 11
24.22500000000008
 21
38.234933781807
 31
0
  0
LINE
  8
0
 62
7
 10
12.15000000000008
 20
39.7000000000001
 30
0
 11
22.30000000000008
 21
39.7000000000001
 31
0
  0
LINE
  8
0
 62
7
 10
22.30000000000008
 20
42.410772743856
 30
0
 11
22.30000000000008
 21
38.234933781807
 31
0
  0
LINE
  8
0
 62
7
 10
24.30000000000008
 20
32.058393525752
 30
0
 11
12.15000000000008
 21
32.058393525752
 31
0
  0
LINE
  8
0
 62
7
 10
12.15000000000008
 20
-98.596612475629
 30
0
 11
12.14999999999818
 21
42.410772743856
 31
0
  0
LINE
  8
0
 62
7
 10
24.30000000000008
 20
-98.596612475629
 30
0
 11
24.30000000000008
 21
32.058393525752
 31
0
  0
LINE
  8
0
 62
7
 10
0
 20
42.7000000000001
 30
0
 11
0
 21
-93.506579862885
 31
0
  0
LINE
  8
0
 62
7
 10
1.850000000000009
 20
-46.280283236448
 30
0
 11
5.500000000000007
 21
-46.280283236448
 31
0
  0
LINE
  8
0
 62
7
 10
1.850000000000009
 20
-42.613779242004
 30
0
 11
1.850000000000009
 21
-46.280283236448
 31
0
  0
LINE
  8
0
 62
7
 10
5.500000000000007
 20
-29.660613245312
 30
0
 11
5.500000000000007
 21
-33.22727608616
 31
0
  0
LINE
  8
0
 62
7
 10
1.850000000000009
 20
-29.660613245312
 30
0
 11
5.500000000000007
 21
-29.660613245312
 31
0
  0
LINE
  8
0
 62
7
 10
1.850000000000009
 20
-29.660613245312
 30
0
 11
1.850000000000009
 21
-33.22727608616
 31
0
  0
LINE
  8
0
 62
7
 10
1.850000000000009
 20
-33.22727608616
 30
0
 11
5.500000000000007
 21
-33.22727608616
 31
0
  0
LINE
  8
0
 62
7
 10
5.500000000000007
 20
-42.613779242004
 30
0
 11
5.500000000000007
 21
-46.280283236448
 31
0
  0
LINE
  8
0
 62
7
 10
1.850000000000009
 20
-42.613779242004
 30
0
 11
5.500000000000007
 21
-42.613779242004
 31
0
  0
LINE
  8
0
 62
7
 10
1.850000000000009
 20
-59.21484130349
 30
0
 11
5.500000000000007
 21
-59.21484130349
 31
0
  0
LINE
  8
0
 62
7
 10
5.500000000000007
 20
-55.528536179272
 30
0
 11
5.500000000000007
 21
-59.21484130349
 31
0
  0
LINE
  8
0
 62
7
 10
1.850000000000009
 20
-55.528536179272
 30
0
 11
1.850000000000009
 21
-59.21484130349
 31
0
  0
LINE
  8
0
 62
7
 10
1.850000000000009
 20
-55.528536179272
 30
0
 11
5.500000000000007
 21
-55.528536179272
 31
0
  0
LINE
  8
0
 62
7
 10
5.500000000000007
 20
-16.668939087262
 30
0
 11
5.500000000000007
 21
-20.053343473265
 31
0
  0
LINE
  8
0
 62
7
 10
1.850000000000009
 20
-16.668939087262
 30
0
 11
5.500000000000007
 21
-16.668939087262
 31
0
  0
LINE
  8
0
 62
7
 10
1.850000000000009
 20
-20.053343473265
 30
0
 11
5.500000000000007
 21
-20.053343473265
 31
0
  0
LINE
  8
0
 62
7
 10
1.850000000000009
 20
-16.668939087262
 30
0
 11
1.850000000000009
 21
-20.053343473265
 31
0
  0
LINE
  8
0
 62
7
 10
0
 20
-59.553809380807
 30
0
 11
12.15000000000001
 21
-59.553809380807
 31
0
  0
LINE
  8
0
 62
7
 10
6.650000000000006
 20
-46.280283236448
 30
0
 11
10.3
 21
-46.280283236448
 31
0
  0
LINE
  8
0
 62
7
 10
10.3
 20
-42.613779242004
 30
0
 11
10.3
 21
-46.280283236448
 31
0
  0
LINE
  8
0
 62
7
 10
6.650000000000006
 20
-42.613779242004
 30
0
 11
10.3
 21
-42.613779242004
 31
0
  0
LINE
  8
0
 62
7
 10
6.650000000000006
 20
-42.613779242004
 30
0
 11
6.650000000000006
 21
-46.280283236448
 31
0
  0
LINE
  8
0
 62
7
 10
6.650000000000006
 20
-55.528536179272
 30
0
 11
6.650000000000006
 21
-59.21484130349
 31
0
  0
LINE
  8
0
 62
7
 10
6.650000000000006
 20
-59.21484130349
 30
0
 11
10.3
 21
-59.21484130349
 31
0
  0
LINE
  8
0
 62
7
 10
6.650000000000006
 20
-55.528536179272
 30
0
 11
10.3
 21
-55.528536179272
 31
0
  0
LINE
  8
0
 62
7
 10
10.3
 20
-55.528536179272
 30
0
 11
10.3
 21
-59.21484130349
 31
0
  0
LINE
  8
0
 62
7
 10
6.650000000000006
 20
-29.660613245312
 30
0
 11
10.3
 21
-29.660613245312
 31
0
  0
LINE
  8
0
 62
7
 10
6.650000000000006
 20
-29.660613245312
 30
0
 11
6.650000000000006
 21
-33.22727608616
 31
0
  0
LINE
  8
0
 62
7
 10
6.650000000000006
 20
-33.22727608616
 30
0
 11
10.3
 21
-33.22727608616
 31
0
  0
LINE
  8
0
 62
7
 10
10.3
 20
-29.660613245312
 30
0
 11
10.3
 21
-33.22727608616
 31
0
  0
LINE
  8
0
 62
7
 10
10.3
 20
-16.668939087262
 30
0
 11
10.3
 21
-20.053343473265
 31
0
  0
LINE
  8
0
 62
7
 10
6.650000000000006
 20
-16.668939087262
 30
0
 11
6.650000000000006
 21
-20.053343473265
 31
0
  0
LINE
  8
0
 62
7
 10
6.650000000000006
 20
-16.668939087262
 30
0
 11
10.3
 21
-16.668939087262
 31
0
  0
LINE
  8
0
 62
7
 10
6.650000000000006
 20
-20.053343473265
 30
0
 11
10.3
 21
-20.053343473265
 31
0
  0
LINE
  8
0
 62
7
 10
10.97500000000001
 20
22.873635935731
 30
0
 11
1.675000000000004
 21
22.873635935731
 31
0
  0
LINE
  8
0
 62
7
 10
1.175000000000004
 20
6.126364064267019
 30
0
 11
1.175000000000004
 21
22.373635935731
 31
0
  0
LINE
  8
0
 62
7
 10
1.675000000000004
 20
5.626364064267019
 30
0
 11
10.47500000000001
 21
5.626364064267019
 31
0
  0
LINE
  8
0
 62
7
 10
10.97500000000001
 20
6.126364064267019
 30
0
 11
10.97500000000001
 21
22.873635935731
 31
0
  0
LINE
  8
0
 62
7
 10
0
 20
-93.506579862885
 30
0
 11
12.15000000000001
 21
-93.506579862885
 31
0
  0
ARC
  8
0
 62
7
 10
6.324999999998944
 20
39.7000000000001
 30
0
 40
3
 50
0
 51
90
  0
ARC
  8
0
 62
7
 10
3.824999999998944
 20
39.7000000000001
 30
0
 40
3
 50
90
 51
180
  0
ARC
  8
1
 62
7
 10
10.47499999999895
 20
22.373635935731
 30
0
 40
0.5
 50
0
 51
90
  0
ARC
  8
1
 62
7
 10
1.674999999998953
 20
22.373635935731
 30
0
 40
0.5
 50
90
 51
180
  0
ARC
  8
1
 62
7
 10
1.674999999998953
 20
6.126364064267021
 30
0
 40
0.5000000000000071
 50
180
 51
270
  0
ARC
  8
1
 62
7
 10
10.47499999999895
 20
6.126364064267021
 30
0
 40
0.5
 50
270
 51
0
  0
ARC
  8
1
 62
7
 10
22.62500000000008
 20
6.126364064267021
 30
0
 40
0.5
 50
270
 51
0
  0
ARC
  8
1
 62
7
 10
13.82500000000008
 20
6.126364064267021
 30
0
 40
0.5000000000000089
 50
180
 51
270
  0
ARC
  8
1
 62
7
 10
13.82500000000008
 20
22.373635935731
 30
0
 40
0.5
 50
90
 51
180
  0
ARC
  8
1
 62
7
 10
22.62500000000008
 20
22.373635935731
 30
0
 40
0.5
 50
0
 51
90
  0
ARC
  8
0
 62
7
 10
15.97500000000008
 20
39.7000000000001
 30
0
 40
3
 50
90
 51
180
  0
ARC
  8
0
 62
7
 10
18.47500000000008
 20
39.7000000000001
 30
0
 40
3
 50
0
 51
90
  0
ARC
  8
1
 62
7
 10
1.675000000000004
 20
6.126364064267019
 30
0
 40
0.5
 50
180
 51
270
  0
ARC
  8
1
 62
7
 10
1.675000000000004
 20
22.373635935731
 30
0
 40
0.5
 50
90
 51
180
  0
ARC
  8
1
 62
7
 10
10.47500000000001
 20
6.126364064267019
 30
0
 40
0.5
 50
270
 51
0
  0
CIRCLE
  8
0
 62
7
 10
20.62500000000008
 20
-37.088448308088
 30
0
 40
2
  0
CIRCLE
  8
0
 62
7
 10
20.62500000000008
 20
-24.11885778716
 30
0
 40
2
  0
CIRCLE
  8
0
 62
7
 10
15.82500000000008
 20
-24.11885778716
 30
0
 40
2.000000000000002
  0
CIRCLE
  8
0
 62
7
 10
20.62500000000008
 20
-62.912362049093
 30
0
 40
2
  0
CIRCLE
  8
0
 62
7
 10
15.82500000000008
 20
-50.01959469477
 30
0
 40
2.000000000000002
  0
CIRCLE
  8
0
 62
7
 10
15.82500000000008
 20
-62.912362049093
 30
0
 40
2.000000000000002
  0
CIRCLE
  8
0
 62
7
 10
20.62500000000008
 20
-50.01959469477
 30
0
 40
2
  0
CIRCLE
  8
0
 62
7
 10
15.82500000000008
 20
-37.088448308088
 30
0
 40
2.000000000000002
  0
CIRCLE
  8
0
 62
7
 10
15.82500000000008
 20
-93.69833033635
 30
0
 40
2.000000000000002
  0
CIRCLE
  8
0
 62
7
 10
20.62500000000008
 20
-80.897759998328
 30
0
 40
2
  0
CIRCLE
  8
0
 62
7
 10
15.82500000000008
 20
-80.897759998328
 30
0
 40
2.000000000000002
  0
CIRCLE
  8
0
 62
7
 10
20.62500000000008
 20
-93.69833033635
 30
0
 40
2
  0
CIRCLE
  8
0
 62
7
 10
3.675000000000004
 20
-37.088448308088
 30
0
 40
2
  0
CIRCLE
  8
0
 62
7
 10
3.675000000000004
 20
-50.0195946947689
 30
0
 40
2
  0
CIRCLE
  8
0
 62
7
 10
3.675000000000004
 20
-24.11885778716
 30
0
 40
2
  0
CIRCLE
  8
0
 62
7
 10
8.475000000000009
 20
-37.088448308088
 30
0
 40
2.000000000000002
  0
CIRCLE
  8
0
 62
7
 10
8.475000000000009
 20
-50.0195946947689
 30
0
 40
2.000000000000002
  0
CIRCLE
  8
0
 62
7
 10
8.475000000000009
 20
-24.11885778716
 30
0
 40
2.000000000000002
  0
ENDSEC
  0
EOF
