  0
SECTION
  2
HEADER
  9
$ACADVER
  1
AC1009
  9
$INSBASE
 10
0
 20
0
  9
$EXTMIN
 10
0
 20
-77.4107727438612
  9
$EXTMAX
 10
85.0500000000001
 20
42.7000000000002
  9
$LIMMIN
 10
0
 20
-77.4107727438612
  9
$LIMMAX
 10
85.0500000000001
 20
42.7000000000002
  9
$VIEWCTR
 10
10
 20
10
  9
$VIEWSIZE
 40
10
  9
$SNAPMODE
 70
0
  9
$SNAPUNIT
 10
1
 20
1
  9
$SNAPBASE
 10
0
 20
0
  9
$SNAPANG
 50
0
  9
$SNAPSTYLE
 70
0
  9
$SNAPISOPAIR
 70
0
  9
$GRIDMODE
 70
0
  9
$GRIDUNIT
 10
0
 20
0
  9
$ORTHOMODE
 70
0
  9
$REGENMODE
 70
1
  9
$FILLMODE
 70
1
  9
$QTEXTMODE
 70
0
  9
$DRAGMODE
 70
2
  9
$LTSCALE
 40
1
  9
$OSMODE
 70
0
  9
$ATTMODE
 70
1
  9
$TEXTSIZE
 40
3.5
  9
$TRACEWID
 40
0.5
  9
$TEXTSTYLE
  7
STANDARD
  9
$CLAYER
  8
0
  9
$CELTYPE
  6
BYLAYER
  9
$CECOLOR
 62
256
  9
$DIMSCALE
 40
1
  9
$DIMASZ
 40
0.18
  9
$DIMEXO
 40
0.0625
  9
$DIMDLI
 40
0.38
  9
$DIMRND
 40
0
  9
$DIMDLE
 40
0
  9
$DIMEXE
 40
0.18
  9
$DIMTP
 40
0
  9
$DIMTM
 40
0
  9
$DIMTXT
 40
0.18
  9
$DIMCEN
 40
0.09
  9
$DIMTSZ
 40
0
  9
$DIMTOL
 70
0
  9
$DIMLIM
 70
0
  9
$DIMTIH
 70
1
  9
$DIMTOH
 70
1
  9
$DIMSE1
 70
0
  9
$DIMSE2
 70
0
  9
$DIMTAD
 70
0
  9
$DIMZIN
 70
0
  9
$DIMBLK
  1

  9
$DIMASO
 70
1
  9
$DIMSHO
 70
1
  9
$DIMPOST
  1

  9
$DIMAPOST
  1

  9
$DIMALT
 70
0
  9
$DIMALTD
 70
2
  9
$DIMALTF
 40
25.4
  9
$DIMLFAC
 40
1
  9
$DIMTOFL
 70
0
  9
$DIMTVP
 40
0
  9
$DIMTIX
 70
0
  9
$DIMSOXD
 70
0
  9
$DIMSAH
 70
0
  9
$DIMBLK1
  1

  9
$DIMBLK2
  1

  9
$DIMSTYLE
  2
*UNNAMED
  9
$DIMCLRD
 70
0
  9
$DIMCLRE
 70
0
  9
$DIMCLRT
 70
0
  9
$DIMTFAC
 40
1
  9
$DIMGAP
 40
0.09
  9
$LUNITS
 70
2
  9
$LUPREC
 70
4
  9
$AXISMODE
 70
0
  9
$AXISUNIT
 10
0
 20
0
  9
$SKETCHINC
 40
0.1
  9
$FILLETRAD
 40
2
  9
$AUNITS
 70
0
  9
$AUPREC
 70
0
  9
$MENU
  1
ACAD
  9
$ELEVATION
 40
0
  9
$THICKNESS
 40
0
  9
$VIEWDIR
 10
0
 20
0
 30
1
  9
$LIMCHECK
 70
0
  9
$BLIPMODE
 70
1
  9
$CHAMFERA
 40
0
  9
$CHAMFERB
 40
0
  9
$FASTZOOM
 70
1
  9
$SKPOLY
 70
0
  9
$ANGBASE
 50
0
  9
$ANGDIR
 70
0
  9
$PDMODE
 70
0
  9
$PDSIZE
 40
0
  9
$PLINEWID
 40
0
  9
$COORDS
 70
2
  0
ENDSEC
  0
SECTION
  2
TABLES
  0
TABLE
  2
DIMSTYLE
 70
0
  0
ENDTAB
  0
TABLE
  2
LTYPE
 70
9
  0
LTYPE
  2
CONTINUOUS
 70
64
  3
Solid line
 72
65
 73
0
 40
0
  0
LTYPE
  2
BORDER
 70
64
  3
__ __ . __ __ .
 72
65
 73
6
 40
5.531417165835722
 49
1.580404904524492
 49
-0.7902024522622461
 49
1.580404904524492
 49
-0.7902024522622461
 49
0
 49
-0.7902024522622461
  0
LTYPE
  2
CENTER
 70
64
  3
____ _ ____ _
 72
65
 73
4
 40
6.321619618097968
 49
3.95101226131123
 49
-0.7902024522622461
 49
0.7902024522622461
 49
-0.7902024522622461
  0
LTYPE
  2
DASHDOT
 70
64
  3
__ . __ . __ .
 72
65
 73
4
 40
3.160809809048984
 49
1.580404904524492
 49
-0.7902024522622461
 49
0
 49
-0.7902024522622461
  0
LTYPE
  2
DASHED
 70
64
  3
__ __ __ __ __
 72
65
 73
2
 40
2.370607356786738
 49
1.580404904524492
 49
-0.7902024522622461
  0
LTYPE
  2
DIVIDE
 70
64
  3
__ . . __ . . 
 72
65
 73
6
 40
3.95101226131123
 49
1.580404904524492
 49
-0.7902024522622461
 49
0
 49
-0.7902024522622461
 49
0
 49
-0.7902024522622461
  0
LTYPE
  2
DOT
 70
64
  3
..............
 72
65
 73
4
 40
1.580404904524492
 49
0
 49
-0.7902024522622461
 49
0
 49
-0.7902024522622461
  0
LTYPE
  2
HIDDEN
 70
64
  3
_ _ _ _ _ _ _
 72
65
 73
2
 40
1.185303678393369
 49
0.7902024522622461
 49
-0.395101226131123
  0
LTYPE
  2
PHANTOM
 70
64
  3
_____ _ _ _____ _ _ 
 72
65
 73
6
 40
7.902024522622461
 49
3.95101226131123
 49
-0.7902024522622461
 49
0.7902024522622461
 49
-0.7902024522622461
 49
0.7902024522622461
 49
-0.7902024522622461
  0
ENDTAB
  0
TABLE
  2
LAYER
 70
3
  0
LAYER
  2
0
 70
0
 62
7
  6
CONTINUOUS
  0
LAYER
  2
1
 70
0
 62
7
  6
CONTINUOUS
  0
ENDTAB
  0
TABLE
  2
STYLE
 70
4
  0
STYLE
  2
STANDARD
 70
0
 40
0
 41
1
 50
0
 71
0
 42
3.5
  3
txt
  4

  0
STYLE
  2
SIMPLEX
 70
0
 40
0
 41
1
 50
0
 71
0
 42
3.5
  3
simplex
  4

  0
STYLE
  2
COMPLEX
 70
0
 40
0
 41
1
 50
0
 71
0
 42
3.5
  3
complex
  4

  0
STYLE
  2
ITALIC
 70
0
 40
0
 41
1
 50
0
 71
0
 42
3.5
  3
italic
  4

  0
ENDTAB
  0
TABLE
  2
VIEW
 70
0
  0
ENDTAB
  0
ENDSEC
  0
SECTION
  2
BLOCKS
  0
ENDSEC
  0
SECTION
  2
ENTITIES
  0
LINE
  8
0
 62
7
 10
83.8750000000001
 20
6.12636406426702
 30
0
 11
83.8750000000001
 21
22.373635935731
 31
0
  0
LINE
  8
0
 62
7
 10
75.4398108578248
 20
42.410772743856
 30
0
 11
72.90000000000011
 21
42.410772743856
 31
0
  0
LINE
  8
0
 62
7
 10
76.72500000000009
 20
42.7000000000002
 30
0
 11
79.22500000000009
 21
42.7000000000002
 31
0
  0
LINE
  8
0
 62
7
 10
85.0500000000001
 20
-77.410772743857
 30
0
 11
80.2250000000012
 21
-77.41077274385199
 31
0
  0
LINE
  8
0
 62
7
 10
80.2250000000012
 20
-77.41077274385199
 30
0
 11
77.7250000000012
 21
-77.41077274385199
 31
0
  0
LINE
  8
0
 62
7
 10
77.7250000000012
 20
-77.41077274385199
 30
0
 11
72.90000000000011
 21
-77.410772743857
 31
0
  0
LINE
  8
0
 62
7
 10
85.0500000000001
 20
0
 30
0
 11
72.90000000000011
 21
0
 31
0
  0
LINE
  8
0
 62
7
 10
79.5500000000001
 20
-16.668939087262
 30
0
 11
79.5500000000001
 21
-20.053343473265
 31
0
  0
LINE
  8
0
 62
7
 10
74.7500000000001
 20
-20.053343473265
 30
0
 11
78.40000000000011
 21
-20.053343473265
 31
0
  0
LINE
  8
0
 62
7
 10
78.40000000000011
 20
-16.668939087262
 30
0
 11
78.40000000000011
 21
-20.053343473265
 31
0
  0
LINE
  8
0
 62
7
 10
74.7500000000001
 20
-16.668939087262
 30
0
 11
78.40000000000011
 21
-16.668939087262
 31
0
  0
LINE
  8
0
 62
7
 10
74.7500000000001
 20
-16.668939087262
 30
0
 11
74.7500000000001
 21
-20.053343473265
 31
0
  0
LINE
  8
0
 62
7
 10
74.7500000000001
 20
-29.660613245312
 30
0
 11
74.7500000000001
 21
-33.22727608616
 31
0
  0
LINE
  8
0
 62
7
 10
74.7500000000001
 20
-33.22727608616
 30
0
 11
78.40000000000011
 21
-33.22727608616
 31
0
  0
LINE
  8
0
 62
7
 10
74.7500000000001
 20
-29.660613245312
 30
0
 11
78.40000000000011
 21
-29.660613245312
 31
0
  0
LINE
  8
0
 62
7
 10
78.40000000000011
 20
-29.660613245312
 30
0
 11
78.40000000000011
 21
-33.22727608616
 31
0
  0
LINE
  8
0
 62
7
 10
79.5500000000001
 20
-29.660613245312
 30
0
 11
79.5500000000001
 21
-33.22727608616
 31
0
  0
LINE
  8
0
 62
7
 10
72.90000000000011
 20
-9.693701254997899
 30
0
 11
85.0500000000001
 21
-9.693701254997899
 31
0
  0
LINE
  8
0
 62
7
 10
72.90000000000011
 20
-72.498065885267
 30
0
 11
85.0500000000001
 21
-72.498065885267
 31
0
  0
LINE
  8
0
 62
7
 10
72.90000000000011
 20
-66.57031938148501
 30
0
 11
85.0500000000001
 21
-66.57031938148501
 31
0
  0
LINE
  8
0
 62
7
 10
84.97500000000009
 20
33.602986365791
 30
0
 11
84.97500000000009
 21
38.2349337818069
 31
0
  0
LINE
  8
0
 62
7
 10
72.90000000000011
 20
24.634933781807
 30
0
 11
85.0500000000001
 21
24.634933781807
 31
0
  0
LINE
  8
0
 62
7
 10
83.3750000000001
 20
22.873635935731
 30
0
 11
74.5750000000001
 21
22.873635935731
 31
0
  0
LINE
  8
0
 62
7
 10
74.5750000000001
 20
5.62636406426702
 30
0
 11
83.3750000000001
 21
5.62636406426702
 31
0
  0
LINE
  8
0
 62
7
 10
74.0750000000001
 20
6.12636406426702
 30
0
 11
74.0750000000001
 21
22.373635935731
 31
0
  0
LINE
  8
0
 62
7
 10
82.97500000000009
 20
35.064382711513
 30
0
 11
83.1750000000001
 21
35.064382711513
 31
0
  0
LINE
  8
0
 62
7
 10
83.1750000000001
 20
33.602986365791
 30
0
 11
84.97500000000009
 21
33.602986365791
 31
0
  0
LINE
  8
0
 62
7
 10
72.90000000000011
 20
30.634933781807
 30
0
 11
85.0500000000001
 21
30.634933781807
 31
0
  0
LINE
  8
0
 62
7
 10
72.90000000000011
 20
-4.27975138371391
 30
0
 11
85.0500000000001
 21
-4.27975138371698
 31
0
  0
LINE
  8
0
 62
7
 10
72.90000000000011
 20
-5.74348358292195
 30
0
 11
85.0500000000001
 21
-5.74348358292195
 31
0
  0
LINE
  8
0
 62
7
 10
79.5500000000001
 20
-55.528536179272
 30
0
 11
79.5500000000001
 21
-59.2148413034899
 31
0
  0
LINE
  8
0
 62
7
 10
79.5500000000001
 20
-55.528536179272
 30
0
 11
83.2000000000001
 21
-55.528536179272
 31
0
  0
LINE
  8
0
 62
7
 10
83.2000000000001
 20
-55.528536179272
 30
0
 11
83.2000000000001
 21
-59.2148413034899
 31
0
  0
LINE
  8
0
 62
7
 10
79.5500000000001
 20
-42.6137792420039
 30
0
 11
79.5500000000001
 21
-46.280283236448
 31
0
  0
LINE
  8
0
 62
7
 10
79.5500000000001
 20
-42.6137792420039
 30
0
 11
83.2000000000001
 21
-42.6137792420039
 31
0
  0
LINE
  8
0
 62
7
 10
83.2000000000001
 20
-42.6137792420039
 30
0
 11
83.2000000000001
 21
-46.280283236448
 31
0
  0
LINE
  8
0
 62
7
 10
79.5500000000001
 20
-59.2148413034899
 30
0
 11
83.2000000000001
 21
-59.2148413034899
 31
0
  0
LINE
  8
0
 62
7
 10
79.5500000000001
 20
-46.280283236448
 30
0
 11
83.2000000000001
 21
-46.280283236448
 31
0
  0
LINE
  8
0
 62
7
 10
79.5500000000001
 20
-33.22727608616
 30
0
 11
83.2000000000001
 21
-33.22727608616
 31
0
  0
LINE
  8
0
 62
7
 10
83.2000000000001
 20
-29.660613245312
 30
0
 11
83.2000000000001
 21
-33.22727608616
 31
0
  0
LINE
  8
0
 62
7
 10
85.0500000000001
 20
-73.658416547079
 30
0
 11
72.90000000000011
 21
-73.658416547079
 31
0
  0
LINE
  8
0
 62
7
 10
74.7500000000001
 20
-42.6137792420039
 30
0
 11
78.40000000000011
 21
-42.6137792420039
 31
0
  0
LINE
  8
0
 62
7
 10
74.7500000000001
 20
-42.6137792420039
 30
0
 11
74.7500000000001
 21
-46.280283236448
 31
0
  0
LINE
  8
0
 62
7
 10
74.7500000000001
 20
-46.280283236448
 30
0
 11
78.40000000000011
 21
-46.280283236448
 31
0
  0
LINE
  8
0
 62
7
 10
78.40000000000011
 20
-42.6137792420039
 30
0
 11
78.40000000000011
 21
-46.280283236448
 31
0
  0
LINE
  8
0
 62
7
 10
74.7500000000001
 20
-55.528536179272
 30
0
 11
74.7500000000001
 21
-59.2148413034899
 31
0
  0
LINE
  8
0
 62
7
 10
74.7500000000001
 20
-55.528536179272
 30
0
 11
78.40000000000011
 21
-55.528536179272
 31
0
  0
LINE
  8
0
 62
7
 10
78.40000000000011
 20
-55.528536179272
 30
0
 11
78.40000000000011
 21
-59.2148413034899
 31
0
  0
LINE
  8
0
 62
7
 10
74.7500000000001
 20
-59.2148413034899
 30
0
 11
78.40000000000011
 21
-59.2148413034899
 31
0
  0
LINE
  8
0
 62
7
 10
82.97500000000009
 20
38.7349337818069
 30
0
 11
72.90000000000011
 21
38.7349337818069
 31
0
  0
LINE
  8
0
 62
7
 10
79.5500000000001
 20
-16.668939087262
 30
0
 11
83.2000000000001
 21
-16.668939087262
 31
0
  0
LINE
  8
0
 62
7
 10
79.5500000000001
 20
-20.053343473265
 30
0
 11
83.2000000000001
 21
-20.053343473265
 31
0
  0
LINE
  8
0
 62
7
 10
83.2000000000001
 20
-16.668939087262
 30
0
 11
83.2000000000001
 21
-20.053343473265
 31
0
  0
LINE
  8
0
 62
7
 10
79.5500000000001
 20
-29.660613245312
 30
0
 11
83.2000000000001
 21
-29.660613245312
 31
0
  0
LINE
  8
0
 62
7
 10
72.90000000000011
 20
-11.8622492634401
 30
0
 11
85.0500000000001
 21
-11.8622492634401
 31
0
  0
LINE
  8
0
 62
7
 10
83.0500000000001
 20
42.410772743856
 30
0
 11
80.5101891421763
 21
42.410772743856
 31
0
  0
LINE
  8
0
 62
7
 10
83.1750000000001
 20
33.602986365791
 30
0
 11
83.1750000000001
 21
35.064382711513
 31
0
  0
LINE
  8
0
 62
7
 10
72.90000000000011
 20
39.7000000000002
 30
0
 11
83.0500000000001
 21
39.7000000000002
 31
0
  0
LINE
  8
0
 62
7
 10
83.0500000000001
 20
42.410772743856
 30
0
 11
83.0500000000001
 21
38.2349337818069
 31
0
  0
LINE
  8
0
 62
7
 10
85.0500000000001
 20
-74.410772743857
 30
0
 11
72.90000000000011
 21
-74.410772743857
 31
0
  0
LINE
  8
0
 62
7
 10
85.0500000000001
 20
32.058393525752
 30
0
 11
72.90000000000011
 21
32.058393525752
 31
0
  0
LINE
  8
0
 62
7
 10
72.90000000000011
 20
38.2349337818069
 30
0
 11
84.97500000000009
 21
38.2349337818069
 31
0
  0
LINE
  8
0
 62
7
 10
82.97500000000009
 20
32.058393525752
 30
0
 11
82.97500000000009
 21
38.7349337818069
 31
0
  0
LINE
  8
0
 62
7
 10
72.90000000000011
 20
-77.410772743857
 30
0
 11
72.90000000000011
 21
42.410772743856
 31
0
  0
LINE
  8
0
 62
7
 10
85.0500000000001
 20
32.058393525752
 30
0
 11
85.0500000000001
 21
-77.410772743857
 31
0
  0
LINE
  8
0
 62
7
 10
0
 20
42.4107727438516
 30
0
 11
0
 21
-77.4107727438612
 31
0
  0
LINE
  8
0
 62
7
 10
3.5527136788005e-14
 20
-75.8941551620788
 30
0
 11
72.90000000000011
 21
-75.8941551620788
 31
0
  0
LINE
  8
0
 62
7
 10
70.9000000058779
 20
41.893112893567
 30
0
 11
24.3
 21
41.893112893567
 31
0
  0
LINE
  8
0
 62
7
 10
24.3
 20
-73.6584165470836
 30
0
 11
72.90000000000011
 21
-73.658416547079
 31
0
  0
LINE
  8
0
 62
7
 10
24.3
 20
30.6349337818026
 30
0
 11
72.90000000000011
 21
30.634933781807
 31
0
  0
LINE
  8
0
 62
7
 10
24.3
 20
24.6349337818026
 30
0
 11
72.90000000000011
 21
24.634933781807
 31
0
  0
LINE
  8
0
 62
7
 10
72.90000000000011
 20
33.5349337818026
 30
0
 11
70.90000000000001
 21
33.5349337818026
 31
0
  0
LINE
  8
0
 62
7
 10
24.3
 20
-11.8622492634468
 30
0
 11
72.90000000000011
 21
-11.8622492634401
 31
0
  0
LINE
  8
0
 62
7
 10
70.9000000058779
 20
38.2349337818027
 30
0
 11
24.3
 21
38.2349337818027
 31
0
  0
LINE
  8
0
 62
7
 10
24.3
 20
38.7499999999945
 30
0
 11
70.9000000058779
 21
38.7499999999945
 31
0
  0
LINE
  8
0
 62
7
 10
24.3
 20
41.893112893567
 30
0
 11
24.3
 21
-73.6584165470836
 31
0
  0
LINE
  8
0
 62
7
 10
0
 20
42.4107727438516
 30
0
 11
70.90000000000001
 21
42.4107727438516
 31
0
  0
LINE
  8
0
 62
7
 10
70.90000000000001
 20
42.4107727438516
 30
0
 11
70.90000000000001
 21
42.4088691870153
 31
0
  0
LINE
  8
0
 62
7
 10
0
 20
-77.4107727438612
 30
0
 11
72.89999999841601
 21
-77.410772743857
 31
0
  0
LINE
  8
0
 62
7
 10
70.90000000000001
 20
33.5349337818026
 30
0
 11
70.90000000000001
 21
42.4088691870153
 31
0
  0
LINE
  8
0
 62
7
 10
24.3
 20
41.893112893567
 30
0
 11
3.5527136788005e-14
 21
41.893112893567
 31
0
  0
ARC
  8
1
 62
7
 10
74.5750000000001
 20
22.373635935731
 30
0
 40
0.5
 50
90
 51
180
  0
ARC
  8
1
 62
7
 10
74.5750000000001
 20
6.12636406426702
 30
0
 40
0.5
 50
180
 51
270
  0
ARC
  8
1
 62
7
 10
83.3750000000001
 20
6.12636406426702
 30
0
 40
0.5
 50
270
 51
0
  0
ARC
  8
1
 62
7
 10
83.3750000000001
 20
22.373635935731
 30
0
 40
0.5
 50
0
 51
90
  0
ARC
  8
0
 62
7
 10
77.7250000000012
 20
-74.410772743857
 30
0
 40
2.999999999995609
 50
180
 51
270
  0
ARC
  8
0
 62
7
 10
80.2250000000012
 20
-74.410772743857
 30
0
 40
2.999999999994998
 50
270
 51
0
  0
ARC
  8
0
 62
7
 10
76.72500000000009
 20
39.7000000000002
 30
0
 40
3
 50
90
 51
180
  0
ARC
  8
0
 62
7
 10
79.22500000000009
 20
39.7000000000002
 30
0
 40
3
 50
0
 51
90
  0
CIRCLE
  8
0
 62
7
 10
76.5750000000001
 20
-24.11885778716
 30
0
 40
2
  0
CIRCLE
  8
0
 62
7
 10
81.3750000000001
 20
-50.0195946947689
 30
0
 40
2
  0
CIRCLE
  8
0
 62
7
 10
81.3750000000001
 20
-62.912362049093
 30
0
 40
2
  0
CIRCLE
  8
0
 62
7
 10
76.5750000000001
 20
-37.088448308088
 30
0
 40
2
  0
CIRCLE
  8
0
 62
7
 10
81.3750000000001
 20
-37.088448308088
 30
0
 40
2
  0
CIRCLE
  8
0
 62
7
 10
76.5750000000001
 20
-50.0195946947689
 30
0
 40
2
  0
CIRCLE
  8
0
 62
7
 10
76.5750000000001
 20
-62.912362049093
 30
0
 40
2
  0
CIRCLE
  8
0
 62
7
 10
81.3750000000001
 20
-24.11885778716
 30
0
 40
2
  0
ENDSEC
  0
EOF
