  0
SECTION
  2
HEADER
  9
$ACADVER
  1
AC1009
  9
$INSBASE
 10
0
 20
0
  9
$EXTMIN
 10
0
 20
-93.50657986288496
  9
$EXTMAX
 10
48.6000000000001
 20
42.70000000000005
  9
$LIMMIN
 10
0
 20
-93.50657986288496
  9
$LIMMAX
 10
48.6000000000001
 20
42.70000000000005
  9
$VIEWCTR
 10
10
 20
10
  9
$VIEWSIZE
 40
10
  9
$SNAPMODE
 70
0
  9
$SNAPUNIT
 10
1
 20
1
  9
$SNAPBASE
 10
0
 20
0
  9
$SNAPANG
 50
0
  9
$SNAPSTYLE
 70
0
  9
$SNAPISOPAIR
 70
0
  9
$GRIDMODE
 70
0
  9
$GRIDUNIT
 10
0
 20
0
  9
$ORTHOMODE
 70
0
  9
$REGENMODE
 70
1
  9
$FILLMODE
 70
1
  9
$QTEXTMODE
 70
0
  9
$DRAGMODE
 70
2
  9
$LTSCALE
 40
1
  9
$OSMODE
 70
0
  9
$ATTMODE
 70
1
  9
$TEXTSIZE
 40
3.5
  9
$TRACEWID
 40
0.5
  9
$TEXTSTYLE
  7
STANDARD
  9
$CLAYER
  8
0
  9
$CELTYPE
  6
BYLAYER
  9
$CECOLOR
 62
256
  9
$DIMSCALE
 40
1
  9
$DIMASZ
 40
0.18
  9
$DIMEXO
 40
0.0625
  9
$DIMDLI
 40
0.38
  9
$DIMRND
 40
0
  9
$DIMDLE
 40
0
  9
$DIMEXE
 40
0.18
  9
$DIMTP
 40
0
  9
$DIMTM
 40
0
  9
$DIMTXT
 40
0.18
  9
$DIMCEN
 40
0.09
  9
$DIMTSZ
 40
0
  9
$DIMTOL
 70
0
  9
$DIMLIM
 70
0
  9
$DIMTIH
 70
1
  9
$DIMTOH
 70
1
  9
$DIMSE1
 70
0
  9
$DIMSE2
 70
0
  9
$DIMTAD
 70
0
  9
$DIMZIN
 70
0
  9
$DIMBLK
  1

  9
$DIMASO
 70
1
  9
$DIMSHO
 70
1
  9
$DIMPOST
  1

  9
$DIMAPOST
  1

  9
$DIMALT
 70
0
  9
$DIMALTD
 70
2
  9
$DIMALTF
 40
25.4
  9
$DIMLFAC
 40
1
  9
$DIMTOFL
 70
0
  9
$DIMTVP
 40
0
  9
$DIMTIX
 70
0
  9
$DIMSOXD
 70
0
  9
$DIMSAH
 70
0
  9
$DIMBLK1
  1

  9
$DIMBLK2
  1

  9
$DIMSTYLE
  2
*UNNAMED
  9
$DIMCLRD
 70
0
  9
$DIMCLRE
 70
0
  9
$DIMCLRT
 70
0
  9
$DIMTFAC
 40
1
  9
$DIMGAP
 40
0.09
  9
$LUNITS
 70
2
  9
$LUPREC
 70
4
  9
$AXISMODE
 70
0
  9
$AXISUNIT
 10
0
 20
0
  9
$SKETCHINC
 40
0.1
  9
$FILLETRAD
 40
2
  9
$AUNITS
 70
0
  9
$AUPREC
 70
0
  9
$MENU
  1
ACAD
  9
$ELEVATION
 40
0
  9
$THICKNESS
 40
0
  9
$VIEWDIR
 10
0
 20
0
 30
1
  9
$LIMCHECK
 70
0
  9
$BLIPMODE
 70
1
  9
$CHAMFERA
 40
0
  9
$CHAMFERB
 40
0
  9
$FASTZOOM
 70
1
  9
$SKPOLY
 70
0
  9
$ANGBASE
 50
0
  9
$ANGDIR
 70
0
  9
$PDMODE
 70
0
  9
$PDSIZE
 40
0
  9
$PLINEWID
 40
0
  9
$COORDS
 70
2
  0
ENDSEC
  0
SECTION
  2
TABLES
  0
TABLE
  2
DIMSTYLE
 70
0
  0
ENDTAB
  0
TABLE
  2
LTYPE
 70
9
  0
LTYPE
  2
CONTINUOUS
 70
64
  3
Solid line
 72
65
 73
0
 40
0
  0
LTYPE
  2
BORDER
 70
64
  3
__ __ . __ __ .
 72
65
 73
6
 40
6.272671441053915
 49
1.792191840301119
 49
-0.8960959201505593
 49
1.792191840301119
 49
-0.8960959201505593
 49
0
 49
-0.8960959201505593
  0
LTYPE
  2
CENTER
 70
64
  3
____ _ ____ _
 72
65
 73
4
 40
7.168767361204474
 49
4.480479600752797
 49
-0.8960959201505593
 49
0.8960959201505593
 49
-0.8960959201505593
  0
LTYPE
  2
DASHDOT
 70
64
  3
__ . __ . __ .
 72
65
 73
4
 40
3.584383680602237
 49
1.792191840301119
 49
-0.8960959201505593
 49
0
 49
-0.8960959201505593
  0
LTYPE
  2
DASHED
 70
64
  3
__ __ __ __ __
 72
65
 73
2
 40
2.688287760451678
 49
1.792191840301119
 49
-0.8960959201505593
  0
LTYPE
  2
DIVIDE
 70
64
  3
__ . . __ . . 
 72
65
 73
6
 40
4.480479600752797
 49
1.792191840301119
 49
-0.8960959201505593
 49
0
 49
-0.8960959201505593
 49
0
 49
-0.8960959201505593
  0
LTYPE
  2
DOT
 70
64
  3
..............
 72
65
 73
4
 40
1.792191840301119
 49
0
 49
-0.8960959201505593
 49
0
 49
-0.8960959201505593
  0
LTYPE
  2
HIDDEN
 70
64
  3
_ _ _ _ _ _ _
 72
65
 73
2
 40
1.344143880225839
 49
0.8960959201505593
 49
-0.4480479600752796
  0
LTYPE
  2
PHANTOM
 70
64
  3
_____ _ _ _____ _ _ 
 72
65
 73
6
 40
8.960959201505593
 49
4.480479600752797
 49
-0.8960959201505593
 49
0.8960959201505593
 49
-0.8960959201505593
 49
0.8960959201505593
 49
-0.8960959201505593
  0
ENDTAB
  0
TABLE
  2
LAYER
 70
3
  0
LAYER
  2
0
 70
0
 62
7
  6
CONTINUOUS
  0
LAYER
  2
1
 70
0
 62
7
  6
CONTINUOUS
  0
ENDTAB
  0
TABLE
  2
STYLE
 70
4
  0
STYLE
  2
STANDARD
 70
0
 40
0
 41
1
 50
0
 71
0
 42
3.5
  3
txt
  4

  0
STYLE
  2
SIMPLEX
 70
0
 40
0
 41
1
 50
0
 71
0
 42
3.5
  3
simplex
  4

  0
STYLE
  2
COMPLEX
 70
0
 40
0
 41
1
 50
0
 71
0
 42
3.5
  3
complex
  4

  0
STYLE
  2
ITALIC
 70
0
 40
0
 41
1
 50
0
 71
0
 42
3.5
  3
italic
  4

  0
ENDTAB
  0
TABLE
  2
VIEW
 70
0
  0
ENDTAB
  0
ENDSEC
  0
SECTION
  2
BLOCKS
  0
ENDSEC
  0
SECTION
  2
ENTITIES
  0
LINE
  8
0
 62
7
 10
10.275
 20
33.60298636579103
 30
0
 11
10.275
 21
35.06438271151302
 31
0
  0
LINE
  8
0
 62
7
 10
46.925
 20
22.87363593573104
 30
0
 11
38.125
 21
22.87363593573104
 31
0
  0
LINE
  8
0
 62
7
 10
46.725
 20
33.60298636579103
 30
0
 11
48.52500000000001
 21
33.60298636579103
 31
0
  0
LINE
  8
0
 62
7
 10
48.52500000000001
 20
33.60298636579103
 30
0
 11
48.52500000000001
 21
38.234933781807
 31
0
  0
LINE
  8
0
 62
7
 10
38.3
 20
-42.61377924200298
 30
0
 11
38.3
 21
-46.28028323644696
 31
0
  0
LINE
  8
0
 62
7
 10
38.3
 20
-16.668939087262
 30
0
 11
38.3
 21
-20.05334347326499
 31
0
  0
LINE
  8
0
 62
7
 10
38.3
 20
-29.66061324531199
 30
0
 11
38.3
 21
-33.22727608615997
 31
0
  0
LINE
  8
0
 62
7
 10
38.3
 20
-55.52853617927099
 30
0
 11
38.3
 21
-59.21484130349
 31
0
  0
LINE
  8
0
 62
7
 10
46.725
 20
33.60298636579103
 30
0
 11
46.725
 21
35.06438271151302
 31
0
  0
LINE
  8
0
 62
7
 10
46.52500000000001
 20
35.06438271151302
 30
0
 11
46.725
 21
35.06438271151302
 31
0
  0
LINE
  8
0
 62
7
 10
46.52500000000001
 20
38.73493378180802
 30
0
 11
36.4500000000001
 21
38.73493378180802
 31
0
  0
LINE
  8
0
 62
7
 10
37.625
 20
6.126364064267023
 30
0
 11
37.625
 21
22.37363593573104
 31
0
  0
LINE
  8
0
 62
7
 10
38.3
 20
-33.22727608615997
 30
0
 11
41.95
 21
-33.22727608615997
 31
0
  0
LINE
  8
0
 62
7
 10
38.3
 20
-59.21484130349
 30
0
 11
41.95
 21
-59.21484130349
 31
0
  0
LINE
  8
0
 62
7
 10
38.3
 20
-55.52853617927099
 30
0
 11
41.95
 21
-55.52853617927099
 31
0
  0
LINE
  8
0
 62
7
 10
41.95
 20
-55.52853617927099
 30
0
 11
41.95
 21
-59.21484130349
 31
0
  0
LINE
  8
0
 62
7
 10
46.75
 20
-29.66061324531199
 30
0
 11
46.75
 21
-33.22727608615997
 31
0
  0
LINE
  8
0
 62
7
 10
43.1
 20
-29.66061324531199
 30
0
 11
46.75
 21
-29.66061324531199
 31
0
  0
LINE
  8
0
 62
7
 10
43.1
 20
-33.22727608615997
 30
0
 11
46.75
 21
-33.22727608615997
 31
0
  0
LINE
  8
0
 62
7
 10
43.1
 20
-29.66061324531199
 30
0
 11
43.1
 21
-33.22727608615997
 31
0
  0
LINE
  8
0
 62
7
 10
46.75
 20
-55.52853617927099
 30
0
 11
46.75
 21
-59.21484130349
 31
0
  0
LINE
  8
0
 62
7
 10
43.1
 20
-55.52853617927099
 30
0
 11
46.75
 21
-55.52853617927099
 31
0
  0
LINE
  8
0
 62
7
 10
43.1
 20
-55.52853617927099
 30
0
 11
43.1
 21
-59.21484130349
 31
0
  0
LINE
  8
0
 62
7
 10
43.1
 20
-59.21484130349
 30
0
 11
46.75
 21
-59.21484130349
 31
0
  0
LINE
  8
0
 62
7
 10
43.1
 20
-42.61377924200298
 30
0
 11
43.1
 21
-46.28028323644696
 31
0
  0
LINE
  8
0
 62
7
 10
46.75
 20
-42.61377924200298
 30
0
 11
46.75
 21
-46.28028323644696
 31
0
  0
LINE
  8
0
 62
7
 10
43.1
 20
-42.61377924200298
 30
0
 11
46.75
 21
-42.61377924200298
 31
0
  0
LINE
  8
0
 62
7
 10
43.1
 20
-46.28028323644696
 30
0
 11
46.75
 21
-46.28028323644696
 31
0
  0
LINE
  8
0
 62
7
 10
38.3
 20
-20.05334347326499
 30
0
 11
41.95
 21
-20.05334347326499
 31
0
  0
LINE
  8
0
 62
7
 10
38.3
 20
-42.61377924200298
 30
0
 11
41.95
 21
-42.61377924200298
 31
0
  0
LINE
  8
0
 62
7
 10
46.75
 20
-16.668939087262
 30
0
 11
46.75
 21
-20.05334347326499
 31
0
  0
LINE
  8
0
 62
7
 10
41.95
 20
-42.61377924200298
 30
0
 11
41.95
 21
-46.28028323644696
 31
0
  0
LINE
  8
0
 62
7
 10
43.1
 20
-20.05334347326499
 30
0
 11
46.75
 21
-20.05334347326499
 31
0
  0
LINE
  8
0
 62
7
 10
38.3
 20
-46.28028323644696
 30
0
 11
41.95
 21
-46.28028323644696
 31
0
  0
LINE
  8
0
 62
7
 10
38.3
 20
-16.668939087262
 30
0
 11
41.95
 21
-16.668939087262
 31
0
  0
LINE
  8
0
 62
7
 10
41.95
 20
-16.668939087262
 30
0
 11
41.95
 21
-20.05334347326499
 31
0
  0
LINE
  8
0
 62
7
 10
43.1
 20
-16.668939087262
 30
0
 11
43.1
 21
-20.05334347326499
 31
0
  0
LINE
  8
0
 62
7
 10
43.1
 20
-16.668939087262
 30
0
 11
46.75
 21
-16.668939087262
 31
0
  0
LINE
  8
0
 62
7
 10
38.3
 20
-29.66061324531199
 30
0
 11
41.95
 21
-29.66061324531199
 31
0
  0
LINE
  8
0
 62
7
 10
41.95
 20
-29.66061324531199
 30
0
 11
41.95
 21
-33.22727608615997
 31
0
  0
LINE
  8
0
 62
7
 10
47.425
 20
6.126364064267023
 30
0
 11
47.425
 21
22.37363593573104
 31
0
  0
LINE
  8
0
 62
7
 10
38.125
 20
5.626364064267023
 30
0
 11
46.925
 21
5.626364064267023
 31
0
  0
LINE
  8
0
 62
7
 10
0
 20
42.70000000000005
 30
0
 11
46.6
 21
42.70000000000005
 31
0
  0
LINE
  8
0
 62
7
 10
0
 20
39.70000000000005
 30
0
 11
46.6
 21
39.70000000000005
 31
0
  0
LINE
  8
0
 62
7
 10
10.275
 20
33.60298636579103
 30
0
 11
12.15
 21
33.60298636579103
 31
0
  0
LINE
  8
0
 62
7
 10
12.15
 20
-59.57101259419198
 30
0
 11
12.1500000000028
 21
-93.50657986288496
 31
0
  0
LINE
  8
0
 62
7
 10
12.1500000000001
 20
-59.55380938080697
 30
0
 11
12.15
 21
-59.57101259419198
 31
0
  0
LINE
  8
0
 62
7
 10
10.075
 20
38.73493378180802
 30
0
 11
0
 21
38.73493378180802
 31
0
  0
LINE
  8
0
 62
7
 10
10.075
 20
35.06438271151302
 30
0
 11
10.275
 21
35.06438271151302
 31
0
  0
LINE
  8
0
 62
7
 10
1.175000000000001
 20
6.126364064267023
 30
0
 11
1.175000000000001
 21
22.37363593573104
 31
0
  0
LINE
  8
0
 62
7
 10
1.675000000000001
 20
5.626364064267023
 30
0
 11
10.475
 21
5.626364064267023
 31
0
  0
LINE
  8
0
 62
7
 10
10.975
 20
6.126364064267023
 30
0
 11
10.975
 21
22.37363593573104
 31
0
  0
LINE
  8
0
 62
7
 10
10.475
 20
22.87363593573104
 30
0
 11
1.675000000000001
 21
22.87363593573104
 31
0
  0
LINE
  8
0
 62
7
 10
6.65
 20
-42.61377924200298
 30
0
 11
6.65
 21
-46.28028323644696
 31
0
  0
LINE
  8
0
 62
7
 10
6.65
 20
-42.61377924200298
 30
0
 11
10.3
 21
-42.61377924200298
 31
0
  0
LINE
  8
0
 62
7
 10
10.3
 20
-42.61377924200298
 30
0
 11
10.3
 21
-46.28028323644696
 31
0
  0
LINE
  8
0
 62
7
 10
10.3
 20
-29.66061324531199
 30
0
 11
10.3
 21
-33.22727608615997
 31
0
  0
LINE
  8
0
 62
7
 10
6.65
 20
-29.66061324531199
 30
0
 11
10.3
 21
-29.66061324531199
 31
0
  0
LINE
  8
0
 62
7
 10
6.65
 20
-29.66061324531199
 30
0
 11
6.65
 21
-33.22727608615997
 31
0
  0
LINE
  8
0
 62
7
 10
1.85
 20
-20.05334347326499
 30
0
 11
5.5
 21
-20.05334347326499
 31
0
  0
LINE
  8
0
 62
7
 10
5.5
 20
-29.66061324531199
 30
0
 11
5.5
 21
-33.22727608615997
 31
0
  0
LINE
  8
0
 62
7
 10
1.85
 20
-29.66061324531199
 30
0
 11
5.5
 21
-29.66061324531199
 31
0
  0
LINE
  8
0
 62
7
 10
1.85
 20
-33.22727608615997
 30
0
 11
5.5
 21
-33.22727608615997
 31
0
  0
LINE
  8
0
 62
7
 10
1.85
 20
-29.66061324531199
 30
0
 11
1.85
 21
-33.22727608615997
 31
0
  0
LINE
  8
0
 62
7
 10
6.65
 20
-33.22727608615997
 30
0
 11
10.3
 21
-33.22727608615997
 31
0
  0
LINE
  8
0
 62
7
 10
6.65
 20
-46.28028323644696
 30
0
 11
10.3
 21
-46.28028323644696
 31
0
  0
LINE
  8
0
 62
7
 10
1.85
 20
-42.61377924200298
 30
0
 11
1.85
 21
-46.28028323644696
 31
0
  0
LINE
  8
0
 62
7
 10
1.85
 20
-42.61377924200298
 30
0
 11
5.5
 21
-42.61377924200298
 31
0
  0
LINE
  8
0
 62
7
 10
5.5
 20
-42.61377924200298
 30
0
 11
5.5
 21
-46.28028323644696
 31
0
  0
LINE
  8
0
 62
7
 10
6.65
 20
-55.52853617927099
 30
0
 11
6.65
 21
-59.21484130349
 31
0
  0
LINE
  8
0
 62
7
 10
6.65
 20
-55.52853617927099
 30
0
 11
10.3
 21
-55.52853617927099
 31
0
  0
LINE
  8
0
 62
7
 10
10.3
 20
-55.52853617927099
 30
0
 11
10.3
 21
-59.21484130349
 31
0
  0
LINE
  8
0
 62
7
 10
6.65
 20
-59.21484130349
 30
0
 11
10.3
 21
-59.21484130349
 31
0
  0
LINE
  8
0
 62
7
 10
1.85
 20
-16.668939087262
 30
0
 11
1.85
 21
-20.05334347326499
 31
0
  0
LINE
  8
0
 62
7
 10
1.85
 20
-16.668939087262
 30
0
 11
5.5
 21
-16.668939087262
 31
0
  0
LINE
  8
0
 62
7
 10
5.5
 20
-16.668939087262
 30
0
 11
5.5
 21
-20.05334347326499
 31
0
  0
LINE
  8
0
 62
7
 10
10.3
 20
-16.668939087262
 30
0
 11
10.3
 21
-20.05334347326499
 31
0
  0
LINE
  8
0
 62
7
 10
6.65
 20
-20.05334347326499
 30
0
 11
10.3
 21
-20.05334347326499
 31
0
  0
LINE
  8
0
 62
7
 10
6.65
 20
-16.668939087262
 30
0
 11
6.65
 21
-20.05334347326499
 31
0
  0
LINE
  8
0
 62
7
 10
6.65
 20
-16.668939087262
 30
0
 11
10.3
 21
-16.668939087262
 31
0
  0
LINE
  8
0
 62
7
 10
1.85
 20
-59.21484130349
 30
0
 11
5.5
 21
-59.21484130349
 31
0
  0
LINE
  8
0
 62
7
 10
1.85
 20
-55.52853617927099
 30
0
 11
5.5
 21
-55.52853617927099
 31
0
  0
LINE
  8
0
 62
7
 10
5.5
 20
-55.52853617927099
 30
0
 11
5.5
 21
-59.21484130349
 31
0
  0
LINE
  8
0
 62
7
 10
1.85
 20
-55.52853617927099
 30
0
 11
1.85
 21
-59.21484130349
 31
0
  0
LINE
  8
0
 62
7
 10
1.85
 20
-46.28028323644696
 30
0
 11
5.5
 21
-46.28028323644696
 31
0
  0
LINE
  8
0
 62
7
 10
22.425
 20
33.60298636579103
 30
0
 11
24.3
 21
33.60298636579103
 31
0
  0
LINE
  8
0
 62
7
 10
18.8
 20
-33.22727608615997
 30
0
 11
22.45
 21
-33.22727608615997
 31
0
  0
LINE
  8
0
 62
7
 10
22.45
 20
-29.66061324531199
 30
0
 11
22.45
 21
-33.22727608615997
 31
0
  0
LINE
  8
0
 62
7
 10
18.8
 20
-29.66061324531199
 30
0
 11
18.8
 21
-33.22727608615997
 31
0
  0
LINE
  8
0
 62
7
 10
18.8
 20
-29.66061324531199
 30
0
 11
22.45
 21
-29.66061324531199
 31
0
  0
LINE
  8
0
 62
7
 10
14
 20
-33.22727608615997
 30
0
 11
17.65
 21
-33.22727608615997
 31
0
  0
LINE
  8
0
 62
7
 10
14
 20
-29.66061324531199
 30
0
 11
17.65
 21
-29.66061324531199
 31
0
  0
LINE
  8
0
 62
7
 10
14
 20
-29.66061324531199
 30
0
 11
14
 21
-33.22727608615997
 31
0
  0
LINE
  8
0
 62
7
 10
17.65
 20
-29.66061324531199
 30
0
 11
17.65
 21
-33.22727608615997
 31
0
  0
LINE
  8
0
 62
7
 10
18.8
 20
-20.05334347326499
 30
0
 11
22.45
 21
-20.05334347326499
 31
0
  0
LINE
  8
0
 62
7
 10
18.8
 20
-16.668939087262
 30
0
 11
18.8
 21
-20.05334347326499
 31
0
  0
LINE
  8
0
 62
7
 10
18.8
 20
-16.668939087262
 30
0
 11
22.45
 21
-16.668939087262
 31
0
  0
LINE
  8
0
 62
7
 10
22.45
 20
-16.668939087262
 30
0
 11
22.45
 21
-20.05334347326499
 31
0
  0
LINE
  8
0
 62
7
 10
14
 20
-42.61377924200298
 30
0
 11
17.65
 21
-42.61377924200298
 31
0
  0
LINE
  8
0
 62
7
 10
14
 20
-42.61377924200298
 30
0
 11
14
 21
-46.28028323644696
 31
0
  0
LINE
  8
0
 62
7
 10
14
 20
-46.28028323644696
 30
0
 11
17.65
 21
-46.28028323644696
 31
0
  0
LINE
  8
0
 62
7
 10
17.65
 20
-42.61377924200298
 30
0
 11
17.65
 21
-46.28028323644696
 31
0
  0
LINE
  8
0
 62
7
 10
14
 20
-16.668939087262
 30
0
 11
14
 21
-20.05334347326499
 31
0
  0
LINE
  8
0
 62
7
 10
14
 20
-20.05334347326499
 30
0
 11
17.65
 21
-20.05334347326499
 31
0
  0
LINE
  8
0
 62
7
 10
14
 20
-16.668939087262
 30
0
 11
17.65
 21
-16.668939087262
 31
0
  0
LINE
  8
0
 62
7
 10
17.65
 20
-16.668939087262
 30
0
 11
17.65
 21
-20.05334347326499
 31
0
  0
LINE
  8
0
 62
7
 10
18.8
 20
-42.61377924200298
 30
0
 11
18.8
 21
-46.28028323644696
 31
0
  0
LINE
  8
0
 62
7
 10
18.8
 20
-46.28028323644696
 30
0
 11
22.45
 21
-46.28028323644696
 31
0
  0
LINE
  8
0
 62
7
 10
18.8
 20
-42.61377924200298
 30
0
 11
22.45
 21
-42.61377924200298
 31
0
  0
LINE
  8
0
 62
7
 10
22.45
 20
-42.61377924200298
 30
0
 11
22.45
 21
-46.28028323644696
 31
0
  0
LINE
  8
0
 62
7
 10
14
 20
-59.21484130349
 30
0
 11
17.65
 21
-59.21484130349
 31
0
  0
LINE
  8
0
 62
7
 10
17.65
 20
-55.52853617927099
 30
0
 11
17.65
 21
-59.21484130349
 31
0
  0
LINE
  8
0
 62
7
 10
14
 20
-55.52853617927099
 30
0
 11
17.65
 21
-55.52853617927099
 31
0
  0
LINE
  8
0
 62
7
 10
14
 20
-55.52853617927099
 30
0
 11
14
 21
-59.21484130349
 31
0
  0
LINE
  8
0
 62
7
 10
22.45
 20
-55.52853617927099
 30
0
 11
22.45
 21
-59.21484130349
 31
0
  0
LINE
  8
0
 62
7
 10
18.8
 20
-55.52853617927099
 30
0
 11
22.45
 21
-55.52853617927099
 31
0
  0
LINE
  8
0
 62
7
 10
18.8
 20
-59.21484130349
 30
0
 11
22.45
 21
-59.21484130349
 31
0
  0
LINE
  8
0
 62
7
 10
18.8
 20
-55.52853617927099
 30
0
 11
18.8
 21
-59.21484130349
 31
0
  0
LINE
  8
0
 62
7
 10
12.1500000000001
 20
-59.55380938080697
 30
0
 11
12.15
 21
-59.57101259419198
 31
0
  0
LINE
  8
0
 62
7
 10
22.425
 20
33.60298636579103
 30
0
 11
22.425
 21
35.06438271151302
 31
0
  0
LINE
  8
0
 62
7
 10
22.225
 20
38.73493378180802
 30
0
 11
12.15
 21
38.73493378180802
 31
0
  0
LINE
  8
0
 62
7
 10
22.225
 20
35.06438271151302
 30
0
 11
22.425
 21
35.06438271151302
 31
0
  0
LINE
  8
0
 62
7
 10
13.325
 20
6.126364064267023
 30
0
 11
13.325
 21
22.37363593573104
 31
0
  0
LINE
  8
0
 62
7
 10
22.625
 20
22.87363593573104
 30
0
 11
13.825
 21
22.87363593573104
 31
0
  0
LINE
  8
0
 62
7
 10
23.125
 20
6.126364064267023
 30
0
 11
23.125
 21
22.37363593573104
 31
0
  0
LINE
  8
0
 62
7
 10
13.825
 20
5.626364064267023
 30
0
 11
22.625
 21
5.626364064267023
 31
0
  0
LINE
  8
0
 62
7
 10
34.5750000000001
 20
33.60298636579103
 30
0
 11
34.575
 21
35.06438271151302
 31
0
  0
LINE
  8
0
 62
7
 10
34.375
 20
35.06438271151302
 30
0
 11
34.575
 21
35.06438271151302
 31
0
  0
LINE
  8
0
 62
7
 10
34.375
 20
38.73493378180802
 30
0
 11
24.3
 21
38.73493378180802
 31
0
  0
LINE
  8
0
 62
7
 10
34.775
 20
22.87363593573104
 30
0
 11
25.975
 21
22.87363593573104
 31
0
  0
LINE
  8
0
 62
7
 10
35.275
 20
6.126364064267023
 30
0
 11
35.275
 21
22.37363593573104
 31
0
  0
LINE
  8
0
 62
7
 10
25.975
 20
5.626364064267023
 30
0
 11
34.775
 21
5.626364064267023
 31
0
  0
LINE
  8
0
 62
7
 10
25.475
 20
6.126364064267023
 30
0
 11
25.475
 21
22.37363593573104
 31
0
  0
LINE
  8
0
 62
7
 10
34.6
 20
-55.52853617927099
 30
0
 11
34.6
 21
-59.21484130349
 31
0
  0
LINE
  8
0
 62
7
 10
30.95
 20
-55.52853617927099
 30
0
 11
34.6
 21
-55.52853617927099
 31
0
  0
LINE
  8
0
 62
7
 10
30.95
 20
-55.52853617927099
 30
0
 11
30.95
 21
-59.21484130349
 31
0
  0
LINE
  8
0
 62
7
 10
30.95
 20
-59.21484130349
 30
0
 11
34.6
 21
-59.21484130349
 31
0
  0
LINE
  8
0
 62
7
 10
26.15
 20
-55.52853617927099
 30
0
 11
29.8
 21
-55.52853617927099
 31
0
  0
LINE
  8
0
 62
7
 10
26.15
 20
-55.52853617927099
 30
0
 11
26.15
 21
-59.21484130349
 31
0
  0
LINE
  8
0
 62
7
 10
29.8
 20
-55.52853617927099
 30
0
 11
29.8
 21
-59.21484130349
 31
0
  0
LINE
  8
0
 62
7
 10
26.15
 20
-59.21484130349
 30
0
 11
29.8
 21
-59.21484130349
 31
0
  0
LINE
  8
0
 62
7
 10
29.8
 20
-29.66061324531199
 30
0
 11
29.8
 21
-33.22727608615997
 31
0
  0
LINE
  8
0
 62
7
 10
26.15
 20
-29.66061324531199
 30
0
 11
26.15
 21
-33.22727608615997
 31
0
  0
LINE
  8
0
 62
7
 10
26.15
 20
-29.66061324531199
 30
0
 11
29.8
 21
-29.66061324531199
 31
0
  0
LINE
  8
0
 62
7
 10
26.15
 20
-33.22727608615997
 30
0
 11
29.8
 21
-33.22727608615997
 31
0
  0
LINE
  8
0
 62
7
 10
30.95
 20
-29.66061324531199
 30
0
 11
34.6
 21
-29.66061324531199
 31
0
  0
LINE
  8
0
 62
7
 10
30.95
 20
-29.66061324531199
 30
0
 11
30.95
 21
-33.22727608615997
 31
0
  0
LINE
  8
0
 62
7
 10
34.6
 20
-29.66061324531199
 30
0
 11
34.6
 21
-33.22727608615997
 31
0
  0
LINE
  8
0
 62
7
 10
30.95
 20
-33.22727608615997
 30
0
 11
34.6
 21
-33.22727608615997
 31
0
  0
LINE
  8
0
 62
7
 10
34.6
 20
-16.668939087262
 30
0
 11
34.6
 21
-20.05334347326499
 31
0
  0
LINE
  8
0
 62
7
 10
30.95
 20
-16.668939087262
 30
0
 11
34.6
 21
-16.668939087262
 31
0
  0
LINE
  8
0
 62
7
 10
30.95
 20
-16.668939087262
 30
0
 11
30.95
 21
-20.05334347326499
 31
0
  0
LINE
  8
0
 62
7
 10
30.95
 20
-20.05334347326499
 30
0
 11
34.6
 21
-20.05334347326499
 31
0
  0
LINE
  8
0
 62
7
 10
29.8
 20
-16.668939087262
 30
0
 11
29.8
 21
-20.05334347326499
 31
0
  0
LINE
  8
0
 62
7
 10
26.15
 20
-16.668939087262
 30
0
 11
29.8
 21
-16.668939087262
 31
0
  0
LINE
  8
0
 62
7
 10
26.15
 20
-20.05334347326499
 30
0
 11
29.8
 21
-20.05334347326499
 31
0
  0
LINE
  8
0
 62
7
 10
26.15
 20
-16.668939087262
 30
0
 11
26.15
 21
-20.05334347326499
 31
0
  0
LINE
  8
0
 62
7
 10
34.6
 20
-42.61377924200298
 30
0
 11
34.6
 21
-46.28028323644696
 31
0
  0
LINE
  8
0
 62
7
 10
30.95
 20
-42.61377924200298
 30
0
 11
34.6
 21
-42.61377924200298
 31
0
  0
LINE
  8
0
 62
7
 10
30.95
 20
-42.61377924200298
 30
0
 11
30.95
 21
-46.28028323644696
 31
0
  0
LINE
  8
0
 62
7
 10
30.95
 20
-46.28028323644696
 30
0
 11
34.6
 21
-46.28028323644696
 31
0
  0
LINE
  8
0
 62
7
 10
26.15
 20
-42.61377924200298
 30
0
 11
26.15
 21
-46.28028323644696
 31
0
  0
LINE
  8
0
 62
7
 10
26.15
 20
-42.61377924200298
 30
0
 11
29.8
 21
-42.61377924200298
 31
0
  0
LINE
  8
0
 62
7
 10
29.8
 20
-42.61377924200298
 30
0
 11
29.8
 21
-46.28028323644696
 31
0
  0
LINE
  8
0
 62
7
 10
26.15
 20
-46.28028323644696
 30
0
 11
29.8
 21
-46.28028323644696
 31
0
  0
LINE
  8
0
 62
7
 10
34.5750000000001
 20
33.60298636579103
 30
0
 11
36.4500000000001
 21
33.60298636579103
 31
0
  0
LINE
  8
0
 62
7
 10
10.075
 20
38.73493378180802
 30
0
 11
10.075
 21
32.05839352575305
 31
0
  0
LINE
  8
0
 62
7
 10
22.225
 20
38.73493378180802
 30
0
 11
22.225
 21
32.05839352575305
 31
0
  0
LINE
  8
0
 62
7
 10
46.52500000000001
 20
32.05839352575305
 30
0
 11
46.52500000000001
 21
38.73493378180802
 31
0
  0
LINE
  8
0
 62
7
 10
36.4500000000001
 20
38.73493378180802
 30
0
 11
36.4500000000001
 21
-93.50657986288496
 31
0
  0
LINE
  8
0
 62
7
 10
46.6
 20
42.70000000000005
 30
0
 11
46.6
 21
38.234933781807
 31
0
  0
LINE
  8
0
 62
7
 10
12.1500000000001
 20
-59.55380938080697
 30
0
 11
12.15
 21
32.05839352575305
 31
0
  0
LINE
  8
0
 62
7
 10
12.1500000000001
 20
-59.55380938080697
 30
0
 11
12.15
 21
38.73493378180802
 31
0
  0
LINE
  8
0
 62
7
 10
0
 20
-93.50657986288496
 30
0
 11
0
 21
42.70000000000005
 31
0
  0
LINE
  8
0
 62
7
 10
0
 20
30.63493378180704
 30
0
 11
48.6000000000001
 21
30.63493378180704
 31
0
  0
LINE
  8
0
 62
7
 10
48.6000000000001
 20
32.05839352575305
 30
0
 11
0
 21
32.05839352575305
 31
0
  0
LINE
  8
0
 62
7
 10
0
 20
-4.279751383713972
 30
0
 11
48.6000000000001
 21
-4.279751383715961
 31
0
  0
LINE
  8
0
 62
7
 10
0
 20
24.63493378180704
 30
0
 11
48.6000000000001
 21
24.63493378180704
 31
0
  0
LINE
  8
0
 62
7
 10
48.6000000000001
 20
0
 30
0
 11
0
 21
0
 31
0
  0
LINE
  8
0
 62
7
 10
0
 20
-11.86224926343999
 30
0
 11
48.6000000000001
 21
-11.86224926343999
 31
0
  0
LINE
  8
0
 62
7
 10
0
 20
-5.743483582921954
 30
0
 11
48.6000000000001
 21
-5.743483582921954
 31
0
  0
LINE
  8
0
 62
7
 10
0
 20
-59.55380938080697
 30
0
 11
48.6000000000001
 21
-59.55380938080697
 31
0
  0
LINE
  8
0
 62
7
 10
0
 20
-9.693701254996995
 30
0
 11
48.6000000000001
 21
-9.693701254996995
 31
0
  0
LINE
  8
0
 62
7
 10
24.3
 20
38.73493378180802
 30
0
 11
24.3
 21
-93.50657986288496
 31
0
  0
LINE
  8
0
 62
7
 10
0
 20
38.234933781807
 30
0
 11
48.52500000000001
 21
38.234933781807
 31
0
  0
LINE
  8
0
 62
7
 10
34.375
 20
32.05839352575305
 30
0
 11
34.375
 21
38.73493378180802
 31
0
  0
LINE
  8
0
 62
7
 10
0
 20
-93.50657986288496
 30
0
 11
48.6000000000001
 21
-93.50657986288496
 31
0
  0
LINE
  8
0
 62
7
 10
48.6000000000001
 20
32.05839352575305
 30
0
 11
48.6000000000001
 21
-93.50657986288496
 31
0
  0
ARC
  8
1
 62
7
 10
1.675000000000001
 20
22.37363593573104
 30
0
 40
0.5
 50
90
 51
180
  0
ARC
  8
1
 62
7
 10
10.475
 20
22.37363593573104
 30
0
 40
0.5
 50
0
 51
90
  0
ARC
  8
1
 62
7
 10
13.825
 20
22.37363593573104
 30
0
 40
0.5
 50
90
 51
180
  0
ARC
  8
1
 62
7
 10
22.625
 20
22.37363593573104
 30
0
 40
0.5
 50
0
 51
90
  0
ARC
  8
1
 62
7
 10
25.975
 20
22.37363593573104
 30
0
 40
0.5
 50
90
 51
180
  0
ARC
  8
1
 62
7
 10
34.775
 20
22.37363593573104
 30
0
 40
0.5
 50
0
 51
90
  0
ARC
  8
1
 62
7
 10
38.125
 20
22.37363593573104
 30
0
 40
0.5
 50
90
 51
180
  0
ARC
  8
1
 62
7
 10
46.925
 20
22.37363593573104
 30
0
 40
0.5
 50
0
 51
90
  0
ARC
  8
1
 62
7
 10
46.925
 20
6.126364064267023
 30
0
 40
0.5
 50
270
 51
0
  0
ARC
  8
1
 62
7
 10
38.125
 20
6.126364064267023
 30
0
 40
0.5
 50
180
 51
270
  0
ARC
  8
1
 62
7
 10
34.775
 20
6.126364064267023
 30
0
 40
0.5
 50
270
 51
0
  0
ARC
  8
1
 62
7
 10
25.975
 20
6.126364064267023
 30
0
 40
0.5
 50
180
 51
270
  0
ARC
  8
1
 62
7
 10
22.625
 20
6.126364064267023
 30
0
 40
0.5
 50
270
 51
0
  0
ARC
  8
1
 62
7
 10
13.825
 20
6.126364064267023
 30
0
 40
0.5
 50
180
 51
270
  0
ARC
  8
1
 62
7
 10
10.475
 20
6.126364064267023
 30
0
 40
0.5
 50
270
 51
0
  0
ARC
  8
1
 62
7
 10
1.675000000000001
 20
6.126364064267023
 30
0
 40
0.5
 50
180
 51
270
  0
CIRCLE
  8
0
 62
7
 10
44.925
 20
-24.11885778715998
 30
0
 40
2
  0
CIRCLE
  8
0
 62
7
 10
40.125
 20
-37.08844830808698
 30
0
 40
2
  0
CIRCLE
  8
0
 62
7
 10
44.925
 20
-50.01959469476895
 30
0
 40
2
  0
CIRCLE
  8
0
 62
7
 10
40.125
 20
-50.01959469476895
 30
0
 40
2
  0
CIRCLE
  8
0
 62
7
 10
44.925
 20
-37.08844830808698
 30
0
 40
2
  0
CIRCLE
  8
0
 62
7
 10
40.125
 20
-24.11885778715998
 30
0
 40
2
  0
CIRCLE
  8
0
 62
7
 10
3.675000000000001
 20
-37.08844830808698
 30
0
 40
2
  0
CIRCLE
  8
0
 62
7
 10
3.675000000000001
 20
-50.01959469476895
 30
0
 40
2
  0
CIRCLE
  8
0
 62
7
 10
8.475000000000001
 20
-24.11885778715998
 30
0
 40
1.999999999999998
  0
CIRCLE
  8
0
 62
7
 10
8.475000000000001
 20
-37.08844830808698
 30
0
 40
1.999999999999998
  0
CIRCLE
  8
0
 62
7
 10
3.675000000000001
 20
-24.11885778715998
 30
0
 40
2
  0
CIRCLE
  8
0
 62
7
 10
8.475000000000001
 20
-50.01959469476895
 30
0
 40
1.999999999999998
  0
CIRCLE
  8
0
 62
7
 10
15.825
 20
-37.08844830808698
 30
0
 40
2
  0
CIRCLE
  8
0
 62
7
 10
15.825
 20
-50.01959469476895
 30
0
 40
2
  0
CIRCLE
  8
0
 62
7
 10
15.825
 20
-24.11885778715998
 30
0
 40
2
  0
CIRCLE
  8
0
 62
7
 10
20.625
 20
-24.11885778715998
 30
0
 40
2
  0
CIRCLE
  8
0
 62
7
 10
20.625
 20
-50.01959469476895
 30
0
 40
2
  0
CIRCLE
  8
0
 62
7
 10
20.625
 20
-37.08844830808698
 30
0
 40
2
  0
CIRCLE
  8
0
 62
7
 10
27.975
 20
-24.11885778715998
 30
0
 40
2
  0
CIRCLE
  8
0
 62
7
 10
32.775
 20
-37.08844830808698
 30
0
 40
2
  0
CIRCLE
  8
0
 62
7
 10
32.775
 20
-50.01959469476895
 30
0
 40
2
  0
CIRCLE
  8
0
 62
7
 10
32.775
 20
-24.11885778715998
 30
0
 40
2
  0
CIRCLE
  8
0
 62
7
 10
27.975
 20
-50.01959469476895
 30
0
 40
2
  0
CIRCLE
  8
0
 62
7
 10
27.975
 20
-37.08844830808698
 30
0
 40
2
  0
ENDSEC
  0
EOF
