ISO-10303-21;
HEADER;
FILE_DESCRIPTION(('SolidDesigner STEP Export'),'2;1');
FILE_NAME('3240705_WT_BASE_HF_9_BK-select.stp','2017-02-21T13:43:22',(''
),(''),
'Creo Elements/Direct Modeling STEP processor for AP214 (Solid Model)',
'Creo Elements/Direct Modeling 18.1G  27-Feb-2015 (C) Parametric Technol
ogy GmbH','');
FILE_SCHEMA(('AUTOMOTIVE_DESIGN { 1 0 10303 214 1 1 1 1 }'));
ENDSEC;
DATA;
#10=CARTESIAN_POINT('',(0.,0.,-5.795));
#20=DIRECTION('',(0.,-1.,0.));
#30=DIRECTION('',(1.,0.,0.));
#40=AXIS2_PLACEMENT_3D('',#10,#20,#30);
#50=PLANE('',#40);
#60=CARTESIAN_POINT('',(-7.3,0.,-11.25));
#70=DIRECTION('',(0.,0.,1.));
#80=VECTOR('',#70,1.);
#90=LINE('',#60,#80);
#100=CARTESIAN_POINT('',(-7.3,0.,-11.25));
#110=VERTEX_POINT('',#100);
#120=CARTESIAN_POINT('',(-7.3,0.,-5.55));
#130=VERTEX_POINT('',#120);
#140=EDGE_CURVE('',#110,#130,#90,.T.);
#150=ORIENTED_EDGE('',*,*,#140,.F.);
#160=CARTESIAN_POINT('',(0.,0.,-5.55));
#170=DIRECTION('',(1.,0.,0.));
#180=VECTOR('',#170,1.);
#190=LINE('',#160,#180);
#200=CARTESIAN_POINT('',(7.3,0.,-5.55));
#210=VERTEX_POINT('',#200);
#220=EDGE_CURVE('',#130,#210,#190,.T.);
#230=ORIENTED_EDGE('',*,*,#220,.F.);
#240=CARTESIAN_POINT('',(7.3,0.,11.25));
#250=DIRECTION('',(0.,0.,-1.));
#260=VECTOR('',#250,1.);
#270=LINE('',#240,#260);
#280=CARTESIAN_POINT('',(7.3,0.,-11.25));
#290=VERTEX_POINT('',#280);
#300=EDGE_CURVE('',#210,#290,#270,.T.);
#310=ORIENTED_EDGE('',*,*,#300,.F.);
#320=CARTESIAN_POINT('',(7.3,0.,-11.25));
#330=DIRECTION('',(-1.,0.,0.));
#340=VECTOR('',#330,1.);
#350=LINE('',#320,#340);
#360=EDGE_CURVE('',#290,#110,#350,.T.);
#370=ORIENTED_EDGE('',*,*,#360,.F.);
#380=EDGE_LOOP('',(#370,#310,#230,#150));
#390=FACE_OUTER_BOUND('',#380,.T.);
#400=ADVANCED_FACE('',(#390),#50,.T.);
#410=CARTESIAN_POINT('',(0.,5.5,-5.795));
#420=DIRECTION('',(0.,-1.,0.));
#430=DIRECTION('',(1.,0.,0.));
#440=AXIS2_PLACEMENT_3D('',#410,#420,#430);
#450=PLANE('',#440);
#460=CARTESIAN_POINT('',(-10.9,5.5,5.55));
#470=DIRECTION('',(1.,0.,0.));
#480=VECTOR('',#470,1.);
#490=LINE('',#460,#480);
#500=CARTESIAN_POINT('',(-7.3,5.5,5.55));
#510=VERTEX_POINT('',#500);
#520=CARTESIAN_POINT('',(-4.65,5.5,5.55));
#530=VERTEX_POINT('',#520);
#540=EDGE_CURVE('',#510,#530,#490,.T.);
#550=ORIENTED_EDGE('',*,*,#540,.F.);
#560=CARTESIAN_POINT('',(-4.65,5.5,13.5000024));
#570=DIRECTION('',(0.,0.,-1.));
#580=VECTOR('',#570,1.);
#590=LINE('',#560,#580);
#600=CARTESIAN_POINT('',(-4.65,5.5,11.25));
#610=VERTEX_POINT('',#600);
#620=EDGE_CURVE('',#610,#530,#590,.T.);
#630=ORIENTED_EDGE('',*,*,#620,.T.);
#640=CARTESIAN_POINT('',(0.,5.5,11.25));
#650=DIRECTION('',(1.,0.,0.));
#660=VECTOR('',#650,1.);
#670=LINE('',#640,#660);
#680=CARTESIAN_POINT('',(4.65,5.5,11.25));
#690=VERTEX_POINT('',#680);
#700=EDGE_CURVE('',#610,#690,#670,.T.);
#710=ORIENTED_EDGE('',*,*,#700,.F.);
#720=CARTESIAN_POINT('',(4.65,5.5,13.5000024));
#730=DIRECTION('',(0.,0.,-1.));
#740=VECTOR('',#730,1.);
#750=LINE('',#720,#740);
#760=CARTESIAN_POINT('',(4.65,5.5,5.55));
#770=VERTEX_POINT('',#760);
#780=EDGE_CURVE('',#690,#770,#750,.T.);
#790=ORIENTED_EDGE('',*,*,#780,.F.);
#800=CARTESIAN_POINT('',(7.3,5.5,5.55));
#810=VERTEX_POINT('',#800);
#820=EDGE_CURVE('',#770,#810,#490,.T.);
#830=ORIENTED_EDGE('',*,*,#820,.F.);
#840=CARTESIAN_POINT('',(7.3,5.5,-5.795));
#850=DIRECTION('',(0.,0.,1.));
#860=VECTOR('',#850,1.);
#870=LINE('',#840,#860);
#880=CARTESIAN_POINT('',(7.3,5.5,-5.55));
#890=VERTEX_POINT('',#880);
#900=EDGE_CURVE('',#890,#810,#870,.T.);
#910=ORIENTED_EDGE('',*,*,#900,.T.);
#920=CARTESIAN_POINT('',(9.1,5.5,-5.55));
#930=DIRECTION('',(-1.,0.,0.));
#940=VECTOR('',#930,1.);
#950=LINE('',#920,#940);
#960=CARTESIAN_POINT('',(4.65,5.5,-5.55));
#970=VERTEX_POINT('',#960);
#980=EDGE_CURVE('',#890,#970,#950,.T.);
#990=ORIENTED_EDGE('',*,*,#980,.F.);
#1000=CARTESIAN_POINT('',(4.65,5.5,-11.25));
#1010=VERTEX_POINT('',#1000);
#1020=EDGE_CURVE('',#970,#1010,#750,.T.);
#1030=ORIENTED_EDGE('',*,*,#1020,.F.);
#1040=CARTESIAN_POINT('',(0.,5.5,-11.25));
#1050=DIRECTION('',(-1.,0.,0.));
#1060=VECTOR('',#1050,1.);
#1070=LINE('',#1040,#1060);
#1080=CARTESIAN_POINT('',(-4.65,5.5,-11.25));
#1090=VERTEX_POINT('',#1080);
#1100=EDGE_CURVE('',#1010,#1090,#1070,.T.);
#1110=ORIENTED_EDGE('',*,*,#1100,.F.);
#1120=CARTESIAN_POINT('',(-4.65,5.5,-5.55));
#1130=VERTEX_POINT('',#1120);
#1140=EDGE_CURVE('',#1130,#1090,#590,.T.);
#1150=ORIENTED_EDGE('',*,*,#1140,.T.);
#1160=CARTESIAN_POINT('',(-7.3,5.5,-5.55));
#1170=VERTEX_POINT('',#1160);
#1180=EDGE_CURVE('',#1130,#1170,#950,.T.);
#1190=ORIENTED_EDGE('',*,*,#1180,.F.);
#1200=CARTESIAN_POINT('',(-7.3,5.5,-5.795));
#1210=DIRECTION('',(0.,0.,-1.));
#1220=VECTOR('',#1210,1.);
#1230=LINE('',#1200,#1220);
#1240=EDGE_CURVE('',#510,#1170,#1230,.T.);
#1250=ORIENTED_EDGE('',*,*,#1240,.T.);
#1260=EDGE_LOOP('',(#1250,#1190,#1150,#1110,#1030,#990,#910,#830,#790,
#710,#630,#550));
#1270=FACE_OUTER_BOUND('',#1260,.T.);
#1280=CARTESIAN_POINT('',(0.,5.5,0.));
#1290=DIRECTION('',(0.,-1.,0.));
#1300=DIRECTION('',(1.,0.,0.));
#1310=AXIS2_PLACEMENT_3D('',#1280,#1290,#1300);
#1320=CIRCLE('',#1310,4.55);
#1330=CARTESIAN_POINT('',(4.55,5.5,0.));
#1340=VERTEX_POINT('',#1330);
#1350=CARTESIAN_POINT('',(-4.55,5.5,5.57214293612046E-16));
#1360=VERTEX_POINT('',#1350);
#1370=EDGE_CURVE('',#1340,#1360,#1320,.T.);
#1380=ORIENTED_EDGE('',*,*,#1370,.F.);
#1390=EDGE_CURVE('',#1360,#1340,#1320,.T.);
#1400=ORIENTED_EDGE('',*,*,#1390,.F.);
#1410=EDGE_LOOP('',(#1400,#1380));
#1420=FACE_BOUND('',#1410,.T.);
#1430=ADVANCED_FACE('',(#1270,#1420),#450,.T.);
#1440=CARTESIAN_POINT('',(-7.3,0.,5.55));
#1450=VERTEX_POINT('',#1440);
#1460=CARTESIAN_POINT('',(-7.3,0.,11.25));
#1470=VERTEX_POINT('',#1460);
#1480=EDGE_CURVE('',#1450,#1470,#90,.T.);
#1490=ORIENTED_EDGE('',*,*,#1480,.F.);
#1500=CARTESIAN_POINT('',(-7.3,0.,11.25));
#1510=DIRECTION('',(1.,0.,0.));
#1520=VECTOR('',#1510,1.);
#1530=LINE('',#1500,#1520);
#1540=CARTESIAN_POINT('',(7.3,0.,11.25));
#1550=VERTEX_POINT('',#1540);
#1560=EDGE_CURVE('',#1470,#1550,#1530,.T.);
#1570=ORIENTED_EDGE('',*,*,#1560,.F.);
#1580=CARTESIAN_POINT('',(7.3,0.,5.55));
#1590=VERTEX_POINT('',#1580);
#1600=EDGE_CURVE('',#1550,#1590,#270,.T.);
#1610=ORIENTED_EDGE('',*,*,#1600,.F.);
#1620=CARTESIAN_POINT('',(0.,0.,5.55));
#1630=DIRECTION('',(-1.,0.,0.));
#1640=VECTOR('',#1630,1.);
#1650=LINE('',#1620,#1640);
#1660=EDGE_CURVE('',#1590,#1450,#1650,.T.);
#1670=ORIENTED_EDGE('',*,*,#1660,.F.);
#1680=EDGE_LOOP('',(#1670,#1610,#1570,#1490));
#1690=FACE_OUTER_BOUND('',#1680,.T.);
#1700=ADVANCED_FACE('',(#1690),#50,.T.);
#1710=CARTESIAN_POINT('',(-10.9,5.5,5.55));
#1720=DIRECTION('',(0.,0.,1.));
#1730=DIRECTION('',(1.,0.,0.));
#1740=AXIS2_PLACEMENT_3D('',#1710,#1720,#1730);
#1750=PLANE('',#1740);
#1760=CARTESIAN_POINT('',(7.3,0.,5.55));
#1770=DIRECTION('',(0.,1.,0.));
#1780=VECTOR('',#1770,1.);
#1790=LINE('',#1760,#1780);
#1800=EDGE_CURVE('',#1590,#810,#1790,.T.);
#1810=ORIENTED_EDGE('',*,*,#1800,.F.);
#1820=ORIENTED_EDGE('',*,*,#820,.T.);
#1830=CARTESIAN_POINT('',(4.65,0.,5.55));
#1840=DIRECTION('',(0.,1.,0.));
#1850=VECTOR('',#1840,1.);
#1860=LINE('',#1830,#1850);
#1870=CARTESIAN_POINT('',(4.65,1.5,5.55));
#1880=VERTEX_POINT('',#1870);
#1890=EDGE_CURVE('',#1880,#770,#1860,.T.);
#1900=ORIENTED_EDGE('',*,*,#1890,.T.);
#1910=CARTESIAN_POINT('',(0.,1.5,5.55));
#1920=DIRECTION('',(1.,0.,0.));
#1930=VECTOR('',#1920,1.);
#1940=LINE('',#1910,#1930);
#1950=CARTESIAN_POINT('',(-4.65,1.5,5.55));
#1960=VERTEX_POINT('',#1950);
#1970=EDGE_CURVE('',#1960,#1880,#1940,.T.);
#1980=ORIENTED_EDGE('',*,*,#1970,.T.);
#1990=CARTESIAN_POINT('',(-4.65,0.,5.55));
#2000=DIRECTION('',(0.,-1.,0.));
#2010=VECTOR('',#2000,1.);
#2020=LINE('',#1990,#2010);
#2030=EDGE_CURVE('',#530,#1960,#2020,.T.);
#2040=ORIENTED_EDGE('',*,*,#2030,.T.);
#2050=ORIENTED_EDGE('',*,*,#540,.T.);
#2060=CARTESIAN_POINT('',(-7.3,0.,5.55));
#2070=DIRECTION('',(0.,-1.,0.));
#2080=VECTOR('',#2070,1.);
#2090=LINE('',#2060,#2080);
#2100=EDGE_CURVE('',#510,#1450,#2090,.T.);
#2110=ORIENTED_EDGE('',*,*,#2100,.F.);
#2120=ORIENTED_EDGE('',*,*,#1660,.T.);
#2130=EDGE_LOOP('',(#2120,#2110,#2050,#2040,#1980,#1900,#1820,#1810));
#2140=FACE_OUTER_BOUND('',#2130,.T.);
#2150=ADVANCED_FACE('',(#2140),#1750,.F.);
#2160=CARTESIAN_POINT('',(0.,11.,-5.795));
#2170=DIRECTION('',(0.,-1.,0.));
#2180=DIRECTION('',(1.,0.,0.));
#2190=AXIS2_PLACEMENT_3D('',#2160,#2170,#2180);
#2200=PLANE('',#2190);
#2210=CARTESIAN_POINT('',(7.3,11.,-11.25));
#2220=DIRECTION('',(-1.,0.,0.));
#2230=VECTOR('',#2220,1.);
#2240=LINE('',#2210,#2230);
#2250=CARTESIAN_POINT('',(7.3,11.,-11.25));
#2260=VERTEX_POINT('',#2250);
#2270=CARTESIAN_POINT('',(-7.3,11.,-11.25));
#2280=VERTEX_POINT('',#2270);
#2290=EDGE_CURVE('',#2260,#2280,#2240,.T.);
#2300=ORIENTED_EDGE('',*,*,#2290,.T.);
#2310=CARTESIAN_POINT('',(7.3,11.,11.25));
#2320=DIRECTION('',(0.,0.,-1.));
#2330=VECTOR('',#2320,1.);
#2340=LINE('',#2310,#2330);
#2350=CARTESIAN_POINT('',(7.3,11.,11.25));
#2360=VERTEX_POINT('',#2350);
#2370=EDGE_CURVE('',#2360,#2260,#2340,.T.);
#2380=ORIENTED_EDGE('',*,*,#2370,.T.);
#2390=CARTESIAN_POINT('',(-7.3,11.,11.25));
#2400=DIRECTION('',(1.,0.,0.));
#2410=VECTOR('',#2400,1.);
#2420=LINE('',#2390,#2410);
#2430=CARTESIAN_POINT('',(-7.3,11.,11.25));
#2440=VERTEX_POINT('',#2430);
#2450=EDGE_CURVE('',#2440,#2360,#2420,.T.);
#2460=ORIENTED_EDGE('',*,*,#2450,.T.);
#2470=CARTESIAN_POINT('',(-7.3,11.,-11.25));
#2480=DIRECTION('',(0.,0.,1.));
#2490=VECTOR('',#2480,1.);
#2500=LINE('',#2470,#2490);
#2510=EDGE_CURVE('',#2280,#2440,#2500,.T.);
#2520=ORIENTED_EDGE('',*,*,#2510,.T.);
#2530=EDGE_LOOP('',(#2520,#2460,#2380,#2300));
#2540=FACE_OUTER_BOUND('',#2530,.T.);
#2550=CARTESIAN_POINT('',(0.,11.,0.));
#2560=DIRECTION('',(0.,-1.,0.));
#2570=DIRECTION('',(1.,0.,0.));
#2580=AXIS2_PLACEMENT_3D('',#2550,#2560,#2570);
#2590=CIRCLE('',#2580,2.5);
#2600=CARTESIAN_POINT('',(2.5,11.,0.));
#2610=VERTEX_POINT('',#2600);
#2620=CARTESIAN_POINT('',(-2.5,11.,3.06161699786838E-16));
#2630=VERTEX_POINT('',#2620);
#2640=EDGE_CURVE('',#2610,#2630,#2590,.T.);
#2650=ORIENTED_EDGE('',*,*,#2640,.T.);
#2660=EDGE_CURVE('',#2630,#2610,#2590,.T.);
#2670=ORIENTED_EDGE('',*,*,#2660,.T.);
#2680=EDGE_LOOP('',(#2670,#2650));
#2690=FACE_BOUND('',#2680,.T.);
#2700=ADVANCED_FACE('',(#2540,#2690),#2200,.F.);
#2710=CARTESIAN_POINT('',(0.,12.1000024,0.));
#2720=DIRECTION('',(0.,-1.,0.));
#2730=DIRECTION('',(1.,0.,0.));
#2740=AXIS2_PLACEMENT_3D('',#2710,#2720,#2730);
#2750=CYLINDRICAL_SURFACE('',#2740,2.5);
#2760=CARTESIAN_POINT('',(2.5,12.1000024,0.));
#2770=DIRECTION('',(0.,-1.,0.));
#2780=VECTOR('',#2770,1.);
#2790=LINE('',#2760,#2780);
#2800=CARTESIAN_POINT('',(2.5,9.5,0.));
#2810=VERTEX_POINT('',#2800);
#2820=EDGE_CURVE('',#2610,#2810,#2790,.T.);
#2830=ORIENTED_EDGE('',*,*,#2820,.F.);
#2840=CARTESIAN_POINT('',(0.,9.5,0.));
#2850=DIRECTION('',(0.,-1.,0.));
#2860=DIRECTION('',(1.,0.,0.));
#2870=AXIS2_PLACEMENT_3D('',#2840,#2850,#2860);
#2880=CIRCLE('',#2870,2.5);
#2890=CARTESIAN_POINT('',(-2.5,9.5,3.06161699786838E-16));
#2900=VERTEX_POINT('',#2890);
#2910=EDGE_CURVE('',#2900,#2810,#2880,.T.);
#2920=ORIENTED_EDGE('',*,*,#2910,.T.);
#2930=CARTESIAN_POINT('',(-2.5,12.1000024,3.06161699786838E-16));
#2940=DIRECTION('',(0.,-1.,0.));
#2950=VECTOR('',#2940,1.);
#2960=LINE('',#2930,#2950);
#2970=EDGE_CURVE('',#2630,#2900,#2960,.T.);
#2980=ORIENTED_EDGE('',*,*,#2970,.T.);
#2990=ORIENTED_EDGE('',*,*,#2660,.F.);
#3000=EDGE_LOOP('',(#2990,#2980,#2920,#2830));
#3010=FACE_OUTER_BOUND('',#3000,.T.);
#3020=ADVANCED_FACE('',(#3010),#2750,.F.);
#3030=CARTESIAN_POINT('',(0.,9.5,-5.795));
#3040=DIRECTION('',(0.,-1.,0.));
#3050=DIRECTION('',(1.,0.,0.));
#3060=AXIS2_PLACEMENT_3D('',#3030,#3040,#3050);
#3070=PLANE('',#3060);
#3080=CARTESIAN_POINT('',(0.,9.5,0.));
#3090=DIRECTION('',(0.,-1.,0.));
#3100=DIRECTION('',(1.,0.,0.));
#3110=AXIS2_PLACEMENT_3D('',#3080,#3090,#3100);
#3120=CIRCLE('',#3110,4.55);
#3130=CARTESIAN_POINT('',(4.55,9.5,0.));
#3140=VERTEX_POINT('',#3130);
#3150=CARTESIAN_POINT('',(-4.55,9.5,5.57214293612046E-16));
#3160=VERTEX_POINT('',#3150);
#3170=EDGE_CURVE('',#3140,#3160,#3120,.T.);
#3180=ORIENTED_EDGE('',*,*,#3170,.T.);
#3190=EDGE_CURVE('',#3160,#3140,#3120,.T.);
#3200=ORIENTED_EDGE('',*,*,#3190,.T.);
#3210=EDGE_LOOP('',(#3200,#3180));
#3220=FACE_OUTER_BOUND('',#3210,.T.);
#3230=EDGE_CURVE('',#2810,#2900,#2880,.T.);
#3240=ORIENTED_EDGE('',*,*,#3230,.F.);
#3250=ORIENTED_EDGE('',*,*,#2910,.F.);
#3260=EDGE_LOOP('',(#3250,#3240));
#3270=FACE_BOUND('',#3260,.T.);
#3280=ADVANCED_FACE('',(#3220,#3270),#3070,.T.);
#3290=CARTESIAN_POINT('',(0.,12.1000024,0.));
#3300=DIRECTION('',(0.,-1.,0.));
#3310=DIRECTION('',(1.,0.,0.));
#3320=AXIS2_PLACEMENT_3D('',#3290,#3300,#3310);
#3330=CYLINDRICAL_SURFACE('',#3320,2.5);
#3340=ORIENTED_EDGE('',*,*,#2640,.F.);
#3350=ORIENTED_EDGE('',*,*,#2970,.F.);
#3360=ORIENTED_EDGE('',*,*,#3230,.T.);
#3370=ORIENTED_EDGE('',*,*,#2820,.T.);
#3380=EDGE_LOOP('',(#3370,#3360,#3350,#3340));
#3390=FACE_OUTER_BOUND('',#3380,.T.);
#3400=ADVANCED_FACE('',(#3390),#3330,.F.);
#3410=CARTESIAN_POINT('',(7.3,0.,-11.25));
#3420=DIRECTION('',(0.,0.,1.));
#3430=DIRECTION('',(1.,0.,0.));
#3440=AXIS2_PLACEMENT_3D('',#3410,#3420,#3430);
#3450=PLANE('',#3440);
#3460=ORIENTED_EDGE('',*,*,#360,.T.);
#3470=CARTESIAN_POINT('',(7.3,0.,-11.25));
#3480=DIRECTION('',(0.,1.,0.));
#3490=VECTOR('',#3480,1.);
#3500=LINE('',#3470,#3490);
#3510=EDGE_CURVE('',#290,#2260,#3500,.T.);
#3520=ORIENTED_EDGE('',*,*,#3510,.F.);
#3530=ORIENTED_EDGE('',*,*,#2290,.F.);
#3540=CARTESIAN_POINT('',(-7.3,0.,-11.25));
#3550=DIRECTION('',(0.,1.,0.));
#3560=VECTOR('',#3550,1.);
#3570=LINE('',#3540,#3560);
#3580=EDGE_CURVE('',#110,#2280,#3570,.T.);
#3590=ORIENTED_EDGE('',*,*,#3580,.T.);
#3600=EDGE_LOOP('',(#3590,#3530,#3520,#3460));
#3610=FACE_OUTER_BOUND('',#3600,.T.);
#3620=CARTESIAN_POINT('',(0.,1.5,-11.25));
#3630=DIRECTION('',(1.,0.,0.));
#3640=VECTOR('',#3630,1.);
#3650=LINE('',#3620,#3640);
#3660=CARTESIAN_POINT('',(-4.65,1.5,-11.25));
#3670=VERTEX_POINT('',#3660);
#3680=CARTESIAN_POINT('',(4.65,1.5,-11.25));
#3690=VERTEX_POINT('',#3680);
#3700=EDGE_CURVE('',#3670,#3690,#3650,.T.);
#3710=ORIENTED_EDGE('',*,*,#3700,.T.);
#3720=CARTESIAN_POINT('',(-4.65,0.,-11.25));
#3730=DIRECTION('',(0.,-1.,0.));
#3740=VECTOR('',#3730,1.);
#3750=LINE('',#3720,#3740);
#3760=EDGE_CURVE('',#1090,#3670,#3750,.T.);
#3770=ORIENTED_EDGE('',*,*,#3760,.T.);
#3780=ORIENTED_EDGE('',*,*,#1100,.T.);
#3790=CARTESIAN_POINT('',(4.65,0.,-11.25));
#3800=DIRECTION('',(0.,1.,0.));
#3810=VECTOR('',#3800,1.);
#3820=LINE('',#3790,#3810);
#3830=EDGE_CURVE('',#3690,#1010,#3820,.T.);
#3840=ORIENTED_EDGE('',*,*,#3830,.T.);
#3850=EDGE_LOOP('',(#3840,#3780,#3770,#3710));
#3860=FACE_BOUND('',#3850,.T.);
#3870=ADVANCED_FACE('',(#3610,#3860),#3450,.F.);
#3880=CARTESIAN_POINT('',(7.3,0.,11.25));
#3890=DIRECTION('',(-1.,0.,0.));
#3900=DIRECTION('',(0.,0.,1.));
#3910=AXIS2_PLACEMENT_3D('',#3880,#3890,#3900);
#3920=PLANE('',#3910);
#3930=ORIENTED_EDGE('',*,*,#300,.T.);
#3940=CARTESIAN_POINT('',(7.3,0.,-5.55));
#3950=DIRECTION('',(0.,-1.,0.));
#3960=VECTOR('',#3950,1.);
#3970=LINE('',#3940,#3960);
#3980=EDGE_CURVE('',#890,#210,#3970,.T.);
#3990=ORIENTED_EDGE('',*,*,#3980,.T.);
#4000=ORIENTED_EDGE('',*,*,#900,.F.);
#4010=ORIENTED_EDGE('',*,*,#1800,.T.);
#4020=ORIENTED_EDGE('',*,*,#1600,.T.);
#4030=CARTESIAN_POINT('',(7.3,0.,11.25));
#4040=DIRECTION('',(0.,1.,0.));
#4050=VECTOR('',#4040,1.);
#4060=LINE('',#4030,#4050);
#4070=EDGE_CURVE('',#1550,#2360,#4060,.T.);
#4080=ORIENTED_EDGE('',*,*,#4070,.F.);
#4090=ORIENTED_EDGE('',*,*,#2370,.F.);
#4100=ORIENTED_EDGE('',*,*,#3510,.T.);
#4110=EDGE_LOOP('',(#4100,#4090,#4080,#4020,#4010,#4000,#3990,#3930));
#4120=FACE_OUTER_BOUND('',#4110,.T.);
#4130=ADVANCED_FACE('',(#4120),#3920,.F.);
#4140=CARTESIAN_POINT('',(-7.3,0.,11.25));
#4150=DIRECTION('',(0.,0.,-1.));
#4160=DIRECTION('',(-1.,0.,0.));
#4170=AXIS2_PLACEMENT_3D('',#4140,#4150,#4160);
#4180=PLANE('',#4170);
#4190=ORIENTED_EDGE('',*,*,#1560,.T.);
#4200=CARTESIAN_POINT('',(-7.3,0.,11.25));
#4210=DIRECTION('',(0.,1.,0.));
#4220=VECTOR('',#4210,1.);
#4230=LINE('',#4200,#4220);
#4240=EDGE_CURVE('',#1470,#2440,#4230,.T.);
#4250=ORIENTED_EDGE('',*,*,#4240,.F.);
#4260=ORIENTED_EDGE('',*,*,#2450,.F.);
#4270=ORIENTED_EDGE('',*,*,#4070,.T.);
#4280=EDGE_LOOP('',(#4270,#4260,#4250,#4190));
#4290=FACE_OUTER_BOUND('',#4280,.T.);
#4300=CARTESIAN_POINT('',(4.65,0.,11.25));
#4310=DIRECTION('',(0.,-1.,0.));
#4320=VECTOR('',#4310,1.);
#4330=LINE('',#4300,#4320);
#4340=CARTESIAN_POINT('',(4.65,1.5,11.25));
#4350=VERTEX_POINT('',#4340);
#4360=EDGE_CURVE('',#690,#4350,#4330,.T.);
#4370=ORIENTED_EDGE('',*,*,#4360,.T.);
#4380=ORIENTED_EDGE('',*,*,#700,.T.);
#4390=CARTESIAN_POINT('',(-4.65,0.,11.25));
#4400=DIRECTION('',(0.,1.,0.));
#4410=VECTOR('',#4400,1.);
#4420=LINE('',#4390,#4410);
#4430=CARTESIAN_POINT('',(-4.65,1.5,11.25));
#4440=VERTEX_POINT('',#4430);
#4450=EDGE_CURVE('',#4440,#610,#4420,.T.);
#4460=ORIENTED_EDGE('',*,*,#4450,.T.);
#4470=CARTESIAN_POINT('',(0.,1.5,11.25));
#4480=DIRECTION('',(-1.,0.,0.));
#4490=VECTOR('',#4480,1.);
#4500=LINE('',#4470,#4490);
#4510=EDGE_CURVE('',#4350,#4440,#4500,.T.);
#4520=ORIENTED_EDGE('',*,*,#4510,.T.);
#4530=EDGE_LOOP('',(#4520,#4460,#4380,#4370));
#4540=FACE_BOUND('',#4530,.T.);
#4550=ADVANCED_FACE('',(#4290,#4540),#4180,.F.);
#4560=CARTESIAN_POINT('',(-7.3,0.,-11.25));
#4570=DIRECTION('',(1.,-0.,0.));
#4580=DIRECTION('',(0.,0.,-1.));
#4590=AXIS2_PLACEMENT_3D('',#4560,#4570,#4580);
#4600=PLANE('',#4590);
#4610=ORIENTED_EDGE('',*,*,#1480,.T.);
#4620=ORIENTED_EDGE('',*,*,#2100,.T.);
#4630=ORIENTED_EDGE('',*,*,#1240,.F.);
#4640=CARTESIAN_POINT('',(-7.3,0.,-5.55));
#4650=DIRECTION('',(0.,1.,0.));
#4660=VECTOR('',#4650,1.);
#4670=LINE('',#4640,#4660);
#4680=EDGE_CURVE('',#130,#1170,#4670,.T.);
#4690=ORIENTED_EDGE('',*,*,#4680,.T.);
#4700=ORIENTED_EDGE('',*,*,#140,.T.);
#4710=ORIENTED_EDGE('',*,*,#3580,.F.);
#4720=ORIENTED_EDGE('',*,*,#2510,.F.);
#4730=ORIENTED_EDGE('',*,*,#4240,.T.);
#4740=EDGE_LOOP('',(#4730,#4720,#4710,#4700,#4690,#4630,#4620,#4610));
#4750=FACE_OUTER_BOUND('',#4740,.T.);
#4760=ADVANCED_FACE('',(#4750),#4600,.F.);
#4770=CARTESIAN_POINT('',(0.,5.5,0.));
#4780=DIRECTION('',(0.,-1.,0.));
#4790=DIRECTION('',(1.,0.,0.));
#4800=AXIS2_PLACEMENT_3D('',#4770,#4780,#4790);
#4810=CYLINDRICAL_SURFACE('',#4800,4.55);
#4820=CARTESIAN_POINT('',(4.55,5.5,0.));
#4830=DIRECTION('',(0.,-1.,0.));
#4840=VECTOR('',#4830,1.);
#4850=LINE('',#4820,#4840);
#4860=EDGE_CURVE('',#3140,#1340,#4850,.T.);
#4870=ORIENTED_EDGE('',*,*,#4860,.F.);
#4880=ORIENTED_EDGE('',*,*,#1390,.T.);
#4890=CARTESIAN_POINT('',(-4.55,5.5,5.57214293612046E-16));
#4900=DIRECTION('',(0.,-1.,0.));
#4910=VECTOR('',#4900,1.);
#4920=LINE('',#4890,#4910);
#4930=EDGE_CURVE('',#3160,#1360,#4920,.T.);
#4940=ORIENTED_EDGE('',*,*,#4930,.T.);
#4950=ORIENTED_EDGE('',*,*,#3190,.F.);
#4960=EDGE_LOOP('',(#4950,#4940,#4880,#4870));
#4970=FACE_OUTER_BOUND('',#4960,.T.);
#4980=ADVANCED_FACE('',(#4970),#4810,.F.);
#4990=CARTESIAN_POINT('',(9.1,5.5,-5.55));
#5000=DIRECTION('',(0.,0.,-1.));
#5010=DIRECTION('',(-1.,0.,0.));
#5020=AXIS2_PLACEMENT_3D('',#4990,#5000,#5010);
#5030=PLANE('',#5020);
#5040=ORIENTED_EDGE('',*,*,#4680,.F.);
#5050=ORIENTED_EDGE('',*,*,#1180,.T.);
#5060=CARTESIAN_POINT('',(-4.65,0.,-5.55));
#5070=DIRECTION('',(0.,1.,0.));
#5080=VECTOR('',#5070,1.);
#5090=LINE('',#5060,#5080);
#5100=CARTESIAN_POINT('',(-4.65,1.5,-5.55));
#5110=VERTEX_POINT('',#5100);
#5120=EDGE_CURVE('',#5110,#1130,#5090,.T.);
#5130=ORIENTED_EDGE('',*,*,#5120,.T.);
#5140=CARTESIAN_POINT('',(0.,1.5,-5.55));
#5150=DIRECTION('',(-1.,0.,0.));
#5160=VECTOR('',#5150,1.);
#5170=LINE('',#5140,#5160);
#5180=CARTESIAN_POINT('',(4.65,1.5,-5.55));
#5190=VERTEX_POINT('',#5180);
#5200=EDGE_CURVE('',#5190,#5110,#5170,.T.);
#5210=ORIENTED_EDGE('',*,*,#5200,.T.);
#5220=CARTESIAN_POINT('',(4.65,0.,-5.55));
#5230=DIRECTION('',(0.,-1.,0.));
#5240=VECTOR('',#5230,1.);
#5250=LINE('',#5220,#5240);
#5260=EDGE_CURVE('',#970,#5190,#5250,.T.);
#5270=ORIENTED_EDGE('',*,*,#5260,.T.);
#5280=ORIENTED_EDGE('',*,*,#980,.T.);
#5290=ORIENTED_EDGE('',*,*,#3980,.F.);
#5300=ORIENTED_EDGE('',*,*,#220,.T.);
#5310=EDGE_LOOP('',(#5300,#5290,#5280,#5270,#5210,#5130,#5050,#5040));
#5320=FACE_OUTER_BOUND('',#5310,.T.);
#5330=ADVANCED_FACE('',(#5320),#5030,.F.);
#5340=CARTESIAN_POINT('',(-4.65,5.5,13.5000024));
#5350=DIRECTION('',(-1.,0.,0.));
#5360=DIRECTION('',(0.,-1.,0.));
#5370=AXIS2_PLACEMENT_3D('',#5340,#5350,#5360);
#5380=PLANE('',#5370);
#5390=ORIENTED_EDGE('',*,*,#620,.F.);
#5400=ORIENTED_EDGE('',*,*,#2030,.F.);
#5410=CARTESIAN_POINT('',(-4.65,1.5,13.5000024));
#5420=DIRECTION('',(0.,0.,-1.));
#5430=VECTOR('',#5420,1.);
#5440=LINE('',#5410,#5430);
#5450=EDGE_CURVE('',#4440,#1960,#5440,.T.);
#5460=ORIENTED_EDGE('',*,*,#5450,.T.);
#5470=ORIENTED_EDGE('',*,*,#4450,.F.);
#5480=EDGE_LOOP('',(#5470,#5460,#5400,#5390));
#5490=FACE_OUTER_BOUND('',#5480,.T.);
#5500=ADVANCED_FACE('',(#5490),#5380,.F.);
#5510=ORIENTED_EDGE('',*,*,#1140,.F.);
#5520=ORIENTED_EDGE('',*,*,#3760,.F.);
#5530=EDGE_CURVE('',#5110,#3670,#5440,.T.);
#5540=ORIENTED_EDGE('',*,*,#5530,.T.);
#5550=ORIENTED_EDGE('',*,*,#5120,.F.);
#5560=EDGE_LOOP('',(#5550,#5540,#5520,#5510));
#5570=FACE_OUTER_BOUND('',#5560,.T.);
#5580=ADVANCED_FACE('',(#5570),#5380,.F.);
#5590=CARTESIAN_POINT('',(4.65,1.5,13.5000024));
#5600=DIRECTION('',(1.,0.,0.));
#5610=DIRECTION('',(0.,1.,0.));
#5620=AXIS2_PLACEMENT_3D('',#5590,#5600,#5610);
#5630=PLANE('',#5620);
#5640=ORIENTED_EDGE('',*,*,#1020,.T.);
#5650=ORIENTED_EDGE('',*,*,#5260,.F.);
#5660=CARTESIAN_POINT('',(4.65,1.5,13.5000024));
#5670=DIRECTION('',(0.,0.,-1.));
#5680=VECTOR('',#5670,1.);
#5690=LINE('',#5660,#5680);
#5700=EDGE_CURVE('',#5190,#3690,#5690,.T.);
#5710=ORIENTED_EDGE('',*,*,#5700,.F.);
#5720=ORIENTED_EDGE('',*,*,#3830,.F.);
#5730=EDGE_LOOP('',(#5720,#5710,#5650,#5640));
#5740=FACE_OUTER_BOUND('',#5730,.T.);
#5750=ADVANCED_FACE('',(#5740),#5630,.F.);
#5760=CARTESIAN_POINT('',(-4.65,1.5,13.5000024));
#5770=DIRECTION('',(0.,-1.,0.));
#5780=DIRECTION('',(1.,0.,0.));
#5790=AXIS2_PLACEMENT_3D('',#5760,#5770,#5780);
#5800=PLANE('',#5790);
#5810=ORIENTED_EDGE('',*,*,#5530,.F.);
#5820=ORIENTED_EDGE('',*,*,#3700,.F.);
#5830=ORIENTED_EDGE('',*,*,#5700,.T.);
#5840=ORIENTED_EDGE('',*,*,#5200,.F.);
#5850=EDGE_LOOP('',(#5840,#5830,#5820,#5810));
#5860=FACE_OUTER_BOUND('',#5850,.T.);
#5870=ADVANCED_FACE('',(#5860),#5800,.F.);
#5880=ORIENTED_EDGE('',*,*,#5450,.F.);
#5890=ORIENTED_EDGE('',*,*,#1970,.F.);
#5900=EDGE_CURVE('',#4350,#1880,#5690,.T.);
#5910=ORIENTED_EDGE('',*,*,#5900,.T.);
#5920=ORIENTED_EDGE('',*,*,#4510,.F.);
#5930=EDGE_LOOP('',(#5920,#5910,#5890,#5880));
#5940=FACE_OUTER_BOUND('',#5930,.T.);
#5950=ADVANCED_FACE('',(#5940),#5800,.F.);
#5960=ORIENTED_EDGE('',*,*,#5900,.F.);
#5970=ORIENTED_EDGE('',*,*,#1890,.F.);
#5980=ORIENTED_EDGE('',*,*,#780,.T.);
#5990=ORIENTED_EDGE('',*,*,#4360,.F.);
#6000=EDGE_LOOP('',(#5990,#5980,#5970,#5960));
#6010=FACE_OUTER_BOUND('',#6000,.T.);
#6020=ADVANCED_FACE('',(#6010),#5630,.F.);
#6030=CARTESIAN_POINT('',(0.,5.5,0.));
#6040=DIRECTION('',(0.,-1.,0.));
#6050=DIRECTION('',(1.,0.,0.));
#6060=AXIS2_PLACEMENT_3D('',#6030,#6040,#6050);
#6070=CYLINDRICAL_SURFACE('',#6060,4.55);
#6080=ORIENTED_EDGE('',*,*,#3170,.F.);
#6090=ORIENTED_EDGE('',*,*,#4930,.F.);
#6100=ORIENTED_EDGE('',*,*,#1370,.T.);
#6110=ORIENTED_EDGE('',*,*,#4860,.T.);
#6120=EDGE_LOOP('',(#6110,#6100,#6090,#6080));
#6130=FACE_OUTER_BOUND('',#6120,.T.);
#6140=ADVANCED_FACE('',(#6130),#6070,.F.);
#6150=CLOSED_SHELL('',(#3870,#4130,#4550,#4760,#4980,#5330,#5500,#5580,
#5750,#5870,#5950,#6020,#6140,#2700,#3020,#3280,#3400,#400,#1430,#1700,
#2150));
#6160=MANIFOLD_SOLID_BREP('',#6150);
#6170=CARTESIAN_POINT('',(0.,0.,0.));
#6180=DIRECTION('',(0.,0.,1.));
#6190=DIRECTION('',(1.,0.,0.));
#6200=AXIS2_PLACEMENT_3D('',#6170,#6180,#6190);
#6210=APPLICATION_CONTEXT(' ');
#6220=APPLICATION_PROTOCOL_DEFINITION(' ','automotive_design',1998,#6210
);
#6230=PRODUCT_CONTEXT('',#6210,'mechanical');
#6240=PRODUCT_DEFINITION_CONTEXT('part definition',#6210,'design');
#6250=PRODUCT('3240705_WT_BASE_HF_9_BK-select',
'3240705_WT_BASE_HF_9_BK-select','',(#6230));
#6260=PRODUCT_RELATED_PRODUCT_CATEGORY('part',' ',(#6250));
#6270=PRODUCT_DEFINITION_FORMATION_WITH_SPECIFIED_SOURCE('','',#6250,
.BOUGHT.);
#6280=PRODUCT_DEFINITION('',' ',#6270,#6240);
#6290=PRODUCT_DEFINITION_SHAPE('','',#6280);
#6300=DIMENSIONAL_EXPONENTS(1.,0.,0.,0.,0.,0.,0.);
#6310=DIMENSIONAL_EXPONENTS(0.,0.,0.,0.,0.,0.,0.);
#6320=DIMENSIONAL_EXPONENTS(0.,0.,0.,0.,0.,0.,0.);
#6330=(LENGTH_UNIT() NAMED_UNIT(*) SI_UNIT(.MILLI.,.METRE.));
#6340=(NAMED_UNIT(*) PLANE_ANGLE_UNIT() SI_UNIT($,.RADIAN.));
#6350=(NAMED_UNIT(*) SI_UNIT($,.STERADIAN.) SOLID_ANGLE_UNIT());
#6360=(GEOMETRIC_REPRESENTATION_CONTEXT(3) 
GLOBAL_UNCERTAINTY_ASSIGNED_CONTEXT((#6370)) 
GLOBAL_UNIT_ASSIGNED_CONTEXT((#6330,#6340,#6350)) REPRESENTATION_CONTEXT
('',''));
#6370=UNCERTAINTY_MEASURE_WITH_UNIT(LENGTH_MEASURE(1.E-6),#6330,
'distance_accuracy_value','maximum gap value');
#6380=ADVANCED_BREP_SHAPE_REPRESENTATION('',(#6200,#6160),#6360);
#6390=SHAPE_DEFINITION_REPRESENTATION(#6290,#6380);
#6400=COLOUR_RGB('',0.,0.,0.);
#6410=FILL_AREA_STYLE_COLOUR('',#6400);
#6420=FILL_AREA_STYLE('',(#6410));
#6430=SURFACE_STYLE_FILL_AREA(#6420);
#6440=SURFACE_SIDE_STYLE('',(#6430));
#6450=SURFACE_STYLE_USAGE(.BOTH.,#6440);
#6460=PRESENTATION_STYLE_ASSIGNMENT((#6450));
#6470=STYLED_ITEM('',(#6460),#6160);
#6480=DRAUGHTING_MODEL('',(#6470),#6360);
#6490=CARTESIAN_POINT('',(0.,11.,0.));
#6500=DIRECTION('',(-1.,0.,0.));
#6510=DIRECTION('',(0.,0.,-1.));
#6520=AXIS2_PLACEMENT_3D('',#6490,#6500,#6510);
#6530=ITEM_DEFINED_TRANSFORMATION('3240705_WT_BASE_HF_9_BK-select','',
#6200,#6520);
#6540=APPLICATION_CONTEXT(' ');
#6550=APPLICATION_PROTOCOL_DEFINITION(' ','automotive_design',1998,#6540
);
#6560=PRODUCT_CONTEXT('',#6540,'mechanical');
#6570=PRODUCT_DEFINITION_CONTEXT('part definition',#6540,'design');
#6580=PRODUCT('3240705_WT_BASE_HF_9_BK-select',
'3240705_WT_BASE_HF_9_BK-select','',(#6560));
#6590=PRODUCT_RELATED_PRODUCT_CATEGORY('part',' ',(#6580));
#6600=PRODUCT_DEFINITION_FORMATION_WITH_SPECIFIED_SOURCE('','',#6580,
.BOUGHT.);
#6610=PRODUCT_DEFINITION('',' ',#6600,#6570);
#6620=PRODUCT_DEFINITION_SHAPE('','',#6610);
#6630=DIMENSIONAL_EXPONENTS(1.,0.,0.,0.,0.,0.,0.);
#6640=DIMENSIONAL_EXPONENTS(0.,0.,0.,0.,0.,0.,0.);
#6650=DIMENSIONAL_EXPONENTS(0.,0.,0.,0.,0.,0.,0.);
#6660=(LENGTH_UNIT() NAMED_UNIT(*) SI_UNIT(.MILLI.,.METRE.));
#6670=(NAMED_UNIT(*) PLANE_ANGLE_UNIT() SI_UNIT($,.RADIAN.));
#6680=(NAMED_UNIT(*) SI_UNIT($,.STERADIAN.) SOLID_ANGLE_UNIT());
#6690=(GEOMETRIC_REPRESENTATION_CONTEXT(3) 
GLOBAL_UNCERTAINTY_ASSIGNED_CONTEXT((#6700)) 
GLOBAL_UNIT_ASSIGNED_CONTEXT((#6660,#6670,#6680)) REPRESENTATION_CONTEXT
('',''));
#6700=UNCERTAINTY_MEASURE_WITH_UNIT(LENGTH_MEASURE(1.E-6),#6660,
'distance_accuracy_value','maximum gap value');
#6710=SHAPE_REPRESENTATION('',(#6200,#6520),#6690);
#6720=SHAPE_DEFINITION_REPRESENTATION(#6620,#6710);
#6730=(REPRESENTATION_RELATIONSHIP('','',#6380,#6710) 
REPRESENTATION_RELATIONSHIP_WITH_TRANSFORMATION(#6530) 
SHAPE_REPRESENTATION_RELATIONSHIP());
#6740=NEXT_ASSEMBLY_USAGE_OCCURRENCE('1','',
'3240705_WT_BASE_HF_9_BK-select',#6610,#6280,'');
#6750=PRODUCT_DEFINITION_SHAPE('','',#6740);
#6760=CONTEXT_DEPENDENT_SHAPE_REPRESENTATION(#6730,#6750);
ENDSEC;
END-ISO-10303-21;
