ISO-10303-21;
HEADER;
FILE_DESCRIPTION(('SolidDesigner STEP Export'),'2;1');
FILE_NAME('3240286_CD_COVER_40-select.stp','2016-08-10T13:41:19',(''),(
''),
'Creo Elements/Direct Modeling STEP processor for AP214 (Solid Model)',
'Creo Elements/Direct Modeling 18.1G  27-Feb-2015 (C) Parametric Technol
ogy GmbH','');
FILE_SCHEMA(('AUTOMOTIVE_DESIGN { 1 0 10303 214 1 1 1 1 }'));
ENDSEC;
DATA;
#10=CARTESIAN_POINT('',(0.,0.,0.));
#20=DIRECTION('',(0.,0.,1.));
#30=DIRECTION('',(1.,0.,0.));
#40=AXIS2_PLACEMENT_3D('',#10,#20,#30);
#50=PLANE('',#40);
#60=CARTESIAN_POINT('',(43.153846,44.538462,0.));
#70=DIRECTION('',(-1.,0.,0.));
#80=VECTOR('',#70,1.);
#90=LINE('',#60,#80);
#100=CARTESIAN_POINT('',(43.153846,44.538462,0.));
#110=VERTEX_POINT('',#100);
#120=CARTESIAN_POINT('',(-56.846154,44.538462,0.));
#130=VERTEX_POINT('',#120);
#140=EDGE_CURVE('',#110,#130,#90,.T.);
#150=ORIENTED_EDGE('',*,*,#140,.T.);
#160=CARTESIAN_POINT('',(43.153846,19.538462,0.));
#170=DIRECTION('',(0.,1.,0.));
#180=VECTOR('',#170,1.);
#190=LINE('',#160,#180);
#200=CARTESIAN_POINT('',(43.153846,29.538462,0.));
#210=VERTEX_POINT('',#200);
#220=EDGE_CURVE('',#210,#110,#190,.T.);
#230=ORIENTED_EDGE('',*,*,#220,.T.);
#240=CARTESIAN_POINT('',(18.153846,29.538462,0.));
#250=DIRECTION('',(1.,0.,0.));
#260=VECTOR('',#250,1.);
#270=LINE('',#240,#260);
#280=CARTESIAN_POINT('',(-56.846154,29.538462,0.));
#290=VERTEX_POINT('',#280);
#300=EDGE_CURVE('',#290,#210,#270,.T.);
#310=ORIENTED_EDGE('',*,*,#300,.T.);
#320=CARTESIAN_POINT('',(-56.846154,44.538462,0.));
#330=DIRECTION('',(0.,-1.,0.));
#340=VECTOR('',#330,1.);
#350=LINE('',#320,#340);
#360=EDGE_CURVE('',#130,#290,#350,.T.);
#370=ORIENTED_EDGE('',*,*,#360,.T.);
#380=EDGE_LOOP('',(#370,#310,#230,#150));
#390=FACE_OUTER_BOUND('',#380,.T.);
#400=ADVANCED_FACE('',(#390),#50,.T.);
#410=COLOUR_RGB('',0.501960813999176,0.52549022436142,0.501960813999176)
;
#420=FILL_AREA_STYLE_COLOUR('',#410);
#430=FILL_AREA_STYLE('',(#420));
#440=SURFACE_STYLE_FILL_AREA(#430);
#450=SURFACE_SIDE_STYLE('',(#440));
#460=SURFACE_STYLE_USAGE(.BOTH.,#450);
#470=PRESENTATION_STYLE_ASSIGNMENT((#460));
#480=CARTESIAN_POINT('',(43.153846,19.538462,0.));
#490=DIRECTION('',(1.,0.,0.));
#500=DIRECTION('',(0.,-1.,0.));
#510=AXIS2_PLACEMENT_3D('',#480,#490,#500);
#520=PLANE('',#510);
#530=CARTESIAN_POINT('',(43.153846,44.538462,0.));
#540=DIRECTION('',(0.,0.,-1.));
#550=VECTOR('',#540,1.);
#560=LINE('',#530,#550);
#570=CARTESIAN_POINT('',(43.153846,44.538462,-200.));
#580=VERTEX_POINT('',#570);
#590=EDGE_CURVE('',#110,#580,#560,.T.);
#600=ORIENTED_EDGE('',*,*,#590,.F.);
#610=CARTESIAN_POINT('',(43.153846,0.,-200.));
#620=DIRECTION('',(0.,1.,0.));
#630=VECTOR('',#620,1.);
#640=LINE('',#610,#630);
#650=CARTESIAN_POINT('',(43.153846,29.538462,-200.));
#660=VERTEX_POINT('',#650);
#670=EDGE_CURVE('',#660,#580,#640,.T.);
#680=ORIENTED_EDGE('',*,*,#670,.T.);
#690=CARTESIAN_POINT('',(43.153846,29.538462,0.));
#700=DIRECTION('',(0.,0.,-1.));
#710=VECTOR('',#700,1.);
#720=LINE('',#690,#710);
#730=EDGE_CURVE('',#210,#660,#720,.T.);
#740=ORIENTED_EDGE('',*,*,#730,.T.);
#750=ORIENTED_EDGE('',*,*,#220,.F.);
#760=EDGE_LOOP('',(#750,#740,#680,#600));
#770=FACE_OUTER_BOUND('',#760,.T.);
#780=ADVANCED_FACE('',(#770),#520,.T.);
#790=COLOUR_RGB('',0.501960813999176,0.52549022436142,0.501960813999176)
;
#800=FILL_AREA_STYLE_COLOUR('',#790);
#810=FILL_AREA_STYLE('',(#800));
#820=SURFACE_STYLE_FILL_AREA(#810);
#830=SURFACE_SIDE_STYLE('',(#820));
#840=SURFACE_STYLE_USAGE(.BOTH.,#830);
#850=PRESENTATION_STYLE_ASSIGNMENT((#840));
#860=CARTESIAN_POINT('',(30.653846,32.038462,-200.));
#870=DIRECTION('',(-0.,-0.,-1.));
#880=DIRECTION('',(0.,-1.,0.));
#890=AXIS2_PLACEMENT_3D('',#860,#870,#880);
#900=PLANE('',#890);
#910=CARTESIAN_POINT('',(0.,29.538462,-200.));
#920=DIRECTION('',(1.,0.,0.));
#930=VECTOR('',#920,1.);
#940=LINE('',#910,#930);
#950=CARTESIAN_POINT('',(-56.846154,29.538462,-200.));
#960=VERTEX_POINT('',#950);
#970=EDGE_CURVE('',#960,#660,#940,.T.);
#980=ORIENTED_EDGE('',*,*,#970,.F.);
#990=ORIENTED_EDGE('',*,*,#670,.F.);
#1000=CARTESIAN_POINT('',(0.,44.538462,-200.));
#1010=DIRECTION('',(-1.,0.,0.));
#1020=VECTOR('',#1010,1.);
#1030=LINE('',#1000,#1020);
#1040=CARTESIAN_POINT('',(-56.846154,44.538462,-200.));
#1050=VERTEX_POINT('',#1040);
#1060=EDGE_CURVE('',#580,#1050,#1030,.T.);
#1070=ORIENTED_EDGE('',*,*,#1060,.F.);
#1080=CARTESIAN_POINT('',(-56.846154,0.,-200.));
#1090=DIRECTION('',(0.,-1.,0.));
#1100=VECTOR('',#1090,1.);
#1110=LINE('',#1080,#1100);
#1120=EDGE_CURVE('',#1050,#960,#1110,.T.);
#1130=ORIENTED_EDGE('',*,*,#1120,.F.);
#1140=EDGE_LOOP('',(#1130,#1070,#990,#980));
#1150=FACE_OUTER_BOUND('',#1140,.T.);
#1160=ADVANCED_FACE('',(#1150),#900,.T.);
#1170=COLOUR_RGB('',0.501960813999176,0.52549022436142,0.501960813999176
);
#1180=FILL_AREA_STYLE_COLOUR('',#1170);
#1190=FILL_AREA_STYLE('',(#1180));
#1200=SURFACE_STYLE_FILL_AREA(#1190);
#1210=SURFACE_SIDE_STYLE('',(#1200));
#1220=SURFACE_STYLE_USAGE(.BOTH.,#1210);
#1230=PRESENTATION_STYLE_ASSIGNMENT((#1220));
#1240=CARTESIAN_POINT('',(-56.846154,44.538462,0.));
#1250=DIRECTION('',(-1.,0.,0.));
#1260=DIRECTION('',(0.,1.,0.));
#1270=AXIS2_PLACEMENT_3D('',#1240,#1250,#1260);
#1280=PLANE('',#1270);
#1290=CARTESIAN_POINT('',(-56.846154,29.538462,0.));
#1300=DIRECTION('',(0.,0.,-1.));
#1310=VECTOR('',#1300,1.);
#1320=LINE('',#1290,#1310);
#1330=EDGE_CURVE('',#290,#960,#1320,.T.);
#1340=ORIENTED_EDGE('',*,*,#1330,.F.);
#1350=ORIENTED_EDGE('',*,*,#1120,.T.);
#1360=CARTESIAN_POINT('',(-56.846154,44.538462,0.));
#1370=DIRECTION('',(0.,0.,-1.));
#1380=VECTOR('',#1370,1.);
#1390=LINE('',#1360,#1380);
#1400=EDGE_CURVE('',#130,#1050,#1390,.T.);
#1410=ORIENTED_EDGE('',*,*,#1400,.T.);
#1420=ORIENTED_EDGE('',*,*,#360,.F.);
#1430=EDGE_LOOP('',(#1420,#1410,#1350,#1340));
#1440=FACE_OUTER_BOUND('',#1430,.T.);
#1450=ADVANCED_FACE('',(#1440),#1280,.T.);
#1460=COLOUR_RGB('',0.501960813999176,0.52549022436142,0.501960813999176
);
#1470=FILL_AREA_STYLE_COLOUR('',#1460);
#1480=FILL_AREA_STYLE('',(#1470));
#1490=SURFACE_STYLE_FILL_AREA(#1480);
#1500=SURFACE_SIDE_STYLE('',(#1490));
#1510=SURFACE_STYLE_USAGE(.BOTH.,#1500);
#1520=PRESENTATION_STYLE_ASSIGNMENT((#1510));
#1530=CARTESIAN_POINT('',(43.153846,44.538462,0.));
#1540=DIRECTION('',(-0.,1.,0.));
#1550=DIRECTION('',(1.,0.,0.));
#1560=AXIS2_PLACEMENT_3D('',#1530,#1540,#1550);
#1570=PLANE('',#1560);
#1580=ORIENTED_EDGE('',*,*,#1400,.F.);
#1590=ORIENTED_EDGE('',*,*,#1060,.T.);
#1600=ORIENTED_EDGE('',*,*,#590,.T.);
#1610=ORIENTED_EDGE('',*,*,#140,.F.);
#1620=EDGE_LOOP('',(#1610,#1600,#1590,#1580));
#1630=FACE_OUTER_BOUND('',#1620,.T.);
#1640=ADVANCED_FACE('',(#1630),#1570,.T.);
#1650=COLOUR_RGB('',0.501960813999176,0.52549022436142,0.501960813999176
);
#1660=FILL_AREA_STYLE_COLOUR('',#1650);
#1670=FILL_AREA_STYLE('',(#1660));
#1680=SURFACE_STYLE_FILL_AREA(#1670);
#1690=SURFACE_SIDE_STYLE('',(#1680));
#1700=SURFACE_STYLE_USAGE(.BOTH.,#1690);
#1710=PRESENTATION_STYLE_ASSIGNMENT((#1700));
#1720=CARTESIAN_POINT('',(30.653846,29.538462,-100.));
#1730=DIRECTION('',(0.,-1.,0.));
#1740=DIRECTION('',(0.,0.,-1.));
#1750=AXIS2_PLACEMENT_3D('',#1720,#1730,#1740);
#1760=PLANE('',#1750);
#1770=ORIENTED_EDGE('',*,*,#730,.F.);
#1780=ORIENTED_EDGE('',*,*,#970,.T.);
#1790=ORIENTED_EDGE('',*,*,#1330,.T.);
#1800=ORIENTED_EDGE('',*,*,#300,.F.);
#1810=EDGE_LOOP('',(#1800,#1790,#1780,#1770));
#1820=FACE_OUTER_BOUND('',#1810,.T.);
#1830=ADVANCED_FACE('',(#1820),#1760,.T.);
#1840=COLOUR_RGB('',0.501960813999176,0.52549022436142,0.501960813999176
);
#1850=FILL_AREA_STYLE_COLOUR('',#1840);
#1860=FILL_AREA_STYLE('',(#1850));
#1870=SURFACE_STYLE_FILL_AREA(#1860);
#1880=SURFACE_SIDE_STYLE('',(#1870));
#1890=SURFACE_STYLE_USAGE(.BOTH.,#1880);
#1900=PRESENTATION_STYLE_ASSIGNMENT((#1890));
#1910=CLOSED_SHELL('',(#780,#1160,#1450,#1640,#1830,#400));
#1920=MANIFOLD_SOLID_BREP('',#1910);
#1930=CARTESIAN_POINT('',(0.,0.,0.));
#1940=DIRECTION('',(0.,0.,1.));
#1950=DIRECTION('',(1.,0.,0.));
#1960=AXIS2_PLACEMENT_3D('',#1930,#1940,#1950);
#1970=APPLICATION_CONTEXT(' ');
#1980=APPLICATION_PROTOCOL_DEFINITION(' ','automotive_design',1998,#1970
);
#1990=PRODUCT_CONTEXT('',#1970,'mechanical');
#2000=PRODUCT_DEFINITION_CONTEXT('part definition',#1970,'design');
#2010=PRODUCT('3240286_CD_COVER_40-select','3240286_CD_COVER_40-select',
'',(#1990));
#2020=PRODUCT_RELATED_PRODUCT_CATEGORY('part',' ',(#2010));
#2030=PRODUCT_DEFINITION_FORMATION_WITH_SPECIFIED_SOURCE('','',#2010,
.BOUGHT.);
#2040=PRODUCT_DEFINITION('',' ',#2030,#2000);
#2050=PRODUCT_DEFINITION_SHAPE('','',#2040);
#2060=DIMENSIONAL_EXPONENTS(1.,0.,0.,0.,0.,0.,0.);
#2070=DIMENSIONAL_EXPONENTS(0.,0.,0.,0.,0.,0.,0.);
#2080=DIMENSIONAL_EXPONENTS(0.,0.,0.,0.,0.,0.,0.);
#2090=(LENGTH_UNIT() NAMED_UNIT(*) SI_UNIT(.MILLI.,.METRE.));
#2100=(NAMED_UNIT(*) PLANE_ANGLE_UNIT() SI_UNIT($,.RADIAN.));
#2110=(NAMED_UNIT(*) SI_UNIT($,.STERADIAN.) SOLID_ANGLE_UNIT());
#2120=(GEOMETRIC_REPRESENTATION_CONTEXT(3) 
GLOBAL_UNCERTAINTY_ASSIGNED_CONTEXT((#2130)) 
GLOBAL_UNIT_ASSIGNED_CONTEXT((#2090,#2100,#2110)) REPRESENTATION_CONTEXT
('',''));
#2130=UNCERTAINTY_MEASURE_WITH_UNIT(LENGTH_MEASURE(1.E-6),#2090,
'distance_accuracy_value','maximum gap value');
#2140=ADVANCED_BREP_SHAPE_REPRESENTATION('',(#1960,#1920),#2120);
#2150=SHAPE_DEFINITION_REPRESENTATION(#2050,#2140);
#2160=COLOUR_RGB('',0.501960813999176,0.52549022436142,0.501960813999176
);
#2170=FILL_AREA_STYLE_COLOUR('',#2160);
#2180=FILL_AREA_STYLE('',(#2170));
#2190=SURFACE_STYLE_FILL_AREA(#2180);
#2200=SURFACE_SIDE_STYLE('',(#2190));
#2210=SURFACE_STYLE_USAGE(.BOTH.,#2200);
#2220=PRESENTATION_STYLE_ASSIGNMENT((#2210));
#2230=STYLED_ITEM('',(#2220),#1920);
#2240=OVER_RIDING_STYLED_ITEM('',(#470),#400,#2230);
#2250=OVER_RIDING_STYLED_ITEM('',(#850),#780,#2230);
#2260=OVER_RIDING_STYLED_ITEM('',(#1230),#1160,#2230);
#2270=OVER_RIDING_STYLED_ITEM('',(#1520),#1450,#2230);
#2280=OVER_RIDING_STYLED_ITEM('',(#1710),#1640,#2230);
#2290=OVER_RIDING_STYLED_ITEM('',(#1900),#1830,#2230);
#2300=DRAUGHTING_MODEL('',(#2230,#2240,#2250,#2260,#2270,#2280,#2290),
#2120);
#2310=CARTESIAN_POINT('',(43.153846,44.538462,0.));
#2320=DIRECTION('',(0.,0.,1.));
#2330=DIRECTION('',(-1.,0.,0.));
#2340=AXIS2_PLACEMENT_3D('',#2310,#2320,#2330);
#2350=ITEM_DEFINED_TRANSFORMATION('3240286_CD_COVER_40-select','',#1960,
#2340);
#2360=APPLICATION_CONTEXT(' ');
#2370=APPLICATION_PROTOCOL_DEFINITION(' ','automotive_design',1998,#2360
);
#2380=PRODUCT_CONTEXT('',#2360,'mechanical');
#2390=PRODUCT_DEFINITION_CONTEXT('part definition',#2360,'design');
#2400=PRODUCT('3240286_CD_COVER_40-select','3240286_CD_COVER_40-select',
'',(#2380));
#2410=PRODUCT_RELATED_PRODUCT_CATEGORY('part',' ',(#2400));
#2420=PRODUCT_DEFINITION_FORMATION_WITH_SPECIFIED_SOURCE('','',#2400,
.BOUGHT.);
#2430=PRODUCT_DEFINITION('',' ',#2420,#2390);
#2440=PRODUCT_DEFINITION_SHAPE('','',#2430);
#2450=DIMENSIONAL_EXPONENTS(1.,0.,0.,0.,0.,0.,0.);
#2460=DIMENSIONAL_EXPONENTS(0.,0.,0.,0.,0.,0.,0.);
#2470=DIMENSIONAL_EXPONENTS(0.,0.,0.,0.,0.,0.,0.);
#2480=(LENGTH_UNIT() NAMED_UNIT(*) SI_UNIT(.MILLI.,.METRE.));
#2490=(NAMED_UNIT(*) PLANE_ANGLE_UNIT() SI_UNIT($,.RADIAN.));
#2500=(NAMED_UNIT(*) SI_UNIT($,.STERADIAN.) SOLID_ANGLE_UNIT());
#2510=(GEOMETRIC_REPRESENTATION_CONTEXT(3) 
GLOBAL_UNCERTAINTY_ASSIGNED_CONTEXT((#2520)) 
GLOBAL_UNIT_ASSIGNED_CONTEXT((#2480,#2490,#2500)) REPRESENTATION_CONTEXT
('',''));
#2520=UNCERTAINTY_MEASURE_WITH_UNIT(LENGTH_MEASURE(1.E-6),#2480,
'distance_accuracy_value','maximum gap value');
#2530=SHAPE_REPRESENTATION('',(#1960,#2340),#2510);
#2540=SHAPE_DEFINITION_REPRESENTATION(#2440,#2530);
#2550=(REPRESENTATION_RELATIONSHIP('','',#2140,#2530) 
REPRESENTATION_RELATIONSHIP_WITH_TRANSFORMATION(#2350) 
SHAPE_REPRESENTATION_RELATIONSHIP());
#2560=NEXT_ASSEMBLY_USAGE_OCCURRENCE('1','','3240286_CD_COVER_40-select'
,#2430,#2040,'');
#2570=PRODUCT_DEFINITION_SHAPE('','',#2560);
#2580=CONTEXT_DEPENDENT_SHAPE_REPRESENTATION(#2550,#2570);
ENDSEC;
END-ISO-10303-21;
