ISO-10303-21;
HEADER;
FILE_DESCRIPTION(('SolidDesigner STEP Export'),'2;1');
FILE_NAME('3240083_C_RC_6_M4_DIN-select.stp','2017-05-03T13:27:09',(''),
(''),
'Creo Elements/Direct Modeling STEP processor for AP214 (Solid Model)',
'Creo Elements/Direct Modeling 18.1G  27-Feb-2015 (C) Parametric Technol
ogy GmbH','');
FILE_SCHEMA(('AUTOMOTIVE_DESIGN { 1 0 10303 214 1 1 1 1 }'));
ENDSEC;
DATA;
#10=CARTESIAN_POINT('',(6.67871070561319,210.096753790556,
126.729944402148));
#20=DIRECTION('',(-5.91634389092459E-9,0.169437138749457,
-0.985540996616781));
#30=DIRECTION('',(1.,5.42947599190825E-9,-5.06969170343868E-9));
#40=AXIS2_PLACEMENT_3D('',#10,#20,#30);
#50=PLANE('',#40);
#60=CARTESIAN_POINT('',(7.55918008253938,209.935310516682,
126.702188589149));
#70=DIRECTION('',(-5.9163439113108E-9,0.169437138749457,
-0.985540996616781));
#80=DIRECTION('',(0.150207606047662,0.974359518819137,0.167514784935454)
);
#90=AXIS2_PLACEMENT_3D('',#60,#70,#80);
#100=CIRCLE('',#90,2.15);
#110=CARTESIAN_POINT('',(7.88212643554185,212.030183482144,
127.06234537676));
#120=VERTEX_POINT('',#110);
#130=CARTESIAN_POINT('',(7.23623372953691,207.840437551221,
126.342031801538));
#140=VERTEX_POINT('',#130);
#150=EDGE_CURVE('',#120,#140,#100,.T.);
#160=ORIENTED_EDGE('',*,*,#150,.F.);
#170=EDGE_CURVE('',#140,#120,#100,.T.);
#180=ORIENTED_EDGE('',*,*,#170,.F.);
#190=EDGE_LOOP('',(#180,#160));
#200=FACE_BOUND('',#190,.T.);
#210=CARTESIAN_POINT('',(7.55918008253938,209.935310516682,
126.702188589149));
#220=DIRECTION('',(-5.9163439113108E-9,0.169437138749457,
-0.985540996616781));
#230=DIRECTION('',(0.150207606047662,0.974359518819137,0.167514784935454
));
#240=AXIS2_PLACEMENT_3D('',#210,#220,#230);
#250=CIRCLE('',#240,4.);
#260=CARTESIAN_POINT('',(7.5430817211438,213.877442576744,
127.379931655361));
#270=VERTEX_POINT('',#260);
#280=CARTESIAN_POINT('',(6.35579039783256,206.175777974536,
126.055838582357));
#290=VERTEX_POINT('',#280);
#300=EDGE_CURVE('',#270,#290,#250,.T.);
#310=ORIENTED_EDGE('',*,*,#300,.T.);
#320=CARTESIAN_POINT('',(0.0705255626908139,213.847803191556,
127.374836008983));
#330=DIRECTION('',(0.999991901303467,0.00396639978586409,
0.000681909242603122));
#340=VECTOR('',#330,1.);
#350=LINE('',#320,#340);
#360=CARTESIAN_POINT('',(0.0705255626908299,213.847803191556,
127.374836008983));
#370=VERTEX_POINT('',#360);
#380=EDGE_CURVE('',#370,#270,#350,.T.);
#390=ORIENTED_EDGE('',*,*,#380,.T.);
#400=CARTESIAN_POINT('',(-0.770637031176107,208.391389886169,
126.436753213344));
#410=DIRECTION('',(0.150207606047667,0.974359518819136,0.167514784935454
));
#420=VECTOR('',#410,1.);
#430=LINE('',#400,#420);
#440=CARTESIAN_POINT('',(-0.0278963100330776,213.209364892246,
127.265073798692));
#450=VERTEX_POINT('',#440);
#460=EDGE_CURVE('',#450,#370,#430,.T.);
#470=ORIENTED_EDGE('',*,*,#460,.T.);
#480=CARTESIAN_POINT('',(-3.66838748151274,189.594400780625,
123.205118968866));
#490=DIRECTION('',(0.150207606047667,0.974359518819136,0.167514784935453
));
#500=VECTOR('',#490,1.);
#510=LINE('',#480,#500);
#520=CARTESIAN_POINT('',(-0.350055734242628,211.119596538863,
126.905794611163));
#530=VERTEX_POINT('',#520);
#540=EDGE_CURVE('',#530,#450,#510,.T.);
#550=ORIENTED_EDGE('',*,*,#540,.T.);
#560=CARTESIAN_POINT('',(-0.672215158452176,209.02982818548,
126.546515423635));
#570=VERTEX_POINT('',#560);
#580=EDGE_CURVE('',#570,#530,#510,.T.);
#590=ORIENTED_EDGE('',*,*,#580,.T.);
#600=CARTESIAN_POINT('',(-0.770637031176107,208.391389886169,
126.436753213344));
#610=VERTEX_POINT('',#600);
#620=EDGE_CURVE('',#610,#570,#430,.T.);
#630=ORIENTED_EDGE('',*,*,#620,.T.);
#640=CARTESIAN_POINT('',(-0.770637031176093,208.391389886169,
126.436753213344));
#650=DIRECTION('',(0.95367228604554,-0.296497466340071,
-0.0509747318050057));
#660=VECTOR('',#650,1.);
#670=LINE('',#640,#660);
#680=EDGE_CURVE('',#610,#290,#670,.T.);
#690=ORIENTED_EDGE('',*,*,#680,.F.);
#700=EDGE_LOOP('',(#690,#630,#590,#550,#470,#390,#310));
#710=FACE_OUTER_BOUND('',#700,.T.);
#720=ADVANCED_FACE('',(#200,#710),#50,.T.);
#730=COLOUR_RGB('',0.752941250801086,0.752941250801086,0.752941250801086
);
#740=FILL_AREA_STYLE_COLOUR('',#730);
#750=FILL_AREA_STYLE('',(#740));
#760=SURFACE_STYLE_FILL_AREA(#750);
#770=SURFACE_SIDE_STYLE('',(#760));
#780=SURFACE_STYLE_USAGE(.BOTH.,#770);
#790=PRESENTATION_STYLE_ASSIGNMENT((#780));
#800=CARTESIAN_POINT('',(-0.350055731284459,211.034877969488,
127.398565109472));
#810=DIRECTION('',(-0.988654477097752,0.148035752772563,
0.0254507527517684));
#820=DIRECTION('',(0.150207606047667,0.974359518819136,0.167514784935454
));
#830=AXIS2_PLACEMENT_3D('',#800,#810,#820);
#840=PLANE('',#830);
#850=ORIENTED_EDGE('',*,*,#580,.F.);
#860=CARTESIAN_POINT('',(-0.350055744892047,211.424583388612,
125.131820817253));
#870=DIRECTION('',(-0.988654477097752,0.148035752772563,
0.0254507527517684));
#880=DIRECTION('',(0.150207606047667,0.974359518819136,0.167514784935454
));
#890=AXIS2_PLACEMENT_3D('',#860,#870,#880);
#900=CIRCLE('',#890,1.8);
#910=CARTESIAN_POINT('',(-0.620429435777847,209.670736254737,
124.830294204369));
#920=VERTEX_POINT('',#910);
#930=EDGE_CURVE('',#920,#530,#900,.T.);
#940=ORIENTED_EDGE('',*,*,#930,.T.);
#950=CARTESIAN_POINT('',(-0.0796820540062468,213.178430522486,
125.433347430137));
#960=VERTEX_POINT('',#950);
#970=EDGE_CURVE('',#960,#920,#900,.T.);
#980=ORIENTED_EDGE('',*,*,#970,.T.);
#990=EDGE_CURVE('',#530,#960,#900,.T.);
#1000=ORIENTED_EDGE('',*,*,#990,.T.);
#1010=ORIENTED_EDGE('',*,*,#540,.F.);
#1020=CARTESIAN_POINT('',(-0.350055744892047,211.424583388612,
125.131820817253));
#1030=DIRECTION('',(-0.988654477097752,0.148035752772563,
0.0254507527517684));
#1040=DIRECTION('',(0.150207606047667,0.974359518819136,
0.167514784935454));
#1050=AXIS2_PLACEMENT_3D('',#1020,#1030,#1040);
#1060=CIRCLE('',#1050,2.8);
#1070=CARTESIAN_POINT('',(0.0705255520414205,214.152790041305,
125.600862215072));
#1080=VERTEX_POINT('',#1070);
#1090=EDGE_CURVE('',#450,#1080,#1060,.T.);
#1100=ORIENTED_EDGE('',*,*,#1090,.F.);
#1110=CARTESIAN_POINT('',(-0.770637041825514,208.696376735918,
124.662779419434));
#1120=VERTEX_POINT('',#1110);
#1130=EDGE_CURVE('',#1080,#1120,#1060,.T.);
#1140=ORIENTED_EDGE('',*,*,#1130,.F.);
#1150=EDGE_CURVE('',#1120,#570,#1060,.T.);
#1160=ORIENTED_EDGE('',*,*,#1150,.F.);
#1170=EDGE_LOOP('',(#1160,#1140,#1100,#1010,#1000,#980,#940,#850));
#1180=FACE_OUTER_BOUND('',#1170,.T.);
#1190=ADVANCED_FACE('',(#1180),#840,.F.);
#1200=CARTESIAN_POINT('',(0.0705255686071737,213.678366052807,
128.360377005599));
#1210=DIRECTION('',(-0.988654477097752,0.148035752772563,
0.0254507527517684));
#1220=DIRECTION('',(-0.150207606047667,-0.974359518819136,
-0.167514784935454));
#1230=AXIS2_PLACEMENT_3D('',#1200,#1210,#1220);
#1240=PLANE('',#1230);
#1250=CARTESIAN_POINT('',(-0.770637025259763,208.22195274742,
127.422294209961));
#1260=DIRECTION('',(0.150207606047667,0.974359518819136,
0.167514784935454));
#1270=VECTOR('',#1260,1.);
#1280=LINE('',#1250,#1270);
#1290=CARTESIAN_POINT('',(-0.770637025259763,208.22195274742,
127.422294209961));
#1300=VERTEX_POINT('',#1290);
#1310=CARTESIAN_POINT('',(-0.350055728326284,210.950159400113,
127.89133560778));
#1320=VERTEX_POINT('',#1310);
#1330=EDGE_CURVE('',#1300,#1320,#1280,.T.);
#1340=ORIENTED_EDGE('',*,*,#1330,.T.);
#1350=CARTESIAN_POINT('',(-0.770637025259763,208.22195274742,
127.422294209961));
#1360=DIRECTION('',(-5.9163439113108E-9,0.169437138749457,
-0.985540996616781));
#1370=VECTOR('',#1360,1.);
#1380=LINE('',#1350,#1370);
#1390=EDGE_CURVE('',#1300,#610,#1380,.T.);
#1400=ORIENTED_EDGE('',*,*,#1390,.F.);
#1410=ORIENTED_EDGE('',*,*,#620,.F.);
#1420=CARTESIAN_POINT('',(-0.350055744892052,211.424583388612,
125.131820817253));
#1430=DIRECTION('',(-0.988654477097752,0.148035752772563,
0.0254507527517684));
#1440=DIRECTION('',(0.150207606047667,0.974359518819136,
0.167514784935454));
#1450=AXIS2_PLACEMENT_3D('',#1420,#1430,#1440);
#1460=CIRCLE('',#1450,2.8);
#1470=EDGE_CURVE('',#570,#1320,#1460,.T.);
#1480=ORIENTED_EDGE('',*,*,#1470,.F.);
#1490=EDGE_LOOP('',(#1480,#1410,#1400,#1340));
#1500=FACE_OUTER_BOUND('',#1490,.T.);
#1510=ADVANCED_FACE('',(#1500),#1240,.T.);
#1520=CARTESIAN_POINT('',(4.51457056543855,190.016245859751,
124.292314913497));
#1530=DIRECTION('',(-5.91634391478024E-9,0.169437138749457,
-0.985540996616781));
#1540=DIRECTION('',(0.150207606047662,0.974359518819137,
0.167514784935454));
#1550=AXIS2_PLACEMENT_3D('',#1520,#1530,#1540);
#1560=PLANE('',#1550);
#1570=CARTESIAN_POINT('',(-0.770637025259749,208.22195274742,
127.422294209961));
#1580=DIRECTION('',(0.95367228604554,-0.296497466340071,
-0.0509747318050057));
#1590=VECTOR('',#1580,1.);
#1600=LINE('',#1570,#1590);
#1610=CARTESIAN_POINT('',(6.35579040374891,206.006340835786,
127.041379578974));
#1620=VERTEX_POINT('',#1610);
#1630=EDGE_CURVE('',#1300,#1620,#1600,.T.);
#1640=ORIENTED_EDGE('',*,*,#1630,.T.);
#1650=ORIENTED_EDGE('',*,*,#1330,.F.);
#1660=CARTESIAN_POINT('',(0.0705255686071737,213.678366052807,
128.360377005599));
#1670=VERTEX_POINT('',#1660);
#1680=EDGE_CURVE('',#1320,#1670,#1280,.T.);
#1690=ORIENTED_EDGE('',*,*,#1680,.F.);
#1700=CARTESIAN_POINT('',(0.0705255686071578,213.678366052807,
128.360377005599));
#1710=DIRECTION('',(0.999991901303467,0.00396639978586409,
0.000681909242603122));
#1720=VECTOR('',#1710,1.);
#1730=LINE('',#1700,#1720);
#1740=CARTESIAN_POINT('',(7.54308172706015,213.708005437994,
128.365472651978));
#1750=VERTEX_POINT('',#1740);
#1760=EDGE_CURVE('',#1670,#1750,#1730,.T.);
#1770=ORIENTED_EDGE('',*,*,#1760,.F.);
#1780=CARTESIAN_POINT('',(7.55918008845572,209.765873377933,
127.687729585766));
#1790=DIRECTION('',(-5.9163439113108E-9,0.169437138749457,
-0.985540996616781));
#1800=DIRECTION('',(0.150207606047662,0.974359518819137,
0.167514784935454));
#1810=AXIS2_PLACEMENT_3D('',#1780,#1790,#1800);
#1820=CIRCLE('',#1810,4.);
#1830=EDGE_CURVE('',#1750,#1620,#1820,.T.);
#1840=ORIENTED_EDGE('',*,*,#1830,.F.);
#1850=EDGE_LOOP('',(#1840,#1770,#1690,#1650,#1640));
#1860=FACE_OUTER_BOUND('',#1850,.T.);
#1870=CARTESIAN_POINT('',(7.55918008845572,209.765873377933,
127.687729585766));
#1880=DIRECTION('',(-5.9163439113108E-9,0.169437138749457,
-0.985540996616781));
#1890=DIRECTION('',(0.150207606047662,0.974359518819137,
0.167514784935454));
#1900=AXIS2_PLACEMENT_3D('',#1870,#1880,#1890);
#1910=CIRCLE('',#1900,2.15);
#1920=CARTESIAN_POINT('',(7.88212644145819,211.860746343394,
128.047886373377));
#1930=VERTEX_POINT('',#1920);
#1940=CARTESIAN_POINT('',(7.23623373545325,207.671000412472,
127.327572798155));
#1950=VERTEX_POINT('',#1940);
#1960=EDGE_CURVE('',#1930,#1950,#1910,.T.);
#1970=ORIENTED_EDGE('',*,*,#1960,.T.);
#1980=EDGE_CURVE('',#1950,#1930,#1910,.T.);
#1990=ORIENTED_EDGE('',*,*,#1980,.T.);
#2000=EDGE_LOOP('',(#1990,#1970));
#2010=FACE_BOUND('',#2000,.T.);
#2020=ADVANCED_FACE('',(#1860,#2010),#1560,.F.);
#2030=CARTESIAN_POINT('',(7.55918008845572,209.765873377933,
127.687729585766));
#2040=DIRECTION('',(-5.9163439113108E-9,0.169437138749457,
-0.985540996616781));
#2050=DIRECTION('',(0.150207606047662,0.974359518819137,
0.167514784935454));
#2060=AXIS2_PLACEMENT_3D('',#2030,#2040,#2050);
#2070=CYLINDRICAL_SURFACE('',#2060,2.15);
#2080=CARTESIAN_POINT('',(7.23623373545325,207.671000412472,
127.327572798155));
#2090=DIRECTION('',(-5.9163439113108E-9,0.169437138749457,
-0.985540996616781));
#2100=VECTOR('',#2090,1.);
#2110=LINE('',#2080,#2100);
#2120=EDGE_CURVE('',#1950,#140,#2110,.T.);
#2130=ORIENTED_EDGE('',*,*,#2120,.T.);
#2140=ORIENTED_EDGE('',*,*,#1980,.F.);
#2150=CARTESIAN_POINT('',(7.88212644145819,211.860746343394,
128.047886373377));
#2160=DIRECTION('',(-5.9163439113108E-9,0.169437138749457,
-0.985540996616781));
#2170=VECTOR('',#2160,1.);
#2180=LINE('',#2150,#2170);
#2190=EDGE_CURVE('',#1930,#120,#2180,.T.);
#2200=ORIENTED_EDGE('',*,*,#2190,.F.);
#2210=ORIENTED_EDGE('',*,*,#170,.T.);
#2220=EDGE_LOOP('',(#2210,#2200,#2140,#2130));
#2230=FACE_OUTER_BOUND('',#2220,.T.);
#2240=ADVANCED_FACE('',(#2230),#2070,.F.);
#2250=EDGE_CURVE('',#1320,#450,#1460,.T.);
#2260=ORIENTED_EDGE('',*,*,#2250,.F.);
#2270=ORIENTED_EDGE('',*,*,#460,.F.);
#2280=CARTESIAN_POINT('',(0.0705255686071737,213.678366052807,
128.360377005599));
#2290=DIRECTION('',(-5.9163439113108E-9,0.169437138749457,
-0.985540996616781));
#2300=VECTOR('',#2290,1.);
#2310=LINE('',#2280,#2300);
#2320=EDGE_CURVE('',#1670,#370,#2310,.T.);
#2330=ORIENTED_EDGE('',*,*,#2320,.T.);
#2340=ORIENTED_EDGE('',*,*,#1680,.T.);
#2350=EDGE_LOOP('',(#2340,#2330,#2270,#2260));
#2360=FACE_OUTER_BOUND('',#2350,.T.);
#2370=ADVANCED_FACE('',(#2360),#1240,.T.);
#2380=CARTESIAN_POINT('',(-0.770637025259763,208.22195274742,
127.422294209961));
#2390=DIRECTION('',(-0.300847421176705,-0.939883135536709,
-0.161587501698029));
#2400=DIRECTION('',(0.95367228604554,-0.296497466340071,
-0.0509747318050057));
#2410=AXIS2_PLACEMENT_3D('',#2380,#2390,#2400);
#2420=PLANE('',#2410);
#2430=CARTESIAN_POINT('',(6.35579040374891,206.006340835786,
127.041379578974));
#2440=DIRECTION('',(-5.9163439113108E-9,0.169437138749457,
-0.985540996616781));
#2450=VECTOR('',#2440,1.);
#2460=LINE('',#2430,#2450);
#2470=EDGE_CURVE('',#1620,#290,#2460,.T.);
#2480=ORIENTED_EDGE('',*,*,#2470,.F.);
#2490=ORIENTED_EDGE('',*,*,#680,.T.);
#2500=ORIENTED_EDGE('',*,*,#1390,.T.);
#2510=ORIENTED_EDGE('',*,*,#1630,.F.);
#2520=EDGE_LOOP('',(#2510,#2500,#2490,#2480));
#2530=FACE_OUTER_BOUND('',#2520,.T.);
#2540=ADVANCED_FACE('',(#2530),#2420,.T.);
#2550=CARTESIAN_POINT('',(7.55918008845572,209.765873377933,
127.687729585766));
#2560=DIRECTION('',(-5.9163439113108E-9,0.169437138749457,
-0.985540996616781));
#2570=DIRECTION('',(0.150207606047662,0.974359518819137,
0.167514784935454));
#2580=AXIS2_PLACEMENT_3D('',#2550,#2560,#2570);
#2590=CYLINDRICAL_SURFACE('',#2580,4.);
#2600=CARTESIAN_POINT('',(7.54308172706015,213.708005437994,
128.365472651978));
#2610=DIRECTION('',(-5.9163439113108E-9,0.169437138749457,
-0.985540996616781));
#2620=VECTOR('',#2610,1.);
#2630=LINE('',#2600,#2620);
#2640=EDGE_CURVE('',#1750,#270,#2630,.T.);
#2650=ORIENTED_EDGE('',*,*,#2640,.F.);
#2660=ORIENTED_EDGE('',*,*,#300,.F.);
#2670=ORIENTED_EDGE('',*,*,#2470,.T.);
#2680=ORIENTED_EDGE('',*,*,#1830,.T.);
#2690=EDGE_LOOP('',(#2680,#2670,#2660,#2650));
#2700=FACE_OUTER_BOUND('',#2690,.T.);
#2710=ADVANCED_FACE('',(#2700),#2590,.T.);
#2720=CARTESIAN_POINT('',(7.54308172706015,213.708005437994,
128.365472651978));
#2730=DIRECTION('',(-0.00402459034889456,0.985533015015294,
0.169435766552956));
#2740=DIRECTION('',(-0.999991901303467,-0.00396639978586409,
-0.000681909242603122));
#2750=AXIS2_PLACEMENT_3D('',#2720,#2730,#2740);
#2760=PLANE('',#2750);
#2770=ORIENTED_EDGE('',*,*,#2320,.F.);
#2780=ORIENTED_EDGE('',*,*,#380,.F.);
#2790=ORIENTED_EDGE('',*,*,#2640,.T.);
#2800=ORIENTED_EDGE('',*,*,#1760,.T.);
#2810=EDGE_LOOP('',(#2800,#2790,#2780,#2770));
#2820=FACE_OUTER_BOUND('',#2810,.T.);
#2830=ADVANCED_FACE('',(#2820),#2760,.T.);
#2840=CARTESIAN_POINT('',(-0.350055744892047,211.424583388612,
125.131820817253));
#2850=DIRECTION('',(-0.988654477097752,0.148035752772563,
0.0254507527517684));
#2860=DIRECTION('',(0.150207606047667,0.974359518819136,
0.167514784935454));
#2870=AXIS2_PLACEMENT_3D('',#2840,#2850,#2860);
#2880=CYLINDRICAL_SURFACE('',#2870,2.8);
#2890=CARTESIAN_POINT('',(0.0705255520414205,214.152790041305,
125.600862215072));
#2900=DIRECTION('',(-0.988654477097752,0.148035752772563,
0.0254507527517684));
#2910=VECTOR('',#2900,1.);
#2920=LINE('',#2890,#2910);
#2930=CARTESIAN_POINT('',(-5.86140131054509,215.041004557941,
125.753566731583));
#2940=VERTEX_POINT('',#2930);
#2950=EDGE_CURVE('',#1080,#2940,#2920,.T.);
#2960=ORIENTED_EDGE('',*,*,#2950,.T.);
#2970=ORIENTED_EDGE('',*,*,#1090,.T.);
#2980=ORIENTED_EDGE('',*,*,#2250,.T.);
#2990=ORIENTED_EDGE('',*,*,#1470,.T.);
#3000=ORIENTED_EDGE('',*,*,#1150,.T.);
#3010=CARTESIAN_POINT('',(-0.770637041825514,208.696376735918,
124.662779419434));
#3020=DIRECTION('',(-0.988654477097752,0.148035752772563,
0.0254507527517684));
#3030=VECTOR('',#3020,1.);
#3040=LINE('',#3010,#3030);
#3050=CARTESIAN_POINT('',(-6.70256390441202,209.584591252554,
124.815483935945));
#3060=VERTEX_POINT('',#3050);
#3070=EDGE_CURVE('',#1120,#3060,#3040,.T.);
#3080=ORIENTED_EDGE('',*,*,#3070,.F.);
#3090=CARTESIAN_POINT('',(-6.28198260747856,212.312797905247,
125.284525333764));
#3100=DIRECTION('',(-0.988654477097752,0.148035752772563,
0.0254507527517684));
#3110=DIRECTION('',(0.150207606047667,0.974359518819136,
0.167514784935454));
#3120=AXIS2_PLACEMENT_3D('',#3090,#3100,#3110);
#3130=CIRCLE('',#3120,2.8);
#3140=EDGE_CURVE('',#3060,#2940,#3130,.T.);
#3150=ORIENTED_EDGE('',*,*,#3140,.F.);
#3160=EDGE_LOOP('',(#3150,#3080,#3000,#2990,#2980,#2970,#2960));
#3170=FACE_OUTER_BOUND('',#3160,.T.);
#3180=ADVANCED_FACE('',(#3170),#2880,.T.);
#3190=CARTESIAN_POINT('',(-6.28198259387097,211.923092486123,
127.551269625982));
#3200=DIRECTION('',(-0.988654477097752,0.148035752772563,
0.0254507527517684));
#3210=DIRECTION('',(0.150207606047667,0.974359518819136,
0.167514784935454));
#3220=AXIS2_PLACEMENT_3D('',#3190,#3200,#3210);
#3230=PLANE('',#3220);
#3240=EDGE_CURVE('',#2940,#3060,#3130,.T.);
#3250=ORIENTED_EDGE('',*,*,#3240,.T.);
#3260=ORIENTED_EDGE('',*,*,#3140,.T.);
#3270=EDGE_LOOP('',(#3260,#3250));
#3280=FACE_OUTER_BOUND('',#3270,.T.);
#3290=CARTESIAN_POINT('',(-6.28198260747856,212.312797905247,
125.284525333764));
#3300=DIRECTION('',(-0.988654477097752,0.148035752772563,
0.0254507527517684));
#3310=DIRECTION('',(0.150207606047667,0.974359518819136,
0.167514784935454));
#3320=AXIS2_PLACEMENT_3D('',#3290,#3300,#3310);
#3330=CIRCLE('',#3320,1.8);
#3340=CARTESIAN_POINT('',(-6.01160891659276,214.066645039122,
125.586051946648));
#3350=VERTEX_POINT('',#3340);
#3360=CARTESIAN_POINT('',(-6.55235629836436,210.558950771373,
124.98299872088));
#3370=VERTEX_POINT('',#3360);
#3380=EDGE_CURVE('',#3350,#3370,#3330,.T.);
#3390=ORIENTED_EDGE('',*,*,#3380,.F.);
#3400=EDGE_CURVE('',#3370,#3350,#3330,.T.);
#3410=ORIENTED_EDGE('',*,*,#3400,.F.);
#3420=EDGE_LOOP('',(#3410,#3390));
#3430=FACE_BOUND('',#3420,.T.);
#3440=ADVANCED_FACE('',(#3280,#3430),#3230,.T.);
#3450=CARTESIAN_POINT('',(-0.350055744892047,211.424583388612,
125.131820817253));
#3460=DIRECTION('',(-0.988654477097752,0.148035752772563,
0.0254507527517684));
#3470=DIRECTION('',(0.150207606047667,0.974359518819136,
0.167514784935454));
#3480=AXIS2_PLACEMENT_3D('',#3450,#3460,#3470);
#3490=CYLINDRICAL_SURFACE('',#3480,1.8);
#3500=CARTESIAN_POINT('',(-0.620429435777847,209.670736254737,
124.830294204369));
#3510=DIRECTION('',(-0.988654477097752,0.148035752772563,
0.0254507527517684));
#3520=VECTOR('',#3510,1.);
#3530=LINE('',#3500,#3520);
#3540=EDGE_CURVE('',#920,#3370,#3530,.T.);
#3550=ORIENTED_EDGE('',*,*,#3540,.T.);
#3560=ORIENTED_EDGE('',*,*,#930,.F.);
#3570=ORIENTED_EDGE('',*,*,#990,.F.);
#3580=CARTESIAN_POINT('',(-0.0796820540062465,213.178430522486,
125.433347430137));
#3590=DIRECTION('',(-0.988654477097752,0.148035752772563,
0.0254507527517684));
#3600=VECTOR('',#3590,1.);
#3610=LINE('',#3580,#3600);
#3620=EDGE_CURVE('',#960,#3350,#3610,.T.);
#3630=ORIENTED_EDGE('',*,*,#3620,.F.);
#3640=ORIENTED_EDGE('',*,*,#3400,.T.);
#3650=EDGE_LOOP('',(#3640,#3630,#3570,#3560,#3550));
#3660=FACE_OUTER_BOUND('',#3650,.T.);
#3670=ADVANCED_FACE('',(#3660),#3490,.F.);
#3680=CARTESIAN_POINT('',(-0.350055744892047,211.424583388612,
125.131820817253));
#3690=DIRECTION('',(-0.988654477097752,0.148035752772563,
0.0254507527517684));
#3700=DIRECTION('',(0.150207606047667,0.974359518819136,
0.167514784935454));
#3710=AXIS2_PLACEMENT_3D('',#3680,#3690,#3700);
#3720=CYLINDRICAL_SURFACE('',#3710,1.8);
#3730=ORIENTED_EDGE('',*,*,#970,.F.);
#3740=ORIENTED_EDGE('',*,*,#3540,.F.);
#3750=ORIENTED_EDGE('',*,*,#3380,.T.);
#3760=ORIENTED_EDGE('',*,*,#3620,.T.);
#3770=EDGE_LOOP('',(#3760,#3750,#3740,#3730));
#3780=FACE_OUTER_BOUND('',#3770,.T.);
#3790=ADVANCED_FACE('',(#3780),#3720,.F.);
#3800=CARTESIAN_POINT('',(7.55918008845572,209.765873377933,
127.687729585766));
#3810=DIRECTION('',(-5.9163439113108E-9,0.169437138749457,
-0.985540996616781));
#3820=DIRECTION('',(0.150207606047662,0.974359518819137,
0.167514784935454));
#3830=AXIS2_PLACEMENT_3D('',#3800,#3810,#3820);
#3840=CYLINDRICAL_SURFACE('',#3830,2.15);
#3850=ORIENTED_EDGE('',*,*,#150,.T.);
#3860=ORIENTED_EDGE('',*,*,#2190,.T.);
#3870=ORIENTED_EDGE('',*,*,#1960,.F.);
#3880=ORIENTED_EDGE('',*,*,#2120,.F.);
#3890=EDGE_LOOP('',(#3880,#3870,#3860,#3850));
#3900=FACE_OUTER_BOUND('',#3890,.T.);
#3910=ADVANCED_FACE('',(#3900),#3840,.F.);
#3920=CARTESIAN_POINT('',(-0.350055744892047,211.424583388612,
125.131820817253));
#3930=DIRECTION('',(-0.988654477097752,0.148035752772563,
0.0254507527517684));
#3940=DIRECTION('',(0.150207606047667,0.974359518819136,
0.167514784935454));
#3950=AXIS2_PLACEMENT_3D('',#3920,#3930,#3940);
#3960=CYLINDRICAL_SURFACE('',#3950,2.8);
#3970=ORIENTED_EDGE('',*,*,#1130,.T.);
#3980=ORIENTED_EDGE('',*,*,#2950,.F.);
#3990=ORIENTED_EDGE('',*,*,#3240,.F.);
#4000=ORIENTED_EDGE('',*,*,#3070,.T.);
#4010=EDGE_LOOP('',(#4000,#3990,#3980,#3970));
#4020=FACE_OUTER_BOUND('',#4010,.T.);
#4030=ADVANCED_FACE('',(#4020),#3960,.T.);
#4040=CLOSED_SHELL('',(#720,#1190,#1510,#2020,#2240,#2370,#2540,#2710,
#2830,#3180,#3440,#3670,#3790,#3910,#4030));
#4050=MANIFOLD_SOLID_BREP('',#4040);
#4060=CARTESIAN_POINT('',(0.,0.,0.));
#4070=DIRECTION('',(0.,0.,1.));
#4080=DIRECTION('',(1.,0.,0.));
#4090=AXIS2_PLACEMENT_3D('',#4060,#4070,#4080);
#4100=APPLICATION_CONTEXT(' ');
#4110=APPLICATION_PROTOCOL_DEFINITION(' ','automotive_design',1998,#4100
);
#4120=PRODUCT_CONTEXT('',#4100,'mechanical');
#4130=PRODUCT_DEFINITION_CONTEXT('part definition',#4100,'design');
#4140=PRODUCT('3240083_C_RC_6_M4_DIN-select',
'3240083_C_RC_6_M4_DIN-select','',(#4120));
#4150=PRODUCT_RELATED_PRODUCT_CATEGORY('part',' ',(#4140));
#4160=PRODUCT_DEFINITION_FORMATION_WITH_SPECIFIED_SOURCE('','',#4140,
.BOUGHT.);
#4170=PRODUCT_DEFINITION('',' ',#4160,#4130);
#4180=PRODUCT_DEFINITION_SHAPE('','',#4170);
#4190=DIMENSIONAL_EXPONENTS(1.,0.,0.,0.,0.,0.,0.);
#4200=DIMENSIONAL_EXPONENTS(0.,0.,0.,0.,0.,0.,0.);
#4210=DIMENSIONAL_EXPONENTS(0.,0.,0.,0.,0.,0.,0.);
#4220=(LENGTH_UNIT() NAMED_UNIT(*) SI_UNIT(.MILLI.,.METRE.));
#4230=(NAMED_UNIT(*) PLANE_ANGLE_UNIT() SI_UNIT($,.RADIAN.));
#4240=(NAMED_UNIT(*) SI_UNIT($,.STERADIAN.) SOLID_ANGLE_UNIT());
#4250=(GEOMETRIC_REPRESENTATION_CONTEXT(3) 
GLOBAL_UNCERTAINTY_ASSIGNED_CONTEXT((#4260)) 
GLOBAL_UNIT_ASSIGNED_CONTEXT((#4220,#4230,#4240)) REPRESENTATION_CONTEXT
('',''));
#4260=UNCERTAINTY_MEASURE_WITH_UNIT(LENGTH_MEASURE(1.E-6),#4220,
'distance_accuracy_value','maximum gap value');
#4270=ADVANCED_BREP_SHAPE_REPRESENTATION('',(#4090,#4050),#4250);
#4280=SHAPE_DEFINITION_REPRESENTATION(#4180,#4270);
#4290=COLOUR_RGB('',0.752941250801086,0.752941250801086,
0.752941250801086);
#4300=FILL_AREA_STYLE_COLOUR('',#4290);
#4310=FILL_AREA_STYLE('',(#4300));
#4320=SURFACE_STYLE_FILL_AREA(#4310);
#4330=SURFACE_SIDE_STYLE('',(#4320));
#4340=SURFACE_STYLE_USAGE(.BOTH.,#4330);
#4350=PRESENTATION_STYLE_ASSIGNMENT((#4340));
#4360=STYLED_ITEM('',(#4350),#4050);
#4370=OVER_RIDING_STYLED_ITEM('',(#790),#720,#4360);
#4380=DRAUGHTING_MODEL('',(#4360,#4370),#4250);
#4390=CARTESIAN_POINT('',(-226.912404354425,26.8291805689774,
90.0993629239746));
#4400=DIRECTION('',(0.167514784935454,-0.0254507527517675,
-0.985540996616781));
#4410=DIRECTION('',(0.150207606047662,0.988654477097753,
-5.91634391478024E-9));
#4420=AXIS2_PLACEMENT_3D('',#4390,#4400,#4410);
#4430=ITEM_DEFINED_TRANSFORMATION('3240083_C_RC_6_M4_DIN-select','',
#4090,#4420);
#4440=APPLICATION_CONTEXT(' ');
#4450=APPLICATION_PROTOCOL_DEFINITION(' ','automotive_design',1998,#4440
);
#4460=PRODUCT_CONTEXT('',#4440,'mechanical');
#4470=PRODUCT_DEFINITION_CONTEXT('part definition',#4440,'design');
#4480=PRODUCT('3240083_C_RC_6_M4_DIN-select',
'3240083_C_RC_6_M4_DIN-select','',(#4460));
#4490=PRODUCT_RELATED_PRODUCT_CATEGORY('part',' ',(#4480));
#4500=PRODUCT_DEFINITION_FORMATION_WITH_SPECIFIED_SOURCE('','',#4480,
.BOUGHT.);
#4510=PRODUCT_DEFINITION('',' ',#4500,#4470);
#4520=PRODUCT_DEFINITION_SHAPE('','',#4510);
#4530=DIMENSIONAL_EXPONENTS(1.,0.,0.,0.,0.,0.,0.);
#4540=DIMENSIONAL_EXPONENTS(0.,0.,0.,0.,0.,0.,0.);
#4550=DIMENSIONAL_EXPONENTS(0.,0.,0.,0.,0.,0.,0.);
#4560=(LENGTH_UNIT() NAMED_UNIT(*) SI_UNIT(.MILLI.,.METRE.));
#4570=(NAMED_UNIT(*) PLANE_ANGLE_UNIT() SI_UNIT($,.RADIAN.));
#4580=(NAMED_UNIT(*) SI_UNIT($,.STERADIAN.) SOLID_ANGLE_UNIT());
#4590=(GEOMETRIC_REPRESENTATION_CONTEXT(3) 
GLOBAL_UNCERTAINTY_ASSIGNED_CONTEXT((#4600)) 
GLOBAL_UNIT_ASSIGNED_CONTEXT((#4560,#4570,#4580)) REPRESENTATION_CONTEXT
('',''));
#4600=UNCERTAINTY_MEASURE_WITH_UNIT(LENGTH_MEASURE(1.E-6),#4560,
'distance_accuracy_value','maximum gap value');
#4610=SHAPE_REPRESENTATION('',(#4090,#4420),#4590);
#4620=SHAPE_DEFINITION_REPRESENTATION(#4520,#4610);
#4630=(REPRESENTATION_RELATIONSHIP('','',#4270,#4610) 
REPRESENTATION_RELATIONSHIP_WITH_TRANSFORMATION(#4430) 
SHAPE_REPRESENTATION_RELATIONSHIP());
#4640=NEXT_ASSEMBLY_USAGE_OCCURRENCE('1','',
'3240083_C_RC_6_M4_DIN-select',#4510,#4170,'');
#4650=PRODUCT_DEFINITION_SHAPE('','',#4640);
#4660=CONTEXT_DEPENDENT_SHAPE_REPRESENTATION(#4630,#4650);
ENDSEC;
END-ISO-10303-21;
