ISO-10303-21;
HEADER;
FILE_DESCRIPTION(('SolidDesigner STEP Export'),'2;1');
FILE_NAME('3201107_AI_6_12_BK-select.stp','2017-06-20T12:52:40',(''),(''
),'Creo Elements/Direct Modeling STEP processor for AP214 (Solid Model)'
,
'Creo Elements/Direct Modeling 18.1I  13-Aug-2016 (C) Parametric Technol
ogy GmbH','');
FILE_SCHEMA(('AUTOMOTIVE_DESIGN { 1 0 10303 214 1 1 1 1 }'));
ENDSEC;
DATA;
#10=CARTESIAN_POINT('',(79.4172270000259,48.625813,17.096665));
#20=DIRECTION('',(0.,0.,1.));
#30=DIRECTION('',(1.,0.,0.));
#40=AXIS2_PLACEMENT_3D('',#10,#20,#30);
#50=CYLINDRICAL_SURFACE('',#40,1.85);
#60=CARTESIAN_POINT('',(81.2672270000259,48.625813,17.096665));
#70=DIRECTION('',(0.,0.,1.));
#80=VECTOR('',#70,1.);
#90=LINE('',#60,#80);
#100=CARTESIAN_POINT('',(81.2672270000259,48.625813,11.095935));
#110=VERTEX_POINT('',#100);
#120=CARTESIAN_POINT('',(81.2672270000259,48.625813,23.096665));
#130=VERTEX_POINT('',#120);
#140=EDGE_CURVE('',#110,#130,#90,.T.);
#150=ORIENTED_EDGE('',*,*,#140,.T.);
#160=CARTESIAN_POINT('',(79.4172270000259,48.625813,11.095935));
#170=DIRECTION('',(0.,0.,1.));
#180=DIRECTION('',(1.,0.,0.));
#190=AXIS2_PLACEMENT_3D('',#160,#170,#180);
#200=CIRCLE('',#190,1.85);
#210=CARTESIAN_POINT('',(80.5814472079057,47.1880747388535,11.095935));
#220=VERTEX_POINT('',#210);
#230=EDGE_CURVE('',#220,#110,#200,.T.);
#240=ORIENTED_EDGE('',*,*,#230,.T.);
#250=CARTESIAN_POINT('',(77.5672270000259,48.625813,11.095935));
#260=VERTEX_POINT('',#250);
#270=EDGE_CURVE('',#260,#220,#200,.T.);
#280=ORIENTED_EDGE('',*,*,#270,.T.);
#290=CARTESIAN_POINT('',(77.5672270000259,48.625813,17.096665));
#300=DIRECTION('',(0.,0.,1.));
#310=VECTOR('',#300,1.);
#320=LINE('',#290,#310);
#330=CARTESIAN_POINT('',(77.5672270000259,48.625813,23.096665));
#340=VERTEX_POINT('',#330);
#350=EDGE_CURVE('',#260,#340,#320,.T.);
#360=ORIENTED_EDGE('',*,*,#350,.F.);
#370=CARTESIAN_POINT('',(79.4172270000259,48.625813,23.096665));
#380=DIRECTION('',(0.,0.,1.));
#390=DIRECTION('',(1.,0.,0.));
#400=AXIS2_PLACEMENT_3D('',#370,#380,#390);
#410=CIRCLE('',#400,1.85);
#420=EDGE_CURVE('',#340,#130,#410,.T.);
#430=ORIENTED_EDGE('',*,*,#420,.F.);
#440=EDGE_LOOP('',(#430,#360,#280,#240,#150));
#450=FACE_OUTER_BOUND('',#440,.T.);
#460=ADVANCED_FACE('',(#450),#50,.T.);
#470=COLOUR_RGB('',0.823529481887817,0.823529481887817,0.784313797950745
);
#480=FILL_AREA_STYLE_COLOUR('',#470);
#490=FILL_AREA_STYLE('',(#480));
#500=SURFACE_STYLE_FILL_AREA(#490);
#510=SURFACE_SIDE_STYLE('',(#500));
#520=SURFACE_STYLE_USAGE(.BOTH.,#510);
#530=PRESENTATION_STYLE_ASSIGNMENT((#520));
#540=CARTESIAN_POINT('',(78.4775201734814,48.625813,23.096665));
#550=DIRECTION('',(0.,0.,1.));
#560=DIRECTION('',(1.,0.,0.));
#570=AXIS2_PLACEMENT_3D('',#540,#550,#560);
#580=PLANE('',#570);
#590=CARTESIAN_POINT('',(79.4172270000259,48.625813,23.096665));
#600=DIRECTION('',(0.,0.,1.));
#610=DIRECTION('',(0.,-1.,0.));
#620=AXIS2_PLACEMENT_3D('',#590,#600,#610);
#630=CIRCLE('',#620,1.75);
#640=CARTESIAN_POINT('',(79.4172270000259,46.875813,23.096665));
#650=VERTEX_POINT('',#640);
#660=CARTESIAN_POINT('',(79.4172270000259,50.375813,23.096665));
#670=VERTEX_POINT('',#660);
#680=EDGE_CURVE('',#650,#670,#630,.T.);
#690=ORIENTED_EDGE('',*,*,#680,.F.);
#700=EDGE_CURVE('',#670,#650,#630,.T.);
#710=ORIENTED_EDGE('',*,*,#700,.F.);
#720=EDGE_LOOP('',(#710,#690));
#730=FACE_BOUND('',#720,.T.);
#740=EDGE_CURVE('',#130,#340,#410,.T.);
#750=ORIENTED_EDGE('',*,*,#740,.T.);
#760=ORIENTED_EDGE('',*,*,#420,.T.);
#770=EDGE_LOOP('',(#760,#750));
#780=FACE_OUTER_BOUND('',#770,.T.);
#790=ADVANCED_FACE('',(#730,#780),#580,.T.);
#800=COLOUR_RGB('',0.823529481887817,0.823529481887817,0.784313797950745
);
#810=FILL_AREA_STYLE_COLOUR('',#800);
#820=FILL_AREA_STYLE('',(#810));
#830=SURFACE_STYLE_FILL_AREA(#820);
#840=SURFACE_SIDE_STYLE('',(#830));
#850=SURFACE_STYLE_USAGE(.BOTH.,#840);
#860=PRESENTATION_STYLE_ASSIGNMENT((#850));
#870=CARTESIAN_POINT('',(79.9797870039782,47.9310870053825,10.945935));
#880=DIRECTION('',(0.,0.,1.));
#890=DIRECTION('',(-0.629308220475531,0.777155816835929,0.));
#900=AXIS2_PLACEMENT_3D('',#870,#880,#890);
#910=PLANE('',#900);
#920=CARTESIAN_POINT('',(79.4172270000259,48.625813,10.945935));
#930=DIRECTION('',(0.,0.,1.));
#940=DIRECTION('',(0.629308220475531,-0.777155816835929,0.));
#950=AXIS2_PLACEMENT_3D('',#920,#930,#940);
#960=CIRCLE('',#950,1.78786796564404);
#970=CARTESIAN_POINT('',(80.5423470079306,47.2363610107651,10.945935));
#980=VERTEX_POINT('',#970);
#990=CARTESIAN_POINT('',(78.2921069921213,50.0152649892349,10.945935));
#1000=VERTEX_POINT('',#990);
#1010=EDGE_CURVE('',#980,#1000,#960,.T.);
#1020=ORIENTED_EDGE('',*,*,#1010,.F.);
#1030=EDGE_CURVE('',#1000,#980,#960,.T.);
#1040=ORIENTED_EDGE('',*,*,#1030,.F.);
#1050=EDGE_LOOP('',(#1040,#1020));
#1060=FACE_OUTER_BOUND('',#1050,.T.);
#1070=CARTESIAN_POINT('',(79.4172270000259,48.625813,10.945935));
#1080=DIRECTION('',(0.,0.,1.));
#1090=DIRECTION('',(0.,-1.,0.));
#1100=AXIS2_PLACEMENT_3D('',#1070,#1080,#1090);
#1110=CIRCLE('',#1100,1.75);
#1120=CARTESIAN_POINT('',(79.4172270000259,46.875813,10.945935));
#1130=VERTEX_POINT('',#1120);
#1140=CARTESIAN_POINT('',(79.4172270000259,50.375813,10.945935));
#1150=VERTEX_POINT('',#1140);
#1160=EDGE_CURVE('',#1130,#1150,#1110,.T.);
#1170=ORIENTED_EDGE('',*,*,#1160,.T.);
#1180=EDGE_CURVE('',#1150,#1130,#1110,.T.);
#1190=ORIENTED_EDGE('',*,*,#1180,.T.);
#1200=EDGE_LOOP('',(#1190,#1170));
#1210=FACE_BOUND('',#1200,.T.);
#1220=ADVANCED_FACE('',(#1060,#1210),#910,.F.);
#1230=CARTESIAN_POINT('',(79.4172270000259,48.625813,23.096665));
#1240=DIRECTION('',(0.,0.,1.));
#1250=DIRECTION('',(0.,-1.,0.));
#1260=AXIS2_PLACEMENT_3D('',#1230,#1240,#1250);
#1270=CYLINDRICAL_SURFACE('',#1260,1.75);
#1280=CARTESIAN_POINT('',(79.4172270000259,46.875813,23.096665));
#1290=DIRECTION('',(0.,0.,1.));
#1300=VECTOR('',#1290,1.);
#1310=LINE('',#1280,#1300);
#1320=EDGE_CURVE('',#1130,#650,#1310,.T.);
#1330=ORIENTED_EDGE('',*,*,#1320,.F.);
#1340=ORIENTED_EDGE('',*,*,#700,.T.);
#1350=CARTESIAN_POINT('',(79.4172270000259,50.375813,23.096665));
#1360=DIRECTION('',(0.,0.,1.));
#1370=VECTOR('',#1360,1.);
#1380=LINE('',#1350,#1370);
#1390=EDGE_CURVE('',#1150,#670,#1380,.T.);
#1400=ORIENTED_EDGE('',*,*,#1390,.T.);
#1410=ORIENTED_EDGE('',*,*,#1180,.F.);
#1420=EDGE_LOOP('',(#1410,#1400,#1340,#1330));
#1430=FACE_OUTER_BOUND('',#1420,.T.);
#1440=ADVANCED_FACE('',(#1430),#1270,.F.);
#1450=COLOUR_RGB('',0.823529481887817,0.823529481887817,
0.784313797950745);
#1460=FILL_AREA_STYLE_COLOUR('',#1450);
#1470=FILL_AREA_STYLE('',(#1460));
#1480=SURFACE_STYLE_FILL_AREA(#1470);
#1490=SURFACE_SIDE_STYLE('',(#1480));
#1500=SURFACE_STYLE_USAGE(.BOTH.,#1490);
#1510=PRESENTATION_STYLE_ASSIGNMENT((#1500));
#1520=CARTESIAN_POINT('',(79.4172270000259,48.625813,9.695935));
#1530=DIRECTION('',(0.,0.,-1.));
#1540=DIRECTION('',(0.629308220475531,-0.777155816835929,0.));
#1550=AXIS2_PLACEMENT_3D('',#1520,#1530,#1540);
#1560=CONICAL_SURFACE('',#1550,3.25,0.785398163397448);
#1570=CARTESIAN_POINT('',(77.3719752834804,51.1515694047168,9.695935));
#1580=DIRECTION('',(-0.444988110154687,0.549532148123256,
-0.707106781186548));
#1590=VECTOR('',#1580,4.59619407771257);
#1600=LINE('',#1570,#1590);
#1610=CARTESIAN_POINT('',(78.2530067921462,50.0635512611465,11.095935));
#1620=VERTEX_POINT('',#1610);
#1630=CARTESIAN_POINT('',(77.3719752834804,51.1515694047168,9.695935));
#1640=VERTEX_POINT('',#1630);
#1650=EDGE_CURVE('',#1620,#1640,#1600,.T.);
#1660=ORIENTED_EDGE('',*,*,#1650,.T.);
#1670=EDGE_CURVE('',#1620,#260,#200,.T.);
#1680=ORIENTED_EDGE('',*,*,#1670,.F.);
#1690=ORIENTED_EDGE('',*,*,#270,.F.);
#1700=CARTESIAN_POINT('',(81.4624787165714,46.1000565952832,9.695935));
#1710=DIRECTION('',(0.444988110154687,-0.549532148123256,
-0.707106781186548));
#1720=VECTOR('',#1710,4.59619407771257);
#1730=LINE('',#1700,#1720);
#1740=CARTESIAN_POINT('',(81.4624787165714,46.1000565952832,9.695935));
#1750=VERTEX_POINT('',#1740);
#1760=EDGE_CURVE('',#220,#1750,#1730,.T.);
#1770=ORIENTED_EDGE('',*,*,#1760,.F.);
#1780=CARTESIAN_POINT('',(79.4172270000259,48.625813,9.695935));
#1790=DIRECTION('',(0.,0.,1.));
#1800=DIRECTION('',(0.629308220475531,-0.777155816835929,0.));
#1810=AXIS2_PLACEMENT_3D('',#1780,#1790,#1800);
#1820=CIRCLE('',#1810,3.25);
#1830=EDGE_CURVE('',#1640,#1750,#1820,.T.);
#1840=ORIENTED_EDGE('',*,*,#1830,.T.);
#1850=EDGE_LOOP('',(#1840,#1770,#1690,#1680,#1660));
#1860=FACE_OUTER_BOUND('',#1850,.T.);
#1870=ADVANCED_FACE('',(#1860),#1560,.T.);
#1880=CARTESIAN_POINT('',(79.4172270000259,48.625813,6.3963));
#1890=DIRECTION('',(-0.,0.,-1.));
#1900=DIRECTION('',(0.629308220475531,-0.777155816835929,0.));
#1910=AXIS2_PLACEMENT_3D('',#1880,#1890,#1900);
#1920=CYLINDRICAL_SURFACE('',#1910,3.25);
#1930=CARTESIAN_POINT('',(77.3719752834804,51.1515694047168,6.3963));
#1940=DIRECTION('',(-0.,0.,-1.));
#1950=VECTOR('',#1940,1.);
#1960=LINE('',#1930,#1950);
#1970=CARTESIAN_POINT('',(77.3719752834804,51.1515694047168,3.096665));
#1980=VERTEX_POINT('',#1970);
#1990=EDGE_CURVE('',#1640,#1980,#1960,.T.);
#2000=ORIENTED_EDGE('',*,*,#1990,.T.);
#2010=ORIENTED_EDGE('',*,*,#1830,.F.);
#2020=CARTESIAN_POINT('',(81.4624787165714,46.1000565952832,6.3963));
#2030=DIRECTION('',(-0.,0.,-1.));
#2040=VECTOR('',#2030,1.);
#2050=LINE('',#2020,#2040);
#2060=CARTESIAN_POINT('',(81.4624787165714,46.1000565952832,3.096665));
#2070=VERTEX_POINT('',#2060);
#2080=EDGE_CURVE('',#1750,#2070,#2050,.T.);
#2090=ORIENTED_EDGE('',*,*,#2080,.F.);
#2100=CARTESIAN_POINT('',(79.4172270000259,48.625813,3.096665));
#2110=DIRECTION('',(0.,0.,1.));
#2120=DIRECTION('',(0.629308220475531,-0.777155816835929,0.));
#2130=AXIS2_PLACEMENT_3D('',#2100,#2110,#2120);
#2140=CIRCLE('',#2130,3.25);
#2150=EDGE_CURVE('',#1980,#2070,#2140,.T.);
#2160=ORIENTED_EDGE('',*,*,#2150,.T.);
#2170=EDGE_LOOP('',(#2160,#2090,#2010,#2000));
#2180=FACE_OUTER_BOUND('',#2170,.T.);
#2190=ADVANCED_FACE('',(#2180),#1920,.T.);
#2200=CARTESIAN_POINT('',(81.4152806000357,46.1583432815459,3.096665));
#2210=DIRECTION('',(0.,0.,1.));
#2220=DIRECTION('',(-0.629308220475531,0.777155816835929,0.));
#2230=AXIS2_PLACEMENT_3D('',#2200,#2210,#2220);
#2240=PLANE('',#2230);
#2250=CARTESIAN_POINT('',(79.4172270000259,48.625813,3.096665));
#2260=DIRECTION('',(0.,0.,1.));
#2270=DIRECTION('',(0.629308220475531,-0.777155816835929,0.));
#2280=AXIS2_PLACEMENT_3D('',#2250,#2260,#2270);
#2290=CIRCLE('',#2280,3.1);
#2300=CARTESIAN_POINT('',(81.3680824835001,46.2166299678086,3.096665));
#2310=VERTEX_POINT('',#2300);
#2320=CARTESIAN_POINT('',(77.4663715165518,51.0349960321914,3.096665));
#2330=VERTEX_POINT('',#2320);
#2340=EDGE_CURVE('',#2310,#2330,#2290,.T.);
#2350=ORIENTED_EDGE('',*,*,#2340,.T.);
#2360=EDGE_CURVE('',#2330,#2310,#2290,.T.);
#2370=ORIENTED_EDGE('',*,*,#2360,.T.);
#2380=EDGE_LOOP('',(#2370,#2350));
#2390=FACE_BOUND('',#2380,.T.);
#2400=EDGE_CURVE('',#2070,#1980,#2140,.T.);
#2410=ORIENTED_EDGE('',*,*,#2400,.F.);
#2420=ORIENTED_EDGE('',*,*,#2150,.F.);
#2430=EDGE_LOOP('',(#2420,#2410));
#2440=FACE_OUTER_BOUND('',#2430,.T.);
#2450=ADVANCED_FACE('',(#2390,#2440),#2240,.F.);
#2460=CARTESIAN_POINT('',(79.4172270000259,48.625813,6.36523398282202));
#2470=DIRECTION('',(0.,0.,1.));
#2480=DIRECTION('',(-0.629308220475531,0.777155816835929,0.));
#2490=AXIS2_PLACEMENT_3D('',#2460,#2470,#2480);
#2500=CYLINDRICAL_SURFACE('',#2490,3.1);
#2510=CARTESIAN_POINT('',(77.4663715165518,51.0349960321914,
6.36523398282202));
#2520=DIRECTION('',(0.,0.,1.));
#2530=VECTOR('',#2520,1.);
#2540=LINE('',#2510,#2530);
#2550=CARTESIAN_POINT('',(77.4663715165518,51.0349960321914,
9.63380296564404));
#2560=VERTEX_POINT('',#2550);
#2570=EDGE_CURVE('',#2330,#2560,#2540,.T.);
#2580=ORIENTED_EDGE('',*,*,#2570,.T.);
#2590=ORIENTED_EDGE('',*,*,#2360,.F.);
#2600=CARTESIAN_POINT('',(81.3680824835001,46.2166299678086,
6.36523398282202));
#2610=DIRECTION('',(0.,0.,1.));
#2620=VECTOR('',#2610,1.);
#2630=LINE('',#2600,#2620);
#2640=CARTESIAN_POINT('',(81.3680824835001,46.2166299678086,
9.63380296564404));
#2650=VERTEX_POINT('',#2640);
#2660=EDGE_CURVE('',#2310,#2650,#2630,.T.);
#2670=ORIENTED_EDGE('',*,*,#2660,.F.);
#2680=CARTESIAN_POINT('',(79.4172270000259,48.625813,9.63380296564404));
#2690=DIRECTION('',(0.,0.,1.));
#2700=DIRECTION('',(0.629308220475531,-0.777155816835929,0.));
#2710=AXIS2_PLACEMENT_3D('',#2680,#2690,#2700);
#2720=CIRCLE('',#2710,3.1);
#2730=EDGE_CURVE('',#2560,#2650,#2720,.T.);
#2740=ORIENTED_EDGE('',*,*,#2730,.T.);
#2750=EDGE_LOOP('',(#2740,#2670,#2590,#2580));
#2760=FACE_OUTER_BOUND('',#2750,.T.);
#2770=ADVANCED_FACE('',(#2760),#2500,.F.);
#2780=CARTESIAN_POINT('',(79.4172270000259,48.625813,9.63380296564404));
#2790=DIRECTION('',(0.,0.,-1.));
#2800=DIRECTION('',(0.629308220475531,-0.777155816835929,0.));
#2810=AXIS2_PLACEMENT_3D('',#2780,#2790,#2800);
#2820=CONICAL_SURFACE('',#2810,3.1,0.785398163397446);
#2830=CARTESIAN_POINT('',(77.4663715165518,51.0349960321914,
9.63380296564404));
#2840=DIRECTION('',(-0.444988110154685,0.549532148123255,
-0.707106781186549));
#2850=VECTOR('',#2840,4.3840620433566);
#2860=LINE('',#2830,#2850);
#2870=EDGE_CURVE('',#1000,#2560,#2860,.T.);
#2880=ORIENTED_EDGE('',*,*,#2870,.F.);
#2890=ORIENTED_EDGE('',*,*,#2730,.F.);
#2900=CARTESIAN_POINT('',(81.3680824835001,46.2166299678086,
9.63380296564404));
#2910=DIRECTION('',(0.444988110154685,-0.549532148123255,
-0.707106781186549));
#2920=VECTOR('',#2910,4.3840620433566);
#2930=LINE('',#2900,#2920);
#2940=EDGE_CURVE('',#980,#2650,#2930,.T.);
#2950=ORIENTED_EDGE('',*,*,#2940,.T.);
#2960=ORIENTED_EDGE('',*,*,#1030,.T.);
#2970=EDGE_LOOP('',(#2960,#2950,#2890,#2880));
#2980=FACE_OUTER_BOUND('',#2970,.T.);
#2990=ADVANCED_FACE('',(#2980),#2820,.F.);
#3000=CARTESIAN_POINT('',(79.4172270000259,48.625813,17.096665));
#3010=DIRECTION('',(0.,0.,1.));
#3020=DIRECTION('',(1.,0.,0.));
#3030=AXIS2_PLACEMENT_3D('',#3000,#3010,#3020);
#3040=CYLINDRICAL_SURFACE('',#3030,1.85);
#3050=ORIENTED_EDGE('',*,*,#140,.F.);
#3060=ORIENTED_EDGE('',*,*,#740,.F.);
#3070=ORIENTED_EDGE('',*,*,#350,.T.);
#3080=ORIENTED_EDGE('',*,*,#1670,.T.);
#3090=CARTESIAN_POINT('',(79.4172270000259,50.475813,11.095935));
#3100=VERTEX_POINT('',#3090);
#3110=EDGE_CURVE('',#3100,#1620,#200,.T.);
#3120=ORIENTED_EDGE('',*,*,#3110,.T.);
#3130=EDGE_CURVE('',#110,#3100,#200,.T.);
#3140=ORIENTED_EDGE('',*,*,#3130,.T.);
#3150=EDGE_LOOP('',(#3140,#3120,#3080,#3070,#3060,#3050));
#3160=FACE_OUTER_BOUND('',#3150,.T.);
#3170=ADVANCED_FACE('',(#3160),#3040,.T.);
#3180=COLOUR_RGB('',0.823529481887817,0.823529481887817,
0.784313797950745);
#3190=FILL_AREA_STYLE_COLOUR('',#3180);
#3200=FILL_AREA_STYLE('',(#3190));
#3210=SURFACE_STYLE_FILL_AREA(#3200);
#3220=SURFACE_SIDE_STYLE('',(#3210));
#3230=SURFACE_STYLE_USAGE(.BOTH.,#3220);
#3240=PRESENTATION_STYLE_ASSIGNMENT((#3230));
#3250=CARTESIAN_POINT('',(79.4172270000259,48.625813,9.695935));
#3260=DIRECTION('',(0.,0.,-1.));
#3270=DIRECTION('',(0.629308220475531,-0.777155816835929,0.));
#3280=AXIS2_PLACEMENT_3D('',#3250,#3260,#3270);
#3290=CONICAL_SURFACE('',#3280,3.25,0.785398163397448);
#3300=ORIENTED_EDGE('',*,*,#3110,.F.);
#3310=ORIENTED_EDGE('',*,*,#1650,.F.);
#3320=EDGE_CURVE('',#1750,#1640,#1820,.T.);
#3330=ORIENTED_EDGE('',*,*,#3320,.T.);
#3340=ORIENTED_EDGE('',*,*,#1760,.T.);
#3350=ORIENTED_EDGE('',*,*,#230,.F.);
#3360=ORIENTED_EDGE('',*,*,#3130,.F.);
#3370=EDGE_LOOP('',(#3360,#3350,#3340,#3330,#3310,#3300));
#3380=FACE_OUTER_BOUND('',#3370,.T.);
#3390=ADVANCED_FACE('',(#3380),#3290,.T.);
#3400=CARTESIAN_POINT('',(79.4172270000259,48.625813,9.63380296564404));
#3410=DIRECTION('',(0.,0.,-1.));
#3420=DIRECTION('',(0.629308220475531,-0.777155816835929,0.));
#3430=AXIS2_PLACEMENT_3D('',#3400,#3410,#3420);
#3440=CONICAL_SURFACE('',#3430,3.1,0.785398163397446);
#3450=EDGE_CURVE('',#2650,#2560,#2720,.T.);
#3460=ORIENTED_EDGE('',*,*,#3450,.F.);
#3470=ORIENTED_EDGE('',*,*,#2870,.T.);
#3480=ORIENTED_EDGE('',*,*,#1010,.T.);
#3490=ORIENTED_EDGE('',*,*,#2940,.F.);
#3500=EDGE_LOOP('',(#3490,#3480,#3470,#3460));
#3510=FACE_OUTER_BOUND('',#3500,.T.);
#3520=ADVANCED_FACE('',(#3510),#3440,.F.);
#3530=CARTESIAN_POINT('',(79.4172270000259,48.625813,6.3963));
#3540=DIRECTION('',(-0.,0.,-1.));
#3550=DIRECTION('',(0.629308220475531,-0.777155816835929,0.));
#3560=AXIS2_PLACEMENT_3D('',#3530,#3540,#3550);
#3570=CYLINDRICAL_SURFACE('',#3560,3.25);
#3580=ORIENTED_EDGE('',*,*,#3320,.F.);
#3590=ORIENTED_EDGE('',*,*,#1990,.F.);
#3600=ORIENTED_EDGE('',*,*,#2400,.T.);
#3610=ORIENTED_EDGE('',*,*,#2080,.T.);
#3620=EDGE_LOOP('',(#3610,#3600,#3590,#3580));
#3630=FACE_OUTER_BOUND('',#3620,.T.);
#3640=ADVANCED_FACE('',(#3630),#3570,.T.);
#3650=CARTESIAN_POINT('',(79.4172270000259,48.625813,23.096665));
#3660=DIRECTION('',(0.,0.,1.));
#3670=DIRECTION('',(0.,-1.,0.));
#3680=AXIS2_PLACEMENT_3D('',#3650,#3660,#3670);
#3690=CYLINDRICAL_SURFACE('',#3680,1.75);
#3700=ORIENTED_EDGE('',*,*,#1160,.F.);
#3710=ORIENTED_EDGE('',*,*,#1390,.F.);
#3720=ORIENTED_EDGE('',*,*,#680,.T.);
#3730=ORIENTED_EDGE('',*,*,#1320,.T.);
#3740=EDGE_LOOP('',(#3730,#3720,#3710,#3700));
#3750=FACE_OUTER_BOUND('',#3740,.T.);
#3760=ADVANCED_FACE('',(#3750),#3690,.F.);
#3770=COLOUR_RGB('',0.823529481887817,0.823529481887817,
0.784313797950745);
#3780=FILL_AREA_STYLE_COLOUR('',#3770);
#3790=FILL_AREA_STYLE('',(#3780));
#3800=SURFACE_STYLE_FILL_AREA(#3790);
#3810=SURFACE_SIDE_STYLE('',(#3800));
#3820=SURFACE_STYLE_USAGE(.BOTH.,#3810);
#3830=PRESENTATION_STYLE_ASSIGNMENT((#3820));
#3840=CARTESIAN_POINT('',(79.4172270000259,48.625813,6.36523398282202));
#3850=DIRECTION('',(0.,0.,1.));
#3860=DIRECTION('',(-0.629308220475531,0.777155816835929,0.));
#3870=AXIS2_PLACEMENT_3D('',#3840,#3850,#3860);
#3880=CYLINDRICAL_SURFACE('',#3870,3.1);
#3890=ORIENTED_EDGE('',*,*,#2340,.F.);
#3900=ORIENTED_EDGE('',*,*,#2570,.F.);
#3910=ORIENTED_EDGE('',*,*,#3450,.T.);
#3920=ORIENTED_EDGE('',*,*,#2660,.T.);
#3930=EDGE_LOOP('',(#3920,#3910,#3900,#3890));
#3940=FACE_OUTER_BOUND('',#3930,.T.);
#3950=ADVANCED_FACE('',(#3940),#3880,.F.);
#3960=CLOSED_SHELL('',(#460,#790,#1220,#1440,#1870,#2190,#2450,#2770,
#2990,#3170,#3390,#3520,#3640,#3760,#3950));
#3970=MANIFOLD_SOLID_BREP('',#3960);
#3980=CARTESIAN_POINT('',(0.,0.,0.));
#3990=DIRECTION('',(0.,0.,1.));
#4000=DIRECTION('',(1.,0.,0.));
#4010=AXIS2_PLACEMENT_3D('',#3980,#3990,#4000);
#4020=APPLICATION_CONTEXT(' ');
#4030=APPLICATION_PROTOCOL_DEFINITION(' ','automotive_design',1998,#4020
);
#4040=PRODUCT_CONTEXT('',#4020,'mechanical');
#4050=PRODUCT_DEFINITION_CONTEXT('part definition',#4020,'design');
#4060=PRODUCT('3201107_AI_6_12_BK-select','3201107_AI_6_12_BK-select',''
,(#4040));
#4070=PRODUCT_RELATED_PRODUCT_CATEGORY('part',' ',(#4060));
#4080=PRODUCT_DEFINITION_FORMATION_WITH_SPECIFIED_SOURCE('','',#4060,
.BOUGHT.);
#4090=PRODUCT_DEFINITION('',' ',#4080,#4050);
#4100=PRODUCT_DEFINITION_SHAPE('','',#4090);
#4110=DIMENSIONAL_EXPONENTS(1.,0.,0.,0.,0.,0.,0.);
#4120=DIMENSIONAL_EXPONENTS(0.,0.,0.,0.,0.,0.,0.);
#4130=DIMENSIONAL_EXPONENTS(0.,0.,0.,0.,0.,0.,0.);
#4140=(LENGTH_UNIT() NAMED_UNIT(*) SI_UNIT(.MILLI.,.METRE.));
#4150=(NAMED_UNIT(*) PLANE_ANGLE_UNIT() SI_UNIT($,.RADIAN.));
#4160=(NAMED_UNIT(*) SI_UNIT($,.STERADIAN.) SOLID_ANGLE_UNIT());
#4170=(GEOMETRIC_REPRESENTATION_CONTEXT(3) 
GLOBAL_UNCERTAINTY_ASSIGNED_CONTEXT((#4180)) 
GLOBAL_UNIT_ASSIGNED_CONTEXT((#4140,#4150,#4160)) REPRESENTATION_CONTEXT
('',''));
#4180=UNCERTAINTY_MEASURE_WITH_UNIT(LENGTH_MEASURE(1.E-6),#4140,
'distance_accuracy_value','maximum gap value');
#4190=ADVANCED_BREP_SHAPE_REPRESENTATION('',(#4010,#3970),#4170);
#4200=SHAPE_DEFINITION_REPRESENTATION(#4100,#4190);
#4210=COLOUR_RGB('',0.313725501298904,0.313725501298904,
0.313725501298904);
#4220=FILL_AREA_STYLE_COLOUR('',#4210);
#4230=FILL_AREA_STYLE('',(#4220));
#4240=SURFACE_STYLE_FILL_AREA(#4230);
#4250=SURFACE_SIDE_STYLE('',(#4240));
#4260=SURFACE_STYLE_USAGE(.BOTH.,#4250);
#4270=PRESENTATION_STYLE_ASSIGNMENT((#4260));
#4280=STYLED_ITEM('',(#4270),#3970);
#4290=OVER_RIDING_STYLED_ITEM('',(#530),#460,#4280);
#4300=OVER_RIDING_STYLED_ITEM('',(#860),#790,#4280);
#4310=OVER_RIDING_STYLED_ITEM('',(#1510),#1440,#4280);
#4320=OVER_RIDING_STYLED_ITEM('',(#3240),#3170,#4280);
#4330=OVER_RIDING_STYLED_ITEM('',(#3830),#3760,#4280);
#4340=DRAUGHTING_MODEL('',(#4280,#4290,#4300,#4310,#4320,#4330),#4170);
#4350=CARTESIAN_POINT('',(-79.4172270000259,-3.096665,48.625813));
#4360=DIRECTION('',(0.,1.,0.));
#4370=DIRECTION('',(1.,0.,0.));
#4380=AXIS2_PLACEMENT_3D('',#4350,#4360,#4370);
#4390=ITEM_DEFINED_TRANSFORMATION('3201107_AI_6_12_BK-select','',#4010,
#4380);
#4400=APPLICATION_CONTEXT(' ');
#4410=APPLICATION_PROTOCOL_DEFINITION(' ','automotive_design',1998,#4400
);
#4420=PRODUCT_CONTEXT('',#4400,'mechanical');
#4430=PRODUCT_DEFINITION_CONTEXT('part definition',#4400,'design');
#4440=PRODUCT('3201107_AI_6_12_BK-select','3201107_AI_6_12_BK-select',''
,(#4420));
#4450=PRODUCT_RELATED_PRODUCT_CATEGORY('part',' ',(#4440));
#4460=PRODUCT_DEFINITION_FORMATION_WITH_SPECIFIED_SOURCE('','',#4440,
.BOUGHT.);
#4470=PRODUCT_DEFINITION('',' ',#4460,#4430);
#4480=PRODUCT_DEFINITION_SHAPE('','',#4470);
#4490=DIMENSIONAL_EXPONENTS(1.,0.,0.,0.,0.,0.,0.);
#4500=DIMENSIONAL_EXPONENTS(0.,0.,0.,0.,0.,0.,0.);
#4510=DIMENSIONAL_EXPONENTS(0.,0.,0.,0.,0.,0.,0.);
#4520=(LENGTH_UNIT() NAMED_UNIT(*) SI_UNIT(.MILLI.,.METRE.));
#4530=(NAMED_UNIT(*) PLANE_ANGLE_UNIT() SI_UNIT($,.RADIAN.));
#4540=(NAMED_UNIT(*) SI_UNIT($,.STERADIAN.) SOLID_ANGLE_UNIT());
#4550=(GEOMETRIC_REPRESENTATION_CONTEXT(3) 
GLOBAL_UNCERTAINTY_ASSIGNED_CONTEXT((#4560)) 
GLOBAL_UNIT_ASSIGNED_CONTEXT((#4520,#4530,#4540)) REPRESENTATION_CONTEXT
('',''));
#4560=UNCERTAINTY_MEASURE_WITH_UNIT(LENGTH_MEASURE(1.E-6),#4520,
'distance_accuracy_value','maximum gap value');
#4570=SHAPE_REPRESENTATION('',(#4010,#4380),#4550);
#4580=SHAPE_DEFINITION_REPRESENTATION(#4480,#4570);
#4590=(REPRESENTATION_RELATIONSHIP('','',#4190,#4570) 
REPRESENTATION_RELATIONSHIP_WITH_TRANSFORMATION(#4390) 
SHAPE_REPRESENTATION_RELATIONSHIP());
#4600=NEXT_ASSEMBLY_USAGE_OCCURRENCE('1','','3201107_AI_6_12_BK-select',
#4470,#4090,'');
#4610=PRODUCT_DEFINITION_SHAPE('','',#4600);
#4620=CONTEXT_DEPENDENT_SHAPE_REPRESENTATION(#4590,#4610);
ENDSEC;
END-ISO-10303-21;
