ISO-10303-21;
HEADER;
FILE_DESCRIPTION(('SolidDesigner STEP Export'),'2;1');
FILE_NAME('1695744_PROT_M12_VPE100-select.stp','2013-09-04T15:22:07',(''
),(''),
'Creo Elements/Direct Modeling STEP processor for AP214 (Solid Model)',
'Creo Elements/Direct Modeling 18.1B  29-Sep-2012 (C) Parametric Technol
ogy GmbH','');
FILE_SCHEMA(('AUTOMOTIVE_DESIGN { 1 0 10303 214 1 1 1 1 }'));
ENDSEC;
DATA;
#10=CARTESIAN_POINT('',(0.,2.1,0.));
#20=DIRECTION('',(1.,0.,0.));
#30=DIRECTION('',(0.,-1.,0.));
#40=AXIS2_PLACEMENT_3D('',#10,#20,#30);
#50=PLANE('',#40);
#60=CARTESIAN_POINT('',(0.,0.,0.));
#70=DIRECTION('',(1.,0.,0.));
#80=DIRECTION('',(0.,1.,0.));
#90=AXIS2_PLACEMENT_3D('',#60,#70,#80);
#100=CIRCLE('',#90,4.2);
#110=CARTESIAN_POINT('',(0.,4.2,-5.14351655641888E-16));
#120=VERTEX_POINT('',#110);
#130=CARTESIAN_POINT('',(0.,-4.2,0.));
#140=VERTEX_POINT('',#130);
#150=EDGE_CURVE('',#120,#140,#100,.T.);
#160=ORIENTED_EDGE('',*,*,#150,.T.);
#170=EDGE_CURVE('',#140,#120,#100,.T.);
#180=ORIENTED_EDGE('',*,*,#170,.T.);
#190=EDGE_LOOP('',(#180,#160));
#200=FACE_OUTER_BOUND('',#190,.T.);
#210=ADVANCED_FACE('',(#200),#50,.T.);
#220=COLOUR_RGB('',0.,0.,0.);
#230=FILL_AREA_STYLE_COLOUR('',#220);
#240=FILL_AREA_STYLE('',(#230));
#250=SURFACE_STYLE_FILL_AREA(#240);
#260=SURFACE_SIDE_STYLE('',(#250));
#270=SURFACE_STYLE_USAGE(.BOTH.,#260);
#280=PRESENTATION_STYLE_ASSIGNMENT((#270));
#290=CARTESIAN_POINT('',(5.,0.,0.));
#300=DIRECTION('',(1.,0.,0.));
#310=DIRECTION('',(0.,-1.,0.));
#320=AXIS2_PLACEMENT_3D('',#290,#300,#310);
#330=CYLINDRICAL_SURFACE('',#320,4.2);
#340=CARTESIAN_POINT('',(5.,-4.2,0.));
#350=DIRECTION('',(1.,0.,0.));
#360=VECTOR('',#350,1.);
#370=LINE('',#340,#360);
#380=CARTESIAN_POINT('',(10.,-4.2,0.));
#390=VERTEX_POINT('',#380);
#400=EDGE_CURVE('',#140,#390,#370,.T.);
#410=ORIENTED_EDGE('',*,*,#400,.T.);
#420=ORIENTED_EDGE('',*,*,#170,.F.);
#430=CARTESIAN_POINT('',(5.,4.2,-5.14351655641888E-16));
#440=DIRECTION('',(1.,0.,0.));
#450=VECTOR('',#440,1.);
#460=LINE('',#430,#450);
#470=CARTESIAN_POINT('',(10.,4.2,-5.14351655641888E-16));
#480=VERTEX_POINT('',#470);
#490=EDGE_CURVE('',#120,#480,#460,.T.);
#500=ORIENTED_EDGE('',*,*,#490,.F.);
#510=CARTESIAN_POINT('',(10.,0.,0.));
#520=DIRECTION('',(1.,0.,0.));
#530=DIRECTION('',(0.,1.,0.));
#540=AXIS2_PLACEMENT_3D('',#510,#520,#530);
#550=CIRCLE('',#540,4.2);
#560=EDGE_CURVE('',#390,#480,#550,.T.);
#570=ORIENTED_EDGE('',*,*,#560,.T.);
#580=EDGE_LOOP('',(#570,#500,#420,#410));
#590=FACE_OUTER_BOUND('',#580,.T.);
#600=ADVANCED_FACE('',(#590),#330,.F.);
#610=COLOUR_RGB('',0.,0.,0.);
#620=FILL_AREA_STYLE_COLOUR('',#610);
#630=FILL_AREA_STYLE('',(#620));
#640=SURFACE_STYLE_FILL_AREA(#630);
#650=SURFACE_SIDE_STYLE('',(#640));
#660=SURFACE_STYLE_USAGE(.BOTH.,#650);
#670=PRESENTATION_STYLE_ASSIGNMENT((#660));
#680=CARTESIAN_POINT('',(10.,5.1,0.));
#690=DIRECTION('',(1.,0.,0.));
#700=DIRECTION('',(0.,-1.,0.));
#710=AXIS2_PLACEMENT_3D('',#680,#690,#700);
#720=PLANE('',#710);
#730=CARTESIAN_POINT('',(10.,0.,0.));
#740=DIRECTION('',(1.,0.,0.));
#750=DIRECTION('',(0.,-1.,0.));
#760=AXIS2_PLACEMENT_3D('',#730,#740,#750);
#770=CIRCLE('',#760,5.385);
#780=CARTESIAN_POINT('',(10.,-5.385,0.));
#790=VERTEX_POINT('',#780);
#800=CARTESIAN_POINT('',(10.,5.385,-6.5947230134085E-16));
#810=VERTEX_POINT('',#800);
#820=EDGE_CURVE('',#790,#810,#770,.T.);
#830=ORIENTED_EDGE('',*,*,#820,.T.);
#840=EDGE_CURVE('',#810,#790,#770,.T.);
#850=ORIENTED_EDGE('',*,*,#840,.T.);
#860=EDGE_LOOP('',(#850,#830));
#870=FACE_OUTER_BOUND('',#860,.T.);
#880=EDGE_CURVE('',#480,#390,#550,.T.);
#890=ORIENTED_EDGE('',*,*,#880,.F.);
#900=ORIENTED_EDGE('',*,*,#560,.F.);
#910=EDGE_LOOP('',(#900,#890));
#920=FACE_BOUND('',#910,.T.);
#930=ADVANCED_FACE('',(#870,#920),#720,.T.);
#940=COLOUR_RGB('',0.,0.,0.);
#950=FILL_AREA_STYLE_COLOUR('',#940);
#960=FILL_AREA_STYLE('',(#950));
#970=SURFACE_STYLE_FILL_AREA(#960);
#980=SURFACE_SIDE_STYLE('',(#970));
#990=SURFACE_STYLE_USAGE(.BOTH.,#980);
#1000=PRESENTATION_STYLE_ASSIGNMENT((#990));
#1010=CARTESIAN_POINT('',(5.8,0.,0.));
#1020=DIRECTION('',(1.,0.,0.));
#1030=DIRECTION('',(0.,-1.,0.));
#1040=AXIS2_PLACEMENT_3D('',#1010,#1020,#1030);
#1050=CYLINDRICAL_SURFACE('',#1040,6.);
#1060=CARTESIAN_POINT('',(5.8,6.,-7.34788079488412E-16));
#1070=DIRECTION('',(1.,0.,0.));
#1080=VECTOR('',#1070,1.);
#1090=LINE('',#1060,#1080);
#1100=CARTESIAN_POINT('',(3.,6.,-7.34788079488412E-16));
#1110=VERTEX_POINT('',#1100);
#1120=CARTESIAN_POINT('',(6.,6.,-7.34788079488412E-16));
#1130=VERTEX_POINT('',#1120);
#1140=EDGE_CURVE('',#1110,#1130,#1090,.T.);
#1150=ORIENTED_EDGE('',*,*,#1140,.F.);
#1160=CARTESIAN_POINT('',(6.,0.,0.));
#1170=DIRECTION('',(1.,0.,0.));
#1180=DIRECTION('',(0.,-1.,0.));
#1190=AXIS2_PLACEMENT_3D('',#1160,#1170,#1180);
#1200=CIRCLE('',#1190,6.);
#1210=CARTESIAN_POINT('',(6.,-6.,0.));
#1220=VERTEX_POINT('',#1210);
#1230=EDGE_CURVE('',#1130,#1220,#1200,.T.);
#1240=ORIENTED_EDGE('',*,*,#1230,.F.);
#1250=CARTESIAN_POINT('',(5.8,-6.,0.));
#1260=DIRECTION('',(1.,0.,0.));
#1270=VECTOR('',#1260,1.);
#1280=LINE('',#1250,#1270);
#1290=CARTESIAN_POINT('',(3.,-6.,0.));
#1300=VERTEX_POINT('',#1290);
#1310=EDGE_CURVE('',#1300,#1220,#1280,.T.);
#1320=ORIENTED_EDGE('',*,*,#1310,.T.);
#1330=CARTESIAN_POINT('',(3.,0.,0.));
#1340=DIRECTION('',(1.,0.,0.));
#1350=DIRECTION('',(0.,-1.,0.));
#1360=AXIS2_PLACEMENT_3D('',#1330,#1340,#1350);
#1370=CIRCLE('',#1360,6.);
#1380=EDGE_CURVE('',#1110,#1300,#1370,.T.);
#1390=ORIENTED_EDGE('',*,*,#1380,.T.);
#1400=EDGE_LOOP('',(#1390,#1320,#1240,#1150));
#1410=FACE_OUTER_BOUND('',#1400,.T.);
#1420=ADVANCED_FACE('',(#1410),#1050,.T.);
#1430=COLOUR_RGB('',0.,0.,0.);
#1440=FILL_AREA_STYLE_COLOUR('',#1430);
#1450=FILL_AREA_STYLE('',(#1440));
#1460=SURFACE_STYLE_FILL_AREA(#1450);
#1470=SURFACE_SIDE_STYLE('',(#1460));
#1480=SURFACE_STYLE_USAGE(.BOTH.,#1470);
#1490=PRESENTATION_STYLE_ASSIGNMENT((#1480));
#1500=CARTESIAN_POINT('',(1.6,6.375,0.));
#1510=DIRECTION('',(1.,0.,0.));
#1520=DIRECTION('',(0.,-1.,0.));
#1530=AXIS2_PLACEMENT_3D('',#1500,#1510,#1520);
#1540=PLANE('',#1530);
#1550=CARTESIAN_POINT('',(1.6,0.,0.));
#1560=DIRECTION('',(-1.,0.,0.));
#1570=DIRECTION('',(0.,1.,0.));
#1580=AXIS2_PLACEMENT_3D('',#1550,#1560,#1570);
#1590=CIRCLE('',#1580,6.75);
#1600=CARTESIAN_POINT('',(1.6,6.75,0.));
#1610=VERTEX_POINT('',#1600);
#1620=CARTESIAN_POINT('',(1.6,-6.75,-8.26636589424463E-16));
#1630=VERTEX_POINT('',#1620);
#1640=EDGE_CURVE('',#1610,#1630,#1590,.T.);
#1650=ORIENTED_EDGE('',*,*,#1640,.F.);
#1660=EDGE_CURVE('',#1630,#1610,#1590,.T.);
#1670=ORIENTED_EDGE('',*,*,#1660,.F.);
#1680=EDGE_LOOP('',(#1670,#1650));
#1690=FACE_OUTER_BOUND('',#1680,.T.);
#1700=CARTESIAN_POINT('',(1.6,0.,0.));
#1710=DIRECTION('',(1.,0.,0.));
#1720=DIRECTION('',(0.,1.,0.));
#1730=AXIS2_PLACEMENT_3D('',#1700,#1710,#1720);
#1740=CIRCLE('',#1730,5.385);
#1750=CARTESIAN_POINT('',(1.6,5.385,-6.5947230134085E-16));
#1760=VERTEX_POINT('',#1750);
#1770=CARTESIAN_POINT('',(1.6,-5.385,0.));
#1780=VERTEX_POINT('',#1770);
#1790=EDGE_CURVE('',#1760,#1780,#1740,.T.);
#1800=ORIENTED_EDGE('',*,*,#1790,.F.);
#1810=EDGE_CURVE('',#1780,#1760,#1740,.T.);
#1820=ORIENTED_EDGE('',*,*,#1810,.F.);
#1830=EDGE_LOOP('',(#1820,#1800));
#1840=FACE_BOUND('',#1830,.T.);
#1850=ADVANCED_FACE('',(#1690,#1840),#1540,.T.);
#1860=COLOUR_RGB('',0.,0.,0.);
#1870=FILL_AREA_STYLE_COLOUR('',#1860);
#1880=FILL_AREA_STYLE('',(#1870));
#1890=SURFACE_STYLE_FILL_AREA(#1880);
#1900=SURFACE_SIDE_STYLE('',(#1890));
#1910=SURFACE_STYLE_USAGE(.BOTH.,#1900);
#1920=PRESENTATION_STYLE_ASSIGNMENT((#1910));
#1930=CARTESIAN_POINT('',(0.102285837690594,0.,0.));
#1940=DIRECTION('',(-1.,0.,0.));
#1950=DIRECTION('',(0.,1.,0.));
#1960=AXIS2_PLACEMENT_3D('',#1930,#1940,#1950);
#1970=CYLINDRICAL_SURFACE('',#1960,6.75);
#1980=CARTESIAN_POINT('',(0.102285837690594,-6.75,-8.26636589424463E-16)
);
#1990=DIRECTION('',(-1.,0.,0.));
#2000=VECTOR('',#1990,1.);
#2010=LINE('',#1980,#2000);
#2020=CARTESIAN_POINT('',(-1.39542832461881,-6.75,0.));
#2030=VERTEX_POINT('',#2020);
#2040=EDGE_CURVE('',#1630,#2030,#2010,.T.);
#2050=ORIENTED_EDGE('',*,*,#2040,.T.);
#2060=ORIENTED_EDGE('',*,*,#1640,.T.);
#2070=CARTESIAN_POINT('',(0.102285837690594,6.75,0.));
#2080=DIRECTION('',(-1.,0.,0.));
#2090=VECTOR('',#2080,1.);
#2100=LINE('',#2070,#2090);
#2110=CARTESIAN_POINT('',(-1.39542832461882,6.75,0.));
#2120=VERTEX_POINT('',#2110);
#2130=EDGE_CURVE('',#1610,#2120,#2100,.T.);
#2140=ORIENTED_EDGE('',*,*,#2130,.F.);
#2150=CARTESIAN_POINT('',(-1.39542832461881,0.,0.));
#2160=DIRECTION('',(1.,0.,0.));
#2170=DIRECTION('',(0.,1.,0.));
#2180=AXIS2_PLACEMENT_3D('',#2150,#2160,#2170);
#2190=CIRCLE('',#2180,6.75);
#2200=EDGE_CURVE('',#2030,#2120,#2190,.T.);
#2210=ORIENTED_EDGE('',*,*,#2200,.T.);
#2220=EDGE_LOOP('',(#2210,#2140,#2060,#2050));
#2230=FACE_OUTER_BOUND('',#2220,.T.);
#2240=ADVANCED_FACE('',(#2230),#1970,.T.);
#2250=COLOUR_RGB('',0.,0.,0.);
#2260=FILL_AREA_STYLE_COLOUR('',#2250);
#2270=FILL_AREA_STYLE('',(#2260));
#2280=SURFACE_STYLE_FILL_AREA(#2270);
#2290=SURFACE_SIDE_STYLE('',(#2280));
#2300=SURFACE_STYLE_USAGE(.BOTH.,#2290);
#2310=PRESENTATION_STYLE_ASSIGNMENT((#2300));
#2320=CARTESIAN_POINT('',(12.,0.,0.));
#2330=DIRECTION('',(1.,0.,0.));
#2340=DIRECTION('',(0.,-1.,0.));
#2350=AXIS2_PLACEMENT_3D('',#2320,#2330,#2340);
#2360=SPHERICAL_SURFACE('',#2350,15.);
#2370=CARTESIAN_POINT('',(12.,0.,0.));
#2380=DIRECTION('',(0.,0.,-1.));
#2390=DIRECTION('',(1.,-0.,0.));
#2400=AXIS2_PLACEMENT_3D('',#2370,#2380,#2390);
#2410=CIRCLE('',#2400,15.);
#2420=CARTESIAN_POINT('',(-1.70364914904056,6.09999999999999,0.));
#2430=VERTEX_POINT('',#2420);
#2440=EDGE_CURVE('',#2430,#2120,#2410,.T.);
#2450=ORIENTED_EDGE('',*,*,#2440,.T.);
#2460=CARTESIAN_POINT('',(12.,6.1,0.));
#2470=DIRECTION('',(0.,-1.,0.));
#2480=DIRECTION('',(-1.,0.,0.));
#2490=AXIS2_PLACEMENT_3D('',#2460,#2470,#2480);
#2500=CIRCLE('',#2490,13.7036491490406);
#2510=CARTESIAN_POINT('',(-1.66711381382331,6.1,-1.));
#2520=VERTEX_POINT('',#2510);
#2530=EDGE_CURVE('',#2430,#2520,#2500,.T.);
#2540=ORIENTED_EDGE('',*,*,#2530,.F.);
#2550=CARTESIAN_POINT('',(12.,0.,-1.));
#2560=DIRECTION('',(0.,0.,1.));
#2570=DIRECTION('',(-1.,0.,0.));
#2580=AXIS2_PLACEMENT_3D('',#2550,#2560,#2570);
#2590=CIRCLE('',#2580,14.9666295470958);
#2600=CARTESIAN_POINT('',(-1.66711381382331,-6.1,-1.));
#2610=VERTEX_POINT('',#2600);
#2620=EDGE_CURVE('',#2520,#2610,#2590,.T.);
#2630=ORIENTED_EDGE('',*,*,#2620,.F.);
#2640=CARTESIAN_POINT('',(12.,-6.1,0.));
#2650=DIRECTION('',(0.,1.,0.));
#2660=DIRECTION('',(1.,0.,0.));
#2670=AXIS2_PLACEMENT_3D('',#2640,#2650,#2660);
#2680=CIRCLE('',#2670,13.7036491490406);
#2690=CARTESIAN_POINT('',(-1.70364914904056,-6.1,0.));
#2700=VERTEX_POINT('',#2690);
#2710=EDGE_CURVE('',#2610,#2700,#2680,.T.);
#2720=ORIENTED_EDGE('',*,*,#2710,.F.);
#2730=EDGE_CURVE('',#2030,#2700,#2410,.T.);
#2740=ORIENTED_EDGE('',*,*,#2730,.T.);
#2750=ORIENTED_EDGE('',*,*,#2200,.F.);
#2760=EDGE_LOOP('',(#2750,#2740,#2720,#2630,#2540,#2450));
#2770=FACE_OUTER_BOUND('',#2760,.T.);
#2780=ADVANCED_FACE('',(#2770),#2360,.T.);
#2790=COLOUR_RGB('',0.,0.,0.);
#2800=FILL_AREA_STYLE_COLOUR('',#2790);
#2810=FILL_AREA_STYLE('',(#2800));
#2820=SURFACE_STYLE_FILL_AREA(#2810);
#2830=SURFACE_SIDE_STYLE('',(#2820));
#2840=SURFACE_STYLE_USAGE(.BOTH.,#2830);
#2850=PRESENTATION_STYLE_ASSIGNMENT((#2840));
#2860=CARTESIAN_POINT('',(0.,0.,-1.));
#2870=DIRECTION('',(0.,0.,1.));
#2880=DIRECTION('',(1.,0.,0.));
#2890=AXIS2_PLACEMENT_3D('',#2860,#2870,#2880);
#2900=PLANE('',#2890);
#2910=CARTESIAN_POINT('',(-1.,6.1,-1.));
#2920=DIRECTION('',(-1.,0.,0.));
#2930=VECTOR('',#2920,1.);
#2940=LINE('',#2910,#2930);
#2950=CARTESIAN_POINT('',(-1.,6.1,-1.));
#2960=VERTEX_POINT('',#2950);
#2970=EDGE_CURVE('',#2960,#2520,#2940,.T.);
#2980=ORIENTED_EDGE('',*,*,#2970,.T.);
#2990=CARTESIAN_POINT('',(-1.,-6.1,-1.));
#3000=DIRECTION('',(0.,1.,0.));
#3010=VECTOR('',#3000,1.);
#3020=LINE('',#2990,#3010);
#3030=CARTESIAN_POINT('',(-1.,-6.1,-1.));
#3040=VERTEX_POINT('',#3030);
#3050=EDGE_CURVE('',#3040,#2960,#3020,.T.);
#3060=ORIENTED_EDGE('',*,*,#3050,.T.);
#3070=CARTESIAN_POINT('',(-6.1,-6.1,-1.));
#3080=DIRECTION('',(1.,0.,0.));
#3090=VECTOR('',#3080,1.);
#3100=LINE('',#3070,#3090);
#3110=EDGE_CURVE('',#2610,#3040,#3100,.T.);
#3120=ORIENTED_EDGE('',*,*,#3110,.T.);
#3130=ORIENTED_EDGE('',*,*,#2620,.T.);
#3140=EDGE_LOOP('',(#3130,#3120,#3060,#2980));
#3150=FACE_OUTER_BOUND('',#3140,.T.);
#3160=ADVANCED_FACE('',(#3150),#2900,.T.);
#3170=COLOUR_RGB('',0.,0.,0.);
#3180=FILL_AREA_STYLE_COLOUR('',#3170);
#3190=FILL_AREA_STYLE('',(#3180));
#3200=SURFACE_STYLE_FILL_AREA(#3190);
#3210=SURFACE_SIDE_STYLE('',(#3200));
#3220=SURFACE_STYLE_USAGE(.BOTH.,#3210);
#3230=PRESENTATION_STYLE_ASSIGNMENT((#3220));
#3240=CARTESIAN_POINT('',(-6.1,6.1,0.));
#3250=DIRECTION('',(-0.,-1.,-0.));
#3260=DIRECTION('',(-1.,0.,0.));
#3270=AXIS2_PLACEMENT_3D('',#3240,#3250,#3260);
#3280=PLANE('',#3270);
#3290=CARTESIAN_POINT('',(-1.66711381382331,6.1,1.));
#3300=VERTEX_POINT('',#3290);
#3310=EDGE_CURVE('',#3300,#2430,#2500,.T.);
#3320=ORIENTED_EDGE('',*,*,#3310,.T.);
#3330=CARTESIAN_POINT('',(-1.,6.1,1.));
#3340=DIRECTION('',(-1.,0.,0.));
#3350=VECTOR('',#3340,1.);
#3360=LINE('',#3330,#3350);
#3370=CARTESIAN_POINT('',(-1.,6.1,1.));
#3380=VERTEX_POINT('',#3370);
#3390=EDGE_CURVE('',#3380,#3300,#3360,.T.);
#3400=ORIENTED_EDGE('',*,*,#3390,.T.);
#3410=CARTESIAN_POINT('',(-1.,6.1,0.));
#3420=DIRECTION('',(0.,0.,-1.));
#3430=VECTOR('',#3420,1.);
#3440=LINE('',#3410,#3430);
#3450=EDGE_CURVE('',#3380,#2960,#3440,.T.);
#3460=ORIENTED_EDGE('',*,*,#3450,.F.);
#3470=ORIENTED_EDGE('',*,*,#2970,.F.);
#3480=ORIENTED_EDGE('',*,*,#2530,.T.);
#3490=EDGE_LOOP('',(#3480,#3470,#3460,#3400,#3320));
#3500=FACE_OUTER_BOUND('',#3490,.T.);
#3510=ADVANCED_FACE('',(#3500),#3280,.T.);
#3520=COLOUR_RGB('',0.,0.,0.);
#3530=FILL_AREA_STYLE_COLOUR('',#3520);
#3540=FILL_AREA_STYLE('',(#3530));
#3550=SURFACE_STYLE_FILL_AREA(#3540);
#3560=SURFACE_SIDE_STYLE('',(#3550));
#3570=SURFACE_STYLE_USAGE(.BOTH.,#3560);
#3580=PRESENTATION_STYLE_ASSIGNMENT((#3570));
#3590=CARTESIAN_POINT('',(0.,0.,1.));
#3600=DIRECTION('',(0.,0.,1.));
#3610=DIRECTION('',(1.,0.,0.));
#3620=AXIS2_PLACEMENT_3D('',#3590,#3600,#3610);
#3630=PLANE('',#3620);
#3640=CARTESIAN_POINT('',(-6.1,-6.1,1.));
#3650=DIRECTION('',(1.,0.,0.));
#3660=VECTOR('',#3650,1.);
#3670=LINE('',#3640,#3660);
#3680=CARTESIAN_POINT('',(-1.66711381382331,-6.1,1.));
#3690=VERTEX_POINT('',#3680);
#3700=CARTESIAN_POINT('',(-1.,-6.1,1.));
#3710=VERTEX_POINT('',#3700);
#3720=EDGE_CURVE('',#3690,#3710,#3670,.T.);
#3730=ORIENTED_EDGE('',*,*,#3720,.F.);
#3740=CARTESIAN_POINT('',(-1.,-6.1,1.));
#3750=DIRECTION('',(0.,1.,0.));
#3760=VECTOR('',#3750,1.);
#3770=LINE('',#3740,#3760);
#3780=EDGE_CURVE('',#3710,#3380,#3770,.T.);
#3790=ORIENTED_EDGE('',*,*,#3780,.F.);
#3800=ORIENTED_EDGE('',*,*,#3390,.F.);
#3810=CARTESIAN_POINT('',(12.,0.,1.));
#3820=DIRECTION('',(0.,0.,1.));
#3830=DIRECTION('',(-1.,0.,0.));
#3840=AXIS2_PLACEMENT_3D('',#3810,#3820,#3830);
#3850=CIRCLE('',#3840,14.9666295470958);
#3860=EDGE_CURVE('',#3300,#3690,#3850,.T.);
#3870=ORIENTED_EDGE('',*,*,#3860,.F.);
#3880=EDGE_LOOP('',(#3870,#3800,#3790,#3730));
#3890=FACE_OUTER_BOUND('',#3880,.T.);
#3900=ADVANCED_FACE('',(#3890),#3630,.F.);
#3910=COLOUR_RGB('',0.,0.,0.);
#3920=FILL_AREA_STYLE_COLOUR('',#3910);
#3930=FILL_AREA_STYLE('',(#3920));
#3940=SURFACE_STYLE_FILL_AREA(#3930);
#3950=SURFACE_SIDE_STYLE('',(#3940));
#3960=SURFACE_STYLE_USAGE(.BOTH.,#3950);
#3970=PRESENTATION_STYLE_ASSIGNMENT((#3960));
#3980=CARTESIAN_POINT('',(-1.,-6.1,0.));
#3990=DIRECTION('',(-0.,1.,0.));
#4000=DIRECTION('',(1.,0.,0.));
#4010=AXIS2_PLACEMENT_3D('',#3980,#3990,#4000);
#4020=PLANE('',#4010);
#4030=EDGE_CURVE('',#2700,#3690,#2680,.T.);
#4040=ORIENTED_EDGE('',*,*,#4030,.T.);
#4050=ORIENTED_EDGE('',*,*,#2710,.T.);
#4060=ORIENTED_EDGE('',*,*,#3110,.F.);
#4070=CARTESIAN_POINT('',(-1.,-6.1,0.));
#4080=DIRECTION('',(0.,0.,-1.));
#4090=VECTOR('',#4080,1.);
#4100=LINE('',#4070,#4090);
#4110=EDGE_CURVE('',#3710,#3040,#4100,.T.);
#4120=ORIENTED_EDGE('',*,*,#4110,.T.);
#4130=ORIENTED_EDGE('',*,*,#3720,.T.);
#4140=EDGE_LOOP('',(#4130,#4120,#4060,#4050,#4040));
#4150=FACE_OUTER_BOUND('',#4140,.T.);
#4160=ADVANCED_FACE('',(#4150),#4020,.T.);
#4170=COLOUR_RGB('',0.,0.,0.);
#4180=FILL_AREA_STYLE_COLOUR('',#4170);
#4190=FILL_AREA_STYLE('',(#4180));
#4200=SURFACE_STYLE_FILL_AREA(#4190);
#4210=SURFACE_SIDE_STYLE('',(#4200));
#4220=SURFACE_STYLE_USAGE(.BOTH.,#4210);
#4230=PRESENTATION_STYLE_ASSIGNMENT((#4220));
#4240=CARTESIAN_POINT('',(-1.,6.1,0.));
#4250=DIRECTION('',(-1.,0.,0.));
#4260=DIRECTION('',(0.,1.,0.));
#4270=AXIS2_PLACEMENT_3D('',#4240,#4250,#4260);
#4280=PLANE('',#4270);
#4290=ORIENTED_EDGE('',*,*,#4110,.F.);
#4300=ORIENTED_EDGE('',*,*,#3050,.F.);
#4310=ORIENTED_EDGE('',*,*,#3450,.T.);
#4320=ORIENTED_EDGE('',*,*,#3780,.T.);
#4330=EDGE_LOOP('',(#4320,#4310,#4300,#4290));
#4340=FACE_OUTER_BOUND('',#4330,.T.);
#4350=ADVANCED_FACE('',(#4340),#4280,.T.);
#4360=COLOUR_RGB('',0.,0.,0.);
#4370=FILL_AREA_STYLE_COLOUR('',#4360);
#4380=FILL_AREA_STYLE('',(#4370));
#4390=SURFACE_STYLE_FILL_AREA(#4380);
#4400=SURFACE_SIDE_STYLE('',(#4390));
#4410=SURFACE_STYLE_USAGE(.BOTH.,#4400);
#4420=PRESENTATION_STYLE_ASSIGNMENT((#4410));
#4430=CARTESIAN_POINT('',(3.,7.385,0.));
#4440=DIRECTION('',(1.,0.,0.));
#4450=DIRECTION('',(0.,-1.,0.));
#4460=AXIS2_PLACEMENT_3D('',#4430,#4440,#4450);
#4470=PLANE('',#4460);
#4480=EDGE_CURVE('',#1300,#1110,#1370,.T.);
#4490=ORIENTED_EDGE('',*,*,#4480,.F.);
#4500=ORIENTED_EDGE('',*,*,#1380,.F.);
#4510=EDGE_LOOP('',(#4500,#4490));
#4520=FACE_OUTER_BOUND('',#4510,.T.);
#4530=CARTESIAN_POINT('',(3.,0.,0.));
#4540=DIRECTION('',(1.,0.,0.));
#4550=DIRECTION('',(0.,1.,0.));
#4560=AXIS2_PLACEMENT_3D('',#4530,#4540,#4550);
#4570=CIRCLE('',#4560,5.385);
#4580=CARTESIAN_POINT('',(3.,5.385,-6.5947230134085E-16));
#4590=VERTEX_POINT('',#4580);
#4600=CARTESIAN_POINT('',(3.,-5.385,0.));
#4610=VERTEX_POINT('',#4600);
#4620=EDGE_CURVE('',#4590,#4610,#4570,.T.);
#4630=ORIENTED_EDGE('',*,*,#4620,.T.);
#4640=EDGE_CURVE('',#4610,#4590,#4570,.T.);
#4650=ORIENTED_EDGE('',*,*,#4640,.T.);
#4660=EDGE_LOOP('',(#4650,#4630));
#4670=FACE_BOUND('',#4660,.T.);
#4680=ADVANCED_FACE('',(#4520,#4670),#4470,.F.);
#4690=COLOUR_RGB('',0.,0.,0.);
#4700=FILL_AREA_STYLE_COLOUR('',#4690);
#4710=FILL_AREA_STYLE('',(#4700));
#4720=SURFACE_STYLE_FILL_AREA(#4710);
#4730=SURFACE_SIDE_STYLE('',(#4720));
#4740=SURFACE_STYLE_USAGE(.BOTH.,#4730);
#4750=PRESENTATION_STYLE_ASSIGNMENT((#4740));
#4760=CARTESIAN_POINT('',(2.3,0.,0.));
#4770=DIRECTION('',(1.,0.,0.));
#4780=DIRECTION('',(0.,-1.,0.));
#4790=AXIS2_PLACEMENT_3D('',#4760,#4770,#4780);
#4800=CYLINDRICAL_SURFACE('',#4790,5.385);
#4810=CARTESIAN_POINT('',(2.3,5.385,-6.5947230134085E-16));
#4820=DIRECTION('',(1.,0.,0.));
#4830=VECTOR('',#4820,1.);
#4840=LINE('',#4810,#4830);
#4850=EDGE_CURVE('',#1760,#4590,#4840,.T.);
#4860=ORIENTED_EDGE('',*,*,#4850,.T.);
#4870=ORIENTED_EDGE('',*,*,#1810,.T.);
#4880=CARTESIAN_POINT('',(2.3,-5.385,0.));
#4890=DIRECTION('',(1.,0.,0.));
#4900=VECTOR('',#4890,1.);
#4910=LINE('',#4880,#4900);
#4920=EDGE_CURVE('',#1780,#4610,#4910,.T.);
#4930=ORIENTED_EDGE('',*,*,#4920,.F.);
#4940=ORIENTED_EDGE('',*,*,#4640,.F.);
#4950=EDGE_LOOP('',(#4940,#4930,#4870,#4860));
#4960=FACE_OUTER_BOUND('',#4950,.T.);
#4970=ADVANCED_FACE('',(#4960),#4800,.T.);
#4980=COLOUR_RGB('',0.,0.,0.);
#4990=FILL_AREA_STYLE_COLOUR('',#4980);
#5000=FILL_AREA_STYLE('',(#4990));
#5010=SURFACE_STYLE_FILL_AREA(#5000);
#5020=SURFACE_SIDE_STYLE('',(#5010));
#5030=SURFACE_STYLE_USAGE(.BOTH.,#5020);
#5040=PRESENTATION_STYLE_ASSIGNMENT((#5030));
#5050=CARTESIAN_POINT('',(6.,8.785,0.));
#5060=DIRECTION('',(1.,0.,0.));
#5070=DIRECTION('',(0.,-1.,0.));
#5080=AXIS2_PLACEMENT_3D('',#5050,#5060,#5070);
#5090=PLANE('',#5080);
#5100=EDGE_CURVE('',#1220,#1130,#1200,.T.);
#5110=ORIENTED_EDGE('',*,*,#5100,.T.);
#5120=ORIENTED_EDGE('',*,*,#1230,.T.);
#5130=EDGE_LOOP('',(#5120,#5110));
#5140=FACE_OUTER_BOUND('',#5130,.T.);
#5150=CARTESIAN_POINT('',(6.,0.,0.));
#5160=DIRECTION('',(1.,0.,0.));
#5170=DIRECTION('',(0.,1.,0.));
#5180=AXIS2_PLACEMENT_3D('',#5150,#5160,#5170);
#5190=CIRCLE('',#5180,5.385);
#5200=CARTESIAN_POINT('',(6.,5.385,-6.5947230134085E-16));
#5210=VERTEX_POINT('',#5200);
#5220=CARTESIAN_POINT('',(6.,-5.385,0.));
#5230=VERTEX_POINT('',#5220);
#5240=EDGE_CURVE('',#5210,#5230,#5190,.T.);
#5250=ORIENTED_EDGE('',*,*,#5240,.F.);
#5260=EDGE_CURVE('',#5230,#5210,#5190,.T.);
#5270=ORIENTED_EDGE('',*,*,#5260,.F.);
#5280=EDGE_LOOP('',(#5270,#5250));
#5290=FACE_BOUND('',#5280,.T.);
#5300=ADVANCED_FACE('',(#5140,#5290),#5090,.T.);
#5310=COLOUR_RGB('',0.,0.,0.);
#5320=FILL_AREA_STYLE_COLOUR('',#5310);
#5330=FILL_AREA_STYLE('',(#5320));
#5340=SURFACE_STYLE_FILL_AREA(#5330);
#5350=SURFACE_SIDE_STYLE('',(#5340));
#5360=SURFACE_STYLE_USAGE(.BOTH.,#5350);
#5370=PRESENTATION_STYLE_ASSIGNMENT((#5360));
#5380=CARTESIAN_POINT('',(10.45,0.,0.));
#5390=DIRECTION('',(1.,0.,0.));
#5400=DIRECTION('',(0.,-1.,0.));
#5410=AXIS2_PLACEMENT_3D('',#5380,#5390,#5400);
#5420=CYLINDRICAL_SURFACE('',#5410,5.385);
#5430=CARTESIAN_POINT('',(10.45,-5.385,0.));
#5440=DIRECTION('',(1.,0.,0.));
#5450=VECTOR('',#5440,1.);
#5460=LINE('',#5430,#5450);
#5470=EDGE_CURVE('',#5230,#790,#5460,.T.);
#5480=ORIENTED_EDGE('',*,*,#5470,.T.);
#5490=ORIENTED_EDGE('',*,*,#5240,.T.);
#5500=CARTESIAN_POINT('',(10.45,5.385,-6.5947230134085E-16));
#5510=DIRECTION('',(1.,0.,0.));
#5520=VECTOR('',#5510,1.);
#5530=LINE('',#5500,#5520);
#5540=EDGE_CURVE('',#5210,#810,#5530,.T.);
#5550=ORIENTED_EDGE('',*,*,#5540,.F.);
#5560=ORIENTED_EDGE('',*,*,#840,.F.);
#5570=EDGE_LOOP('',(#5560,#5550,#5490,#5480));
#5580=FACE_OUTER_BOUND('',#5570,.T.);
#5590=ADVANCED_FACE('',(#5580),#5420,.T.);
#5600=COLOUR_RGB('',0.,0.,0.);
#5610=FILL_AREA_STYLE_COLOUR('',#5600);
#5620=FILL_AREA_STYLE('',(#5610));
#5630=SURFACE_STYLE_FILL_AREA(#5620);
#5640=SURFACE_SIDE_STYLE('',(#5630));
#5650=SURFACE_STYLE_USAGE(.BOTH.,#5640);
#5660=PRESENTATION_STYLE_ASSIGNMENT((#5650));
#5670=CARTESIAN_POINT('',(5.8,0.,0.));
#5680=DIRECTION('',(1.,0.,0.));
#5690=DIRECTION('',(0.,-1.,0.));
#5700=AXIS2_PLACEMENT_3D('',#5670,#5680,#5690);
#5710=CYLINDRICAL_SURFACE('',#5700,6.);
#5720=ORIENTED_EDGE('',*,*,#5100,.F.);
#5730=ORIENTED_EDGE('',*,*,#1140,.T.);
#5740=ORIENTED_EDGE('',*,*,#4480,.T.);
#5750=ORIENTED_EDGE('',*,*,#1310,.F.);
#5760=EDGE_LOOP('',(#5750,#5740,#5730,#5720));
#5770=FACE_OUTER_BOUND('',#5760,.T.);
#5780=ADVANCED_FACE('',(#5770),#5710,.T.);
#5790=COLOUR_RGB('',0.,0.,0.);
#5800=FILL_AREA_STYLE_COLOUR('',#5790);
#5810=FILL_AREA_STYLE('',(#5800));
#5820=SURFACE_STYLE_FILL_AREA(#5810);
#5830=SURFACE_SIDE_STYLE('',(#5820));
#5840=SURFACE_STYLE_USAGE(.BOTH.,#5830);
#5850=PRESENTATION_STYLE_ASSIGNMENT((#5840));
#5860=CARTESIAN_POINT('',(10.45,0.,0.));
#5870=DIRECTION('',(1.,0.,0.));
#5880=DIRECTION('',(0.,-1.,0.));
#5890=AXIS2_PLACEMENT_3D('',#5860,#5870,#5880);
#5900=CYLINDRICAL_SURFACE('',#5890,5.385);
#5910=ORIENTED_EDGE('',*,*,#5470,.F.);
#5920=ORIENTED_EDGE('',*,*,#820,.F.);
#5930=ORIENTED_EDGE('',*,*,#5540,.T.);
#5940=ORIENTED_EDGE('',*,*,#5260,.T.);
#5950=EDGE_LOOP('',(#5940,#5930,#5920,#5910));
#5960=FACE_OUTER_BOUND('',#5950,.T.);
#5970=ADVANCED_FACE('',(#5960),#5900,.T.);
#5980=COLOUR_RGB('',0.,0.,0.);
#5990=FILL_AREA_STYLE_COLOUR('',#5980);
#6000=FILL_AREA_STYLE('',(#5990));
#6010=SURFACE_STYLE_FILL_AREA(#6000);
#6020=SURFACE_SIDE_STYLE('',(#6010));
#6030=SURFACE_STYLE_USAGE(.BOTH.,#6020);
#6040=PRESENTATION_STYLE_ASSIGNMENT((#6030));
#6050=CARTESIAN_POINT('',(0.102285837690594,0.,0.));
#6060=DIRECTION('',(-1.,0.,0.));
#6070=DIRECTION('',(0.,1.,0.));
#6080=AXIS2_PLACEMENT_3D('',#6050,#6060,#6070);
#6090=CYLINDRICAL_SURFACE('',#6080,6.75);
#6100=ORIENTED_EDGE('',*,*,#2040,.F.);
#6110=EDGE_CURVE('',#2120,#2030,#2190,.T.);
#6120=ORIENTED_EDGE('',*,*,#6110,.T.);
#6130=ORIENTED_EDGE('',*,*,#2130,.T.);
#6140=ORIENTED_EDGE('',*,*,#1660,.T.);
#6150=EDGE_LOOP('',(#6140,#6130,#6120,#6100));
#6160=FACE_OUTER_BOUND('',#6150,.T.);
#6170=ADVANCED_FACE('',(#6160),#6090,.T.);
#6180=COLOUR_RGB('',0.,0.,0.);
#6190=FILL_AREA_STYLE_COLOUR('',#6180);
#6200=FILL_AREA_STYLE('',(#6190));
#6210=SURFACE_STYLE_FILL_AREA(#6200);
#6220=SURFACE_SIDE_STYLE('',(#6210));
#6230=SURFACE_STYLE_USAGE(.BOTH.,#6220);
#6240=PRESENTATION_STYLE_ASSIGNMENT((#6230));
#6250=CARTESIAN_POINT('',(5.,0.,0.));
#6260=DIRECTION('',(1.,0.,0.));
#6270=DIRECTION('',(0.,-1.,0.));
#6280=AXIS2_PLACEMENT_3D('',#6250,#6260,#6270);
#6290=CYLINDRICAL_SURFACE('',#6280,4.2);
#6300=ORIENTED_EDGE('',*,*,#880,.T.);
#6310=ORIENTED_EDGE('',*,*,#490,.T.);
#6320=ORIENTED_EDGE('',*,*,#150,.F.);
#6330=ORIENTED_EDGE('',*,*,#400,.F.);
#6340=EDGE_LOOP('',(#6330,#6320,#6310,#6300));
#6350=FACE_OUTER_BOUND('',#6340,.T.);
#6360=ADVANCED_FACE('',(#6350),#6290,.F.);
#6370=COLOUR_RGB('',0.,0.,0.);
#6380=FILL_AREA_STYLE_COLOUR('',#6370);
#6390=FILL_AREA_STYLE('',(#6380));
#6400=SURFACE_STYLE_FILL_AREA(#6390);
#6410=SURFACE_SIDE_STYLE('',(#6400));
#6420=SURFACE_STYLE_USAGE(.BOTH.,#6410);
#6430=PRESENTATION_STYLE_ASSIGNMENT((#6420));
#6440=CARTESIAN_POINT('',(2.3,0.,0.));
#6450=DIRECTION('',(1.,0.,0.));
#6460=DIRECTION('',(0.,-1.,0.));
#6470=AXIS2_PLACEMENT_3D('',#6440,#6450,#6460);
#6480=CYLINDRICAL_SURFACE('',#6470,5.385);
#6490=ORIENTED_EDGE('',*,*,#1790,.T.);
#6500=ORIENTED_EDGE('',*,*,#4850,.F.);
#6510=ORIENTED_EDGE('',*,*,#4620,.F.);
#6520=ORIENTED_EDGE('',*,*,#4920,.T.);
#6530=EDGE_LOOP('',(#6520,#6510,#6500,#6490));
#6540=FACE_OUTER_BOUND('',#6530,.T.);
#6550=ADVANCED_FACE('',(#6540),#6480,.T.);
#6560=COLOUR_RGB('',0.,0.,0.);
#6570=FILL_AREA_STYLE_COLOUR('',#6560);
#6580=FILL_AREA_STYLE('',(#6570));
#6590=SURFACE_STYLE_FILL_AREA(#6580);
#6600=SURFACE_SIDE_STYLE('',(#6590));
#6610=SURFACE_STYLE_USAGE(.BOTH.,#6600);
#6620=PRESENTATION_STYLE_ASSIGNMENT((#6610));
#6630=CARTESIAN_POINT('',(12.,0.,0.));
#6640=DIRECTION('',(1.,0.,0.));
#6650=DIRECTION('',(0.,-1.,0.));
#6660=AXIS2_PLACEMENT_3D('',#6630,#6640,#6650);
#6670=SPHERICAL_SURFACE('',#6660,15.);
#6680=ORIENTED_EDGE('',*,*,#4030,.F.);
#6690=ORIENTED_EDGE('',*,*,#3860,.T.);
#6700=ORIENTED_EDGE('',*,*,#3310,.F.);
#6710=ORIENTED_EDGE('',*,*,#2440,.F.);
#6720=ORIENTED_EDGE('',*,*,#6110,.F.);
#6730=ORIENTED_EDGE('',*,*,#2730,.F.);
#6740=EDGE_LOOP('',(#6730,#6720,#6710,#6700,#6690,#6680));
#6750=FACE_OUTER_BOUND('',#6740,.T.);
#6760=ADVANCED_FACE('',(#6750),#6670,.T.);
#6770=COLOUR_RGB('',0.,0.,0.);
#6780=FILL_AREA_STYLE_COLOUR('',#6770);
#6790=FILL_AREA_STYLE('',(#6780));
#6800=SURFACE_STYLE_FILL_AREA(#6790);
#6810=SURFACE_SIDE_STYLE('',(#6800));
#6820=SURFACE_STYLE_USAGE(.BOTH.,#6810);
#6830=PRESENTATION_STYLE_ASSIGNMENT((#6820));
#6840=CLOSED_SHELL('',(#210,#600,#930,#1420,#1850,#2240,#2780,#3160,
#3510,#3900,#4160,#4350,#4680,#4970,#5300,#5590,#5780,#5970,#6170,#6360,
#6550,#6760));
#6850=MANIFOLD_SOLID_BREP('',#6840);
#6860=CARTESIAN_POINT('',(0.,0.,0.));
#6870=DIRECTION('',(0.,0.,1.));
#6880=DIRECTION('',(1.,0.,0.));
#6890=AXIS2_PLACEMENT_3D('',#6860,#6870,#6880);
#6900=APPLICATION_CONTEXT(' ');
#6910=APPLICATION_PROTOCOL_DEFINITION(' ','automotive_design',1998,#6900
);
#6920=PRODUCT_CONTEXT('',#6900,'mechanical');
#6930=PRODUCT_DEFINITION_CONTEXT('part definition',#6900,'design');
#6940=PRODUCT('1695744_PROT_M12_VPE100-select',
'1695744_PROT_M12_VPE100-select','',(#6920));
#6950=PRODUCT_RELATED_PRODUCT_CATEGORY('part',' ',(#6940));
#6960=PRODUCT_DEFINITION_FORMATION_WITH_SPECIFIED_SOURCE('','',#6940,
.BOUGHT.);
#6970=PRODUCT_DEFINITION('',' ',#6960,#6930);
#6980=PRODUCT_DEFINITION_SHAPE('','',#6970);
#6990=DIMENSIONAL_EXPONENTS(1.,0.,0.,0.,0.,0.,0.);
#7000=DIMENSIONAL_EXPONENTS(0.,0.,0.,0.,0.,0.,0.);
#7010=DIMENSIONAL_EXPONENTS(0.,0.,0.,0.,0.,0.,0.);
#7020=(LENGTH_UNIT() NAMED_UNIT(*) SI_UNIT(.MILLI.,.METRE.));
#7030=(NAMED_UNIT(*) PLANE_ANGLE_UNIT() SI_UNIT($,.RADIAN.));
#7040=(NAMED_UNIT(*) SI_UNIT($,.STERADIAN.) SOLID_ANGLE_UNIT());
#7050=(GEOMETRIC_REPRESENTATION_CONTEXT(3) 
GLOBAL_UNCERTAINTY_ASSIGNED_CONTEXT((#7060)) 
GLOBAL_UNIT_ASSIGNED_CONTEXT((#7020,#7030,#7040)) REPRESENTATION_CONTEXT
('',''));
#7060=UNCERTAINTY_MEASURE_WITH_UNIT(LENGTH_MEASURE(1.E-6),#7020,
'distance_accuracy_value','maximum gap value');
#7070=ADVANCED_BREP_SHAPE_REPRESENTATION('',(#6890,#6850),#7050);
#7080=SHAPE_DEFINITION_REPRESENTATION(#6980,#7070);
#7090=COLOUR_RGB('',0.,0.,0.);
#7100=FILL_AREA_STYLE_COLOUR('',#7090);
#7110=FILL_AREA_STYLE('',(#7100));
#7120=SURFACE_STYLE_FILL_AREA(#7110);
#7130=SURFACE_SIDE_STYLE('',(#7120));
#7140=SURFACE_STYLE_USAGE(.BOTH.,#7130);
#7150=PRESENTATION_STYLE_ASSIGNMENT((#7140));
#7160=STYLED_ITEM('',(#7150),#6850);
#7170=OVER_RIDING_STYLED_ITEM('',(#280),#210,#7160);
#7180=OVER_RIDING_STYLED_ITEM('',(#670),#600,#7160);
#7190=OVER_RIDING_STYLED_ITEM('',(#1000),#930,#7160);
#7200=OVER_RIDING_STYLED_ITEM('',(#1490),#1420,#7160);
#7210=OVER_RIDING_STYLED_ITEM('',(#1920),#1850,#7160);
#7220=OVER_RIDING_STYLED_ITEM('',(#2310),#2240,#7160);
#7230=OVER_RIDING_STYLED_ITEM('',(#2850),#2780,#7160);
#7240=OVER_RIDING_STYLED_ITEM('',(#3230),#3160,#7160);
#7250=OVER_RIDING_STYLED_ITEM('',(#3580),#3510,#7160);
#7260=OVER_RIDING_STYLED_ITEM('',(#3970),#3900,#7160);
#7270=OVER_RIDING_STYLED_ITEM('',(#4230),#4160,#7160);
#7280=OVER_RIDING_STYLED_ITEM('',(#4420),#4350,#7160);
#7290=OVER_RIDING_STYLED_ITEM('',(#4750),#4680,#7160);
#7300=OVER_RIDING_STYLED_ITEM('',(#5040),#4970,#7160);
#7310=OVER_RIDING_STYLED_ITEM('',(#5370),#5300,#7160);
#7320=OVER_RIDING_STYLED_ITEM('',(#5660),#5590,#7160);
#7330=OVER_RIDING_STYLED_ITEM('',(#5850),#5780,#7160);
#7340=OVER_RIDING_STYLED_ITEM('',(#6040),#5970,#7160);
#7350=OVER_RIDING_STYLED_ITEM('',(#6240),#6170,#7160);
#7360=OVER_RIDING_STYLED_ITEM('',(#6430),#6360,#7160);
#7370=OVER_RIDING_STYLED_ITEM('',(#6620),#6550,#7160);
#7380=OVER_RIDING_STYLED_ITEM('',(#6830),#6760,#7160);
#7390=DRAUGHTING_MODEL('',(#7160,#7170,#7180,#7190,#7200,#7210,#7220,
#7230,#7240,#7250,#7260,#7270,#7280,#7290,#7300,#7310,#7320,#7330,#7340,
#7350,#7360,#7370,#7380),#7050);
ENDSEC;
END-ISO-10303-21;
