ISO-10303-21;
HEADER;
FILE_DESCRIPTION(('SolidDesigner STEP Export'),'2;1');
FILE_NAME('1687587_HC_NPT_1_1_4_M40-select.stp','2015-09-11T13:51:34',(
''),(''),
'Creo Elements/Direct Modeling STEP processor for AP214 (Solid Model)',
'Creo Elements/Direct Modeling 18.1B  29-Sep-2012 (C) Parametric Technol
ogy GmbH','');
FILE_SCHEMA(('AUTOMOTIVE_DESIGN { 1 0 10303 214 1 1 1 1 }'));
ENDSEC;
DATA;
#10=CARTESIAN_POINT('',(2.972802,12.040509,0.));
#20=DIRECTION('',(-1.,0.,0.));
#30=DIRECTION('',(0.,1.,0.));
#40=AXIS2_PLACEMENT_3D('',#10,#20,#30);
#50=PLANE('',#40);
#60=CARTESIAN_POINT('',(2.972802,0.540509,0.));
#70=DIRECTION('',(1.,0.,0.));
#80=DIRECTION('',(0.,1.,0.));
#90=AXIS2_PLACEMENT_3D('',#60,#70,#80);
#100=CIRCLE('',#90,23.);
#110=CARTESIAN_POINT('',(2.972802,23.540509,0.));
#120=VERTEX_POINT('',#110);
#130=CARTESIAN_POINT('',(2.972802,-22.459491,-2.81668763803891E-15));
#140=VERTEX_POINT('',#130);
#150=EDGE_CURVE('',#120,#140,#100,.T.);
#160=ORIENTED_EDGE('',*,*,#150,.F.);
#170=EDGE_CURVE('',#140,#120,#100,.T.);
#180=ORIENTED_EDGE('',*,*,#170,.F.);
#190=EDGE_LOOP('',(#180,#160));
#200=FACE_OUTER_BOUND('',#190,.T.);
#210=CARTESIAN_POINT('',(2.972802,0.540509,0.));
#220=DIRECTION('',(-1.,0.,0.));
#230=DIRECTION('',(0.,-1.,0.));
#240=AXIS2_PLACEMENT_3D('',#210,#220,#230);
#250=CIRCLE('',#240,20.9925);
#260=CARTESIAN_POINT('',(2.972802,-20.451991,0.));
#270=VERTEX_POINT('',#260);
#280=CARTESIAN_POINT('',(2.972802,21.533009,2.57083979311008E-15));
#290=VERTEX_POINT('',#280);
#300=EDGE_CURVE('',#270,#290,#250,.T.);
#310=ORIENTED_EDGE('',*,*,#300,.F.);
#320=EDGE_CURVE('',#290,#270,#250,.T.);
#330=ORIENTED_EDGE('',*,*,#320,.F.);
#340=EDGE_LOOP('',(#330,#310));
#350=FACE_BOUND('',#340,.T.);
#360=ADVANCED_FACE('',(#200,#350),#50,.T.);
#370=COLOUR_RGB('',0.831372618675232,0.850980460643768,0.858823597431183
);
#380=FILL_AREA_STYLE_COLOUR('',#370);
#390=FILL_AREA_STYLE('',(#380));
#400=SURFACE_STYLE_FILL_AREA(#390);
#410=SURFACE_SIDE_STYLE('',(#400));
#420=SURFACE_STYLE_USAGE(.BOTH.,#410);
#430=PRESENTATION_STYLE_ASSIGNMENT((#420));
#440=CARTESIAN_POINT('',(28.972802,10.540509,0.));
#450=DIRECTION('',(1.,0.,0.));
#460=DIRECTION('',(0.,-1.,0.));
#470=AXIS2_PLACEMENT_3D('',#440,#450,#460);
#480=PLANE('',#470);
#490=CARTESIAN_POINT('',(28.972802,0.540509,0.));
#500=DIRECTION('',(1.,0.,0.));
#510=DIRECTION('',(0.,1.,0.));
#520=AXIS2_PLACEMENT_3D('',#490,#500,#510);
#530=CIRCLE('',#520,17.);
#540=CARTESIAN_POINT('',(28.972802,17.540509,0.));
#550=VERTEX_POINT('',#540);
#560=CARTESIAN_POINT('',(28.972802,-16.459491,2.0818995585505E-15));
#570=VERTEX_POINT('',#560);
#580=EDGE_CURVE('',#550,#570,#530,.T.);
#590=ORIENTED_EDGE('',*,*,#580,.F.);
#600=EDGE_CURVE('',#570,#550,#530,.T.);
#610=ORIENTED_EDGE('',*,*,#600,.F.);
#620=EDGE_LOOP('',(#610,#590));
#630=FACE_BOUND('',#620,.T.);
#640=CARTESIAN_POINT('',(28.972802,0.540509,0.));
#650=DIRECTION('',(-1.,0.,0.));
#660=DIRECTION('',(0.,1.,0.));
#670=AXIS2_PLACEMENT_3D('',#640,#650,#660);
#680=CIRCLE('',#670,20.);
#690=CARTESIAN_POINT('',(28.972802,20.540509,0.));
#700=VERTEX_POINT('',#690);
#710=CARTESIAN_POINT('',(28.972802,-19.459491,-2.44929359829471E-15));
#720=VERTEX_POINT('',#710);
#730=EDGE_CURVE('',#700,#720,#680,.T.);
#740=ORIENTED_EDGE('',*,*,#730,.F.);
#750=EDGE_CURVE('',#720,#700,#680,.T.);
#760=ORIENTED_EDGE('',*,*,#750,.F.);
#770=EDGE_LOOP('',(#760,#740));
#780=FACE_OUTER_BOUND('',#770,.T.);
#790=ADVANCED_FACE('',(#630,#780),#480,.T.);
#800=COLOUR_RGB('',0.831372618675232,0.850980460643768,0.858823597431183
);
#810=FILL_AREA_STYLE_COLOUR('',#800);
#820=FILL_AREA_STYLE('',(#810));
#830=SURFACE_STYLE_FILL_AREA(#820);
#840=SURFACE_SIDE_STYLE('',(#830));
#850=SURFACE_STYLE_USAGE(.BOTH.,#840);
#860=PRESENTATION_STYLE_ASSIGNMENT((#850));
#870=CARTESIAN_POINT('',(25.972802,0.540509,0.));
#880=DIRECTION('',(-1.,0.,0.));
#890=DIRECTION('',(0.,1.,0.));
#900=AXIS2_PLACEMENT_3D('',#870,#880,#890);
#910=CYLINDRICAL_SURFACE('',#900,20.);
#920=CARTESIAN_POINT('',(25.972802,-19.459491,-2.44929359829471E-15));
#930=DIRECTION('',(-1.,0.,0.));
#940=VECTOR('',#930,1.);
#950=LINE('',#920,#940);
#960=CARTESIAN_POINT('',(22.9677894371066,-19.459491,0.));
#970=VERTEX_POINT('',#960);
#980=EDGE_CURVE('',#720,#970,#950,.T.);
#990=ORIENTED_EDGE('',*,*,#980,.T.);
#1000=ORIENTED_EDGE('',*,*,#730,.T.);
#1010=CARTESIAN_POINT('',(25.972802,20.540509,0.));
#1020=DIRECTION('',(-1.,0.,0.));
#1030=VECTOR('',#1020,1.);
#1040=LINE('',#1010,#1030);
#1050=CARTESIAN_POINT('',(22.9677894371066,20.540509,0.));
#1060=VERTEX_POINT('',#1050);
#1070=EDGE_CURVE('',#700,#1060,#1040,.T.);
#1080=ORIENTED_EDGE('',*,*,#1070,.F.);
#1090=CARTESIAN_POINT('',(22.9677894371066,0.540509,0.));
#1100=DIRECTION('',(1.,0.,0.));
#1110=DIRECTION('',(0.,1.,0.));
#1120=AXIS2_PLACEMENT_3D('',#1090,#1100,#1110);
#1130=CIRCLE('',#1120,20.);
#1140=EDGE_CURVE('',#970,#1060,#1130,.T.);
#1150=ORIENTED_EDGE('',*,*,#1140,.T.);
#1160=EDGE_LOOP('',(#1150,#1080,#1000,#990));
#1170=FACE_OUTER_BOUND('',#1160,.T.);
#1180=ADVANCED_FACE('',(#1170),#910,.T.);
#1190=COLOUR_RGB('',0.831372618675232,0.850980460643768,
0.858823597431183);
#1200=FILL_AREA_STYLE_COLOUR('',#1190);
#1210=FILL_AREA_STYLE('',(#1200));
#1220=SURFACE_STYLE_FILL_AREA(#1210);
#1230=SURFACE_SIDE_STYLE('',(#1220));
#1240=SURFACE_STYLE_USAGE(.BOTH.,#1230);
#1250=PRESENTATION_STYLE_ASSIGNMENT((#1240));
#1260=CARTESIAN_POINT('',(21.0417420699532,0.540509,0.));
#1270=DIRECTION('',(-1.,0.,0.));
#1280=DIRECTION('',(0.,1.,0.));
#1290=AXIS2_PLACEMENT_3D('',#1260,#1270,#1280);
#1300=CYLINDRICAL_SURFACE('',#1290,20.4067043978812);
#1310=CARTESIAN_POINT('',(21.0417420699532,20.9472133978812,0.));
#1320=DIRECTION('',(-1.,0.,0.));
#1330=VECTOR('',#1320,1.);
#1340=LINE('',#1310,#1330);
#1350=CARTESIAN_POINT('',(21.1106821399064,20.9472133978812,0.));
#1360=VERTEX_POINT('',#1350);
#1370=CARTESIAN_POINT('',(20.972802,20.9472133978812,0.));
#1380=VERTEX_POINT('',#1370);
#1390=EDGE_CURVE('',#1360,#1380,#1340,.T.);
#1400=ORIENTED_EDGE('',*,*,#1390,.T.);
#1410=CARTESIAN_POINT('',(21.1106821399064,0.540509,0.));
#1420=DIRECTION('',(1.,0.,0.));
#1430=DIRECTION('',(0.,1.,0.));
#1440=AXIS2_PLACEMENT_3D('',#1410,#1420,#1430);
#1450=CIRCLE('',#1440,20.4067043978812);
#1460=CARTESIAN_POINT('',(21.1106821399064,-19.8661953978812,0.));
#1470=VERTEX_POINT('',#1460);
#1480=EDGE_CURVE('',#1360,#1470,#1450,.T.);
#1490=ORIENTED_EDGE('',*,*,#1480,.F.);
#1500=CARTESIAN_POINT('',(21.0417420699532,-19.8661953978812,
-2.49910052220115E-15));
#1510=DIRECTION('',(-1.,0.,0.));
#1520=VECTOR('',#1510,1.);
#1530=LINE('',#1500,#1520);
#1540=CARTESIAN_POINT('',(20.972802,-19.8661953978812,
-2.49910052220115E-15));
#1550=VERTEX_POINT('',#1540);
#1560=EDGE_CURVE('',#1470,#1550,#1530,.T.);
#1570=ORIENTED_EDGE('',*,*,#1560,.F.);
#1580=CARTESIAN_POINT('',(20.972802,0.540509,0.));
#1590=DIRECTION('',(-1.,0.,0.));
#1600=DIRECTION('',(0.,1.,0.));
#1610=AXIS2_PLACEMENT_3D('',#1580,#1590,#1600);
#1620=CIRCLE('',#1610,20.4067043978812);
#1630=EDGE_CURVE('',#1550,#1380,#1620,.T.);
#1640=ORIENTED_EDGE('',*,*,#1630,.F.);
#1650=EDGE_LOOP('',(#1640,#1570,#1490,#1400));
#1660=FACE_OUTER_BOUND('',#1650,.T.);
#1670=ADVANCED_FACE('',(#1660),#1300,.T.);
#1680=COLOUR_RGB('',0.831372618675232,0.850980460643768,
0.858823597431183);
#1690=FILL_AREA_STYLE_COLOUR('',#1680);
#1700=FILL_AREA_STYLE('',(#1690));
#1710=SURFACE_STYLE_FILL_AREA(#1700);
#1720=SURFACE_SIDE_STYLE('',(#1710));
#1730=SURFACE_STYLE_USAGE(.BOTH.,#1720);
#1740=PRESENTATION_STYLE_ASSIGNMENT((#1730));
#1750=CARTESIAN_POINT('',(2.972802,0.540509,0.));
#1760=DIRECTION('',(-1.,0.,0.));
#1770=DIRECTION('',(0.,-1.,0.));
#1780=AXIS2_PLACEMENT_3D('',#1750,#1760,#1770);
#1790=CYLINDRICAL_SURFACE('',#1780,20.9925);
#1800=CARTESIAN_POINT('',(2.972802,21.533009,2.57083979311008E-15));
#1810=DIRECTION('',(-1.,0.,0.));
#1820=VECTOR('',#1810,1.);
#1830=LINE('',#1800,#1820);
#1840=CARTESIAN_POINT('',(17.972802,21.533009,2.57083979311008E-15));
#1850=VERTEX_POINT('',#1840);
#1860=EDGE_CURVE('',#1850,#290,#1830,.T.);
#1870=ORIENTED_EDGE('',*,*,#1860,.T.);
#1880=CARTESIAN_POINT('',(17.972802,0.540509,0.));
#1890=DIRECTION('',(-1.,0.,0.));
#1900=DIRECTION('',(0.,-1.,0.));
#1910=AXIS2_PLACEMENT_3D('',#1880,#1890,#1900);
#1920=CIRCLE('',#1910,20.9925);
#1930=CARTESIAN_POINT('',(17.972802,-20.451991,0.));
#1940=VERTEX_POINT('',#1930);
#1950=EDGE_CURVE('',#1850,#1940,#1920,.T.);
#1960=ORIENTED_EDGE('',*,*,#1950,.F.);
#1970=CARTESIAN_POINT('',(2.972802,-20.451991,0.));
#1980=DIRECTION('',(-1.,0.,0.));
#1990=VECTOR('',#1980,1.);
#2000=LINE('',#1970,#1990);
#2010=EDGE_CURVE('',#1940,#270,#2000,.T.);
#2020=ORIENTED_EDGE('',*,*,#2010,.F.);
#2030=ORIENTED_EDGE('',*,*,#320,.T.);
#2040=EDGE_LOOP('',(#2030,#2020,#1960,#1870));
#2050=FACE_OUTER_BOUND('',#2040,.T.);
#2060=ADVANCED_FACE('',(#2050),#1790,.F.);
#2070=COLOUR_RGB('',0.831372618675232,0.850980460643768,
0.858823597431183);
#2080=FILL_AREA_STYLE_COLOUR('',#2070);
#2090=FILL_AREA_STYLE('',(#2080));
#2100=SURFACE_STYLE_FILL_AREA(#2090);
#2110=SURFACE_SIDE_STYLE('',(#2100));
#2120=SURFACE_STYLE_USAGE(.BOTH.,#2110);
#2130=PRESENTATION_STYLE_ASSIGNMENT((#2120));
#2140=CARTESIAN_POINT('',(20.972802,21.490509,0.));
#2150=DIRECTION('',(1.,0.,0.));
#2160=DIRECTION('',(0.,-1.,0.));
#2170=AXIS2_PLACEMENT_3D('',#2140,#2150,#2160);
#2180=PLANE('',#2170);
#2190=CARTESIAN_POINT('',(20.972802,0.540509,0.));
#2200=DIRECTION('',(1.,0.,0.));
#2210=DIRECTION('',(0.,1.,0.));
#2220=AXIS2_PLACEMENT_3D('',#2190,#2200,#2210);
#2230=CIRCLE('',#2220,23.);
#2240=CARTESIAN_POINT('',(20.972802,23.540509,0.));
#2250=VERTEX_POINT('',#2240);
#2260=CARTESIAN_POINT('',(20.972802,-22.459491,-2.81668763803891E-15));
#2270=VERTEX_POINT('',#2260);
#2280=EDGE_CURVE('',#2250,#2270,#2230,.T.);
#2290=ORIENTED_EDGE('',*,*,#2280,.T.);
#2300=EDGE_CURVE('',#2270,#2250,#2230,.T.);
#2310=ORIENTED_EDGE('',*,*,#2300,.T.);
#2320=EDGE_LOOP('',(#2310,#2290));
#2330=FACE_OUTER_BOUND('',#2320,.T.);
#2340=EDGE_CURVE('',#1380,#1550,#1620,.T.);
#2350=ORIENTED_EDGE('',*,*,#2340,.T.);
#2360=ORIENTED_EDGE('',*,*,#1630,.T.);
#2370=EDGE_LOOP('',(#2360,#2350));
#2380=FACE_BOUND('',#2370,.T.);
#2390=ADVANCED_FACE('',(#2330,#2380),#2180,.T.);
#2400=COLOUR_RGB('',0.831372618675232,0.850980460643768,
0.858823597431183);
#2410=FILL_AREA_STYLE_COLOUR('',#2400);
#2420=FILL_AREA_STYLE('',(#2410));
#2430=SURFACE_STYLE_FILL_AREA(#2420);
#2440=SURFACE_SIDE_STYLE('',(#2430));
#2450=SURFACE_STYLE_USAGE(.BOTH.,#2440);
#2460=PRESENTATION_STYLE_ASSIGNMENT((#2450));
#2470=CARTESIAN_POINT('',(11.972802,0.540509,0.));
#2480=DIRECTION('',(-1.,0.,0.));
#2490=DIRECTION('',(0.,1.,0.));
#2500=AXIS2_PLACEMENT_3D('',#2470,#2480,#2490);
#2510=CYLINDRICAL_SURFACE('',#2500,23.);
#2520=CARTESIAN_POINT('',(11.972802,-22.459491,-2.81668763803891E-15));
#2530=DIRECTION('',(-1.,0.,0.));
#2540=VECTOR('',#2530,1.);
#2550=LINE('',#2520,#2540);
#2560=EDGE_CURVE('',#2270,#140,#2550,.T.);
#2570=ORIENTED_EDGE('',*,*,#2560,.T.);
#2580=ORIENTED_EDGE('',*,*,#2300,.F.);
#2590=CARTESIAN_POINT('',(11.972802,23.540509,0.));
#2600=DIRECTION('',(-1.,0.,0.));
#2610=VECTOR('',#2600,1.);
#2620=LINE('',#2590,#2610);
#2630=EDGE_CURVE('',#2250,#120,#2620,.T.);
#2640=ORIENTED_EDGE('',*,*,#2630,.F.);
#2650=ORIENTED_EDGE('',*,*,#170,.T.);
#2660=EDGE_LOOP('',(#2650,#2640,#2580,#2570));
#2670=FACE_OUTER_BOUND('',#2660,.T.);
#2680=ADVANCED_FACE('',(#2670),#2510,.T.);
#2690=COLOUR_RGB('',0.831372618675232,0.850980460643768,
0.858823597431183);
#2700=FILL_AREA_STYLE_COLOUR('',#2690);
#2710=FILL_AREA_STYLE('',(#2700));
#2720=SURFACE_STYLE_FILL_AREA(#2710);
#2730=SURFACE_SIDE_STYLE('',(#2720));
#2740=SURFACE_STYLE_USAGE(.BOTH.,#2730);
#2750=PRESENTATION_STYLE_ASSIGNMENT((#2740));
#2760=CARTESIAN_POINT('',(28.972802,0.540509,0.));
#2770=DIRECTION('',(1.,0.,0.));
#2780=DIRECTION('',(0.,1.,0.));
#2790=AXIS2_PLACEMENT_3D('',#2760,#2770,#2780);
#2800=CYLINDRICAL_SURFACE('',#2790,17.);
#2810=CARTESIAN_POINT('',(28.972802,-16.459491,2.0818995585505E-15));
#2820=DIRECTION('',(1.,0.,0.));
#2830=VECTOR('',#2820,1.);
#2840=LINE('',#2810,#2830);
#2850=CARTESIAN_POINT('',(17.972802,-16.459491,2.0818995585505E-15));
#2860=VERTEX_POINT('',#2850);
#2870=EDGE_CURVE('',#2860,#570,#2840,.T.);
#2880=ORIENTED_EDGE('',*,*,#2870,.T.);
#2890=CARTESIAN_POINT('',(17.972802,0.540509,0.));
#2900=DIRECTION('',(1.,0.,0.));
#2910=DIRECTION('',(0.,1.,0.));
#2920=AXIS2_PLACEMENT_3D('',#2890,#2900,#2910);
#2930=CIRCLE('',#2920,17.);
#2940=CARTESIAN_POINT('',(17.972802,17.540509,0.));
#2950=VERTEX_POINT('',#2940);
#2960=EDGE_CURVE('',#2860,#2950,#2930,.T.);
#2970=ORIENTED_EDGE('',*,*,#2960,.F.);
#2980=CARTESIAN_POINT('',(28.972802,17.540509,0.));
#2990=DIRECTION('',(1.,0.,0.));
#3000=VECTOR('',#2990,1.);
#3010=LINE('',#2980,#3000);
#3020=EDGE_CURVE('',#2950,#550,#3010,.T.);
#3030=ORIENTED_EDGE('',*,*,#3020,.F.);
#3040=ORIENTED_EDGE('',*,*,#600,.T.);
#3050=EDGE_LOOP('',(#3040,#3030,#2970,#2880));
#3060=FACE_OUTER_BOUND('',#3050,.T.);
#3070=ADVANCED_FACE('',(#3060),#2800,.F.);
#3080=COLOUR_RGB('',0.831372618675232,0.850980460643768,
0.858823597431183);
#3090=FILL_AREA_STYLE_COLOUR('',#3080);
#3100=FILL_AREA_STYLE('',(#3090));
#3110=SURFACE_STYLE_FILL_AREA(#3100);
#3120=SURFACE_SIDE_STYLE('',(#3110));
#3130=SURFACE_STYLE_USAGE(.BOTH.,#3120);
#3140=PRESENTATION_STYLE_ASSIGNMENT((#3130));
#3150=CARTESIAN_POINT('',(21.972802,0.540509,0.));
#3160=DIRECTION('',(1.,0.,0.));
#3170=DIRECTION('',(0.,1.,0.));
#3180=AXIS2_PLACEMENT_3D('',#3150,#3160,#3170);
#3190=TOROIDAL_SURFACE('',#3180,19.9,1.);
#3200=CARTESIAN_POINT('',(21.972802,20.440509,0.));
#3210=DIRECTION('',(0.,0.,1.));
#3220=DIRECTION('',(1.,0.,0.));
#3230=AXIS2_PLACEMENT_3D('',#3200,#3210,#3220);
#3240=CIRCLE('',#3230,1.);
#3250=EDGE_CURVE('',#1060,#1360,#3240,.T.);
#3260=ORIENTED_EDGE('',*,*,#3250,.F.);
#3270=EDGE_CURVE('',#1470,#1360,#1450,.T.);
#3280=ORIENTED_EDGE('',*,*,#3270,.T.);
#3290=CARTESIAN_POINT('',(21.972802,-19.359491,0.));
#3300=DIRECTION('',(0.,0.,-1.));
#3310=DIRECTION('',(1.,0.,0.));
#3320=AXIS2_PLACEMENT_3D('',#3290,#3300,#3310);
#3330=CIRCLE('',#3320,1.);
#3340=EDGE_CURVE('',#970,#1470,#3330,.T.);
#3350=ORIENTED_EDGE('',*,*,#3340,.T.);
#3360=ORIENTED_EDGE('',*,*,#1140,.F.);
#3370=EDGE_LOOP('',(#3360,#3350,#3280,#3260));
#3380=FACE_OUTER_BOUND('',#3370,.T.);
#3390=ADVANCED_FACE('',(#3380),#3190,.T.);
#3400=COLOUR_RGB('',0.,0.,0.);
#3410=FILL_AREA_STYLE_COLOUR('',#3400);
#3420=FILL_AREA_STYLE('',(#3410));
#3430=SURFACE_STYLE_FILL_AREA(#3420);
#3440=SURFACE_SIDE_STYLE('',(#3430));
#3450=SURFACE_STYLE_USAGE(.BOTH.,#3440);
#3460=PRESENTATION_STYLE_ASSIGNMENT((#3450));
#3470=CARTESIAN_POINT('',(17.972802,2.92846601962431,7.73884145658376));
#3480=DIRECTION('',(-1.,0.,0.));
#3490=DIRECTION('',(0.,-1.,0.));
#3500=AXIS2_PLACEMENT_3D('',#3470,#3480,#3490);
#3510=PLANE('',#3500);
#3520=EDGE_CURVE('',#1940,#1850,#1920,.T.);
#3530=ORIENTED_EDGE('',*,*,#3520,.T.);
#3540=ORIENTED_EDGE('',*,*,#1950,.T.);
#3550=EDGE_LOOP('',(#3540,#3530));
#3560=FACE_OUTER_BOUND('',#3550,.T.);
#3570=EDGE_CURVE('',#2950,#2860,#2930,.T.);
#3580=ORIENTED_EDGE('',*,*,#3570,.T.);
#3590=ORIENTED_EDGE('',*,*,#2960,.T.);
#3600=EDGE_LOOP('',(#3590,#3580));
#3610=FACE_BOUND('',#3600,.T.);
#3620=ADVANCED_FACE('',(#3560,#3610),#3510,.T.);
#3630=COLOUR_RGB('',0.831372618675232,0.850980460643768,
0.858823597431183);
#3640=FILL_AREA_STYLE_COLOUR('',#3630);
#3650=FILL_AREA_STYLE('',(#3640));
#3660=SURFACE_STYLE_FILL_AREA(#3650);
#3670=SURFACE_SIDE_STYLE('',(#3660));
#3680=SURFACE_STYLE_USAGE(.BOTH.,#3670);
#3690=PRESENTATION_STYLE_ASSIGNMENT((#3680));
#3700=CARTESIAN_POINT('',(2.972802,0.540509,0.));
#3710=DIRECTION('',(-1.,0.,0.));
#3720=DIRECTION('',(0.,-1.,0.));
#3730=AXIS2_PLACEMENT_3D('',#3700,#3710,#3720);
#3740=CYLINDRICAL_SURFACE('',#3730,20.9925);
#3750=ORIENTED_EDGE('',*,*,#3520,.F.);
#3760=ORIENTED_EDGE('',*,*,#1860,.F.);
#3770=ORIENTED_EDGE('',*,*,#300,.T.);
#3780=ORIENTED_EDGE('',*,*,#2010,.T.);
#3790=EDGE_LOOP('',(#3780,#3770,#3760,#3750));
#3800=FACE_OUTER_BOUND('',#3790,.T.);
#3810=ADVANCED_FACE('',(#3800),#3740,.F.);
#3820=COLOUR_RGB('',0.831372618675232,0.850980460643768,
0.858823597431183);
#3830=FILL_AREA_STYLE_COLOUR('',#3820);
#3840=FILL_AREA_STYLE('',(#3830));
#3850=SURFACE_STYLE_FILL_AREA(#3840);
#3860=SURFACE_SIDE_STYLE('',(#3850));
#3870=SURFACE_STYLE_USAGE(.BOTH.,#3860);
#3880=PRESENTATION_STYLE_ASSIGNMENT((#3870));
#3890=CARTESIAN_POINT('',(28.972802,0.540509,0.));
#3900=DIRECTION('',(1.,0.,0.));
#3910=DIRECTION('',(0.,1.,0.));
#3920=AXIS2_PLACEMENT_3D('',#3890,#3900,#3910);
#3930=CYLINDRICAL_SURFACE('',#3920,17.);
#3940=ORIENTED_EDGE('',*,*,#3570,.F.);
#3950=ORIENTED_EDGE('',*,*,#2870,.F.);
#3960=ORIENTED_EDGE('',*,*,#580,.T.);
#3970=ORIENTED_EDGE('',*,*,#3020,.T.);
#3980=EDGE_LOOP('',(#3970,#3960,#3950,#3940));
#3990=FACE_OUTER_BOUND('',#3980,.T.);
#4000=ADVANCED_FACE('',(#3990),#3930,.F.);
#4010=COLOUR_RGB('',0.831372618675232,0.850980460643768,
0.858823597431183);
#4020=FILL_AREA_STYLE_COLOUR('',#4010);
#4030=FILL_AREA_STYLE('',(#4020));
#4040=SURFACE_STYLE_FILL_AREA(#4030);
#4050=SURFACE_SIDE_STYLE('',(#4040));
#4060=SURFACE_STYLE_USAGE(.BOTH.,#4050);
#4070=PRESENTATION_STYLE_ASSIGNMENT((#4060));
#4080=CARTESIAN_POINT('',(25.972802,0.540509,0.));
#4090=DIRECTION('',(-1.,0.,0.));
#4100=DIRECTION('',(0.,1.,0.));
#4110=AXIS2_PLACEMENT_3D('',#4080,#4090,#4100);
#4120=CYLINDRICAL_SURFACE('',#4110,20.);
#4130=ORIENTED_EDGE('',*,*,#980,.F.);
#4140=EDGE_CURVE('',#1060,#970,#1130,.T.);
#4150=ORIENTED_EDGE('',*,*,#4140,.T.);
#4160=ORIENTED_EDGE('',*,*,#1070,.T.);
#4170=ORIENTED_EDGE('',*,*,#750,.T.);
#4180=EDGE_LOOP('',(#4170,#4160,#4150,#4130));
#4190=FACE_OUTER_BOUND('',#4180,.T.);
#4200=ADVANCED_FACE('',(#4190),#4120,.T.);
#4210=COLOUR_RGB('',0.831372618675232,0.850980460643768,
0.858823597431183);
#4220=FILL_AREA_STYLE_COLOUR('',#4210);
#4230=FILL_AREA_STYLE('',(#4220));
#4240=SURFACE_STYLE_FILL_AREA(#4230);
#4250=SURFACE_SIDE_STYLE('',(#4240));
#4260=SURFACE_STYLE_USAGE(.BOTH.,#4250);
#4270=PRESENTATION_STYLE_ASSIGNMENT((#4260));
#4280=CARTESIAN_POINT('',(11.972802,0.540509,0.));
#4290=DIRECTION('',(-1.,0.,0.));
#4300=DIRECTION('',(0.,1.,0.));
#4310=AXIS2_PLACEMENT_3D('',#4280,#4290,#4300);
#4320=CYLINDRICAL_SURFACE('',#4310,23.);
#4330=ORIENTED_EDGE('',*,*,#2280,.F.);
#4340=ORIENTED_EDGE('',*,*,#2560,.F.);
#4350=ORIENTED_EDGE('',*,*,#150,.T.);
#4360=ORIENTED_EDGE('',*,*,#2630,.T.);
#4370=EDGE_LOOP('',(#4360,#4350,#4340,#4330));
#4380=FACE_OUTER_BOUND('',#4370,.T.);
#4390=ADVANCED_FACE('',(#4380),#4320,.T.);
#4400=COLOUR_RGB('',0.831372618675232,0.850980460643768,
0.858823597431183);
#4410=FILL_AREA_STYLE_COLOUR('',#4400);
#4420=FILL_AREA_STYLE('',(#4410));
#4430=SURFACE_STYLE_FILL_AREA(#4420);
#4440=SURFACE_SIDE_STYLE('',(#4430));
#4450=SURFACE_STYLE_USAGE(.BOTH.,#4440);
#4460=PRESENTATION_STYLE_ASSIGNMENT((#4450));
#4470=CARTESIAN_POINT('',(21.0417420699532,0.540509,0.));
#4480=DIRECTION('',(-1.,0.,0.));
#4490=DIRECTION('',(0.,1.,0.));
#4500=AXIS2_PLACEMENT_3D('',#4470,#4480,#4490);
#4510=CYLINDRICAL_SURFACE('',#4500,20.4067043978812);
#4520=ORIENTED_EDGE('',*,*,#1390,.F.);
#4530=ORIENTED_EDGE('',*,*,#2340,.F.);
#4540=ORIENTED_EDGE('',*,*,#1560,.T.);
#4550=ORIENTED_EDGE('',*,*,#3270,.F.);
#4560=EDGE_LOOP('',(#4550,#4540,#4530,#4520));
#4570=FACE_OUTER_BOUND('',#4560,.T.);
#4580=ADVANCED_FACE('',(#4570),#4510,.T.);
#4590=COLOUR_RGB('',0.831372618675232,0.850980460643768,
0.858823597431183);
#4600=FILL_AREA_STYLE_COLOUR('',#4590);
#4610=FILL_AREA_STYLE('',(#4600));
#4620=SURFACE_STYLE_FILL_AREA(#4610);
#4630=SURFACE_SIDE_STYLE('',(#4620));
#4640=SURFACE_STYLE_USAGE(.BOTH.,#4630);
#4650=PRESENTATION_STYLE_ASSIGNMENT((#4640));
#4660=CARTESIAN_POINT('',(21.972802,0.540509,0.));
#4670=DIRECTION('',(1.,0.,0.));
#4680=DIRECTION('',(0.,1.,0.));
#4690=AXIS2_PLACEMENT_3D('',#4660,#4670,#4680);
#4700=TOROIDAL_SURFACE('',#4690,19.9,1.);
#4710=ORIENTED_EDGE('',*,*,#4140,.F.);
#4720=ORIENTED_EDGE('',*,*,#3340,.F.);
#4730=ORIENTED_EDGE('',*,*,#1480,.T.);
#4740=ORIENTED_EDGE('',*,*,#3250,.T.);
#4750=EDGE_LOOP('',(#4740,#4730,#4720,#4710));
#4760=FACE_OUTER_BOUND('',#4750,.T.);
#4770=ADVANCED_FACE('',(#4760),#4700,.T.);
#4780=COLOUR_RGB('',0.,0.,0.);
#4790=FILL_AREA_STYLE_COLOUR('',#4780);
#4800=FILL_AREA_STYLE('',(#4790));
#4810=SURFACE_STYLE_FILL_AREA(#4800);
#4820=SURFACE_SIDE_STYLE('',(#4810));
#4830=SURFACE_STYLE_USAGE(.BOTH.,#4820);
#4840=PRESENTATION_STYLE_ASSIGNMENT((#4830));
#4850=CLOSED_SHELL('',(#360,#790,#1180,#1670,#2060,#2390,#2680,#3070,
#3390,#3620,#3810,#4000,#4200,#4390,#4580,#4770));
#4860=MANIFOLD_SOLID_BREP('',#4850);
#4870=CARTESIAN_POINT('',(0.,0.,0.));
#4880=DIRECTION('',(0.,0.,1.));
#4890=DIRECTION('',(1.,0.,0.));
#4900=AXIS2_PLACEMENT_3D('',#4870,#4880,#4890);
#4910=APPLICATION_CONTEXT(' ');
#4920=APPLICATION_PROTOCOL_DEFINITION(' ','automotive_design',1998,#4910
);
#4930=PRODUCT_CONTEXT('',#4910,'mechanical');
#4940=PRODUCT_DEFINITION_CONTEXT('part definition',#4910,'design');
#4950=PRODUCT('1687587_HC_NPT_1_1_4_M40-select',
'1687587_HC_NPT_1_1_4_M40-select','',(#4930));
#4960=PRODUCT_RELATED_PRODUCT_CATEGORY('part',' ',(#4950));
#4970=PRODUCT_DEFINITION_FORMATION_WITH_SPECIFIED_SOURCE('','',#4950,
.BOUGHT.);
#4980=PRODUCT_DEFINITION('',' ',#4970,#4940);
#4990=PRODUCT_DEFINITION_SHAPE('','',#4980);
#5000=DIMENSIONAL_EXPONENTS(1.,0.,0.,0.,0.,0.,0.);
#5010=DIMENSIONAL_EXPONENTS(0.,0.,0.,0.,0.,0.,0.);
#5020=DIMENSIONAL_EXPONENTS(0.,0.,0.,0.,0.,0.,0.);
#5030=(LENGTH_UNIT() NAMED_UNIT(*) SI_UNIT(.MILLI.,.METRE.));
#5040=(NAMED_UNIT(*) PLANE_ANGLE_UNIT() SI_UNIT($,.RADIAN.));
#5050=(NAMED_UNIT(*) SI_UNIT($,.STERADIAN.) SOLID_ANGLE_UNIT());
#5060=(GEOMETRIC_REPRESENTATION_CONTEXT(3) 
GLOBAL_UNCERTAINTY_ASSIGNED_CONTEXT((#5070)) 
GLOBAL_UNIT_ASSIGNED_CONTEXT((#5030,#5040,#5050)) REPRESENTATION_CONTEXT
('',''));
#5070=UNCERTAINTY_MEASURE_WITH_UNIT(LENGTH_MEASURE(1.E-6),#5030,
'distance_accuracy_value','maximum gap value');
#5080=ADVANCED_BREP_SHAPE_REPRESENTATION('',(#4900,#4860),#5060);
#5090=SHAPE_DEFINITION_REPRESENTATION(#4990,#5080);
#5100=COLOUR_RGB('',0.831372618675232,0.850980460643768,
0.858823597431183);
#5110=FILL_AREA_STYLE_COLOUR('',#5100);
#5120=FILL_AREA_STYLE('',(#5110));
#5130=SURFACE_STYLE_FILL_AREA(#5120);
#5140=SURFACE_SIDE_STYLE('',(#5130));
#5150=SURFACE_STYLE_USAGE(.BOTH.,#5140);
#5160=PRESENTATION_STYLE_ASSIGNMENT((#5150));
#5170=STYLED_ITEM('',(#5160),#4860);
#5180=OVER_RIDING_STYLED_ITEM('',(#430),#360,#5170);
#5190=OVER_RIDING_STYLED_ITEM('',(#860),#790,#5170);
#5200=OVER_RIDING_STYLED_ITEM('',(#1250),#1180,#5170);
#5210=OVER_RIDING_STYLED_ITEM('',(#1740),#1670,#5170);
#5220=OVER_RIDING_STYLED_ITEM('',(#2130),#2060,#5170);
#5230=OVER_RIDING_STYLED_ITEM('',(#2460),#2390,#5170);
#5240=OVER_RIDING_STYLED_ITEM('',(#2750),#2680,#5170);
#5250=OVER_RIDING_STYLED_ITEM('',(#3140),#3070,#5170);
#5260=OVER_RIDING_STYLED_ITEM('',(#3460),#3390,#5170);
#5270=OVER_RIDING_STYLED_ITEM('',(#3690),#3620,#5170);
#5280=OVER_RIDING_STYLED_ITEM('',(#3880),#3810,#5170);
#5290=OVER_RIDING_STYLED_ITEM('',(#4070),#4000,#5170);
#5300=OVER_RIDING_STYLED_ITEM('',(#4270),#4200,#5170);
#5310=OVER_RIDING_STYLED_ITEM('',(#4460),#4390,#5170);
#5320=OVER_RIDING_STYLED_ITEM('',(#4650),#4580,#5170);
#5330=OVER_RIDING_STYLED_ITEM('',(#4840),#4770,#5170);
#5340=DRAUGHTING_MODEL('',(#5170,#5180,#5190,#5200,#5210,#5220,#5230,
#5240,#5250,#5260,#5270,#5280,#5290,#5300,#5310,#5320,#5330),#5060);
#5350=CARTESIAN_POINT('',(-28.972802,-0.540509,0.));
#5360=DIRECTION('',(0.,0.,1.));
#5370=DIRECTION('',(1.,0.,0.));
#5380=AXIS2_PLACEMENT_3D('',#5350,#5360,#5370);
#5390=ITEM_DEFINED_TRANSFORMATION('1687587_HC_NPT_1_1_4_M40-select','',
#4900,#5380);
#5400=APPLICATION_CONTEXT(' ');
#5410=APPLICATION_PROTOCOL_DEFINITION(' ','automotive_design',1998,#5400
);
#5420=PRODUCT_CONTEXT('',#5400,'mechanical');
#5430=PRODUCT_DEFINITION_CONTEXT('part definition',#5400,'design');
#5440=PRODUCT('1687587_HC_NPT_1_1_4_M40-select',
'1687587_HC_NPT_1_1_4_M40-select','',(#5420));
#5450=PRODUCT_RELATED_PRODUCT_CATEGORY('part',' ',(#5440));
#5460=PRODUCT_DEFINITION_FORMATION_WITH_SPECIFIED_SOURCE('','',#5440,
.BOUGHT.);
#5470=PRODUCT_DEFINITION('',' ',#5460,#5430);
#5480=PRODUCT_DEFINITION_SHAPE('','',#5470);
#5490=DIMENSIONAL_EXPONENTS(1.,0.,0.,0.,0.,0.,0.);
#5500=DIMENSIONAL_EXPONENTS(0.,0.,0.,0.,0.,0.,0.);
#5510=DIMENSIONAL_EXPONENTS(0.,0.,0.,0.,0.,0.,0.);
#5520=(LENGTH_UNIT() NAMED_UNIT(*) SI_UNIT(.MILLI.,.METRE.));
#5530=(NAMED_UNIT(*) PLANE_ANGLE_UNIT() SI_UNIT($,.RADIAN.));
#5540=(NAMED_UNIT(*) SI_UNIT($,.STERADIAN.) SOLID_ANGLE_UNIT());
#5550=(GEOMETRIC_REPRESENTATION_CONTEXT(3) 
GLOBAL_UNCERTAINTY_ASSIGNED_CONTEXT((#5560)) 
GLOBAL_UNIT_ASSIGNED_CONTEXT((#5520,#5530,#5540)) REPRESENTATION_CONTEXT
('',''));
#5560=UNCERTAINTY_MEASURE_WITH_UNIT(LENGTH_MEASURE(1.E-6),#5520,
'distance_accuracy_value','maximum gap value');
#5570=SHAPE_REPRESENTATION('',(#4900,#5380),#5550);
#5580=SHAPE_DEFINITION_REPRESENTATION(#5480,#5570);
#5590=(REPRESENTATION_RELATIONSHIP('','',#5080,#5570) 
REPRESENTATION_RELATIONSHIP_WITH_TRANSFORMATION(#5390) 
SHAPE_REPRESENTATION_RELATIONSHIP());
#5600=NEXT_ASSEMBLY_USAGE_OCCURRENCE('1','',
'1687587_HC_NPT_1_1_4_M40-select',#5470,#4980,'');
#5610=PRODUCT_DEFINITION_SHAPE('','',#5600);
#5620=CONTEXT_DEPENDENT_SHAPE_REPRESENTATION(#5590,#5610);
ENDSEC;
END-ISO-10303-21;
